  0
SECTION
  2
HEADER
  9
$LIMMIN
 10
0.000000
 20
0.000000
  9
$LIMMAX
 10
297.301779
 20
210.224104
  9
$EXTMIN
 10
0.000000
 20
0.000000
  9
$EXTMAX
 10
297.301779
 20
210.224104
  9
$ANGBASE
 50
0.0
  9
$ANGDIR
 70
0
  9
$DIMRND
 40
0.000010
  9
$DIMSE1
 70
0
  9
$DIMSE2
 70
0
  9
$DIMTXT
 40
3.500000
  9
$LTSCALE
 40
1.000000
  9
$LUPREC
 70
3
  9
$AUPREC
 70
3
  9
$PDMODE
 70
2
  9
$PDSIZE
 40
1.486509
  0
ENDSEC
  0
SECTION
  2
TABLES
  0
TABLE
  2
VPORT
  70
1
  0
VPORT
  2
*ACTIVE
 70
0
  10
0.0
 20
0.0
 11
1.0
 21
1.0
 12
594.0
 22
420.0
 13
0.0
 23
0.0
 14
10.0
 24
10.0
 15
10.0
 25
10.0
 16
0.0
 26
0.0
 36
1.0
 17
594.0
 27
420.0
 37
100.0
 40
1000.0
 41
1.0
 42
50.0
 43
0.0
 44
0.0
 50
0.0
 51
0.0
 71
0
 72
2000
 73
1
 74
3
 75
0
 76
0
 77
0
 78
1
  0
ENDTAB
  0
TABLE
  2
LTYPE
 70
4
  0
LTYPE
  2
CONTINUOUS
 70
0
  3
Solid line
 72
65
 73
0
 40
0.0
  0
LTYPE
  2
DASHED
 70
0
  3
Dashed line
 72
65
 73
2
 40
6.000000
 49
3.000000
 49
-3.000000
  0
LTYPE
  2
CENTER
 70
0
  3
Chain line
 72
65
 73
4
 40
24.000000
 49
15.000000
 49
-3.000000
 49
3.000000
 49
-3.000000
  0
LTYPE
  2
RANDOM
 70
0
  3
Random line
 72
65
 73
4
 40
22.500000
 49
6.000000
 49
-3.000000
 49
4.500000
 49
-9.000000
  0
ENDTAB
  0
TABLE
  2
STYLE
 70
9
  0
STYLE
  2
STANDARD
 40
0
 41
1.0
 50
0.0
 71
0
 42
0
  3
simplex
  4

 70
0
  0
ENDTAB
  0
TABLE
  2
LAYER
 70
2
  0
LAYER
  2
0
 70
0
 62
7
  6
CONTINUOUS
  0
LAYER
  2
ENTITYA19764
 62
1
  6
CONTINUOUS
 70
0
  0
ENDTAB
  0
ENDSEC
  0
SECTION
  2
BLOCKS
  0
ENDSEC
  0
SECTION
  2
ENTITIES
  0
LINE
  8
ENTITYA19764
  6
CONTINUOUS
 62
1
 10
297.000000
 20
0.000000
 11
297.000000
 21
210.000000
  0
CIRCLE
  8
ENTITYA19764
  6
CONTINUOUS
 62
1
 10
292.314963
 20
5.150956
 40
2.537993
  0
TEXT
  8
ENTITYA19764
  6
CONTINUOUS
 62
1
 10
293.314963
 20
4.588456
 40
2.000000
  1
C
 50
90.000000
 41
0.900000
 51
0.000000
  7
STANDARD
  0
TEXT
  8
ENTITYA19764
  6
CONTINUOUS
 62
1
 10
293.314963
 20
9.420802
 40
2.000000
  1
CRITTALL WINDOWS LTD. 2005
 50
90.000000
 41
0.900000
 51
0.000000
  7
STANDARD
  0
LINE
  8
ENTITYA19764
  6
CONTINUOUS
 62
1
 10
21.230951
 20
173.144222
 11
27.002201
 21
173.144222
  0
LINE
  8
ENTITYA19764
  6
CONTINUOUS
 62
1
 10
21.230951
 20
187.957097
 11
27.002201
 21
187.957097
  0
LINE
  8
ENTITYA19764
  6
CONTINUOUS
 62
1
 10
27.002201
 20
189.111347
 11
22.490133
 21
189.111347
  0
LINE
  8
ENTITYA19764
  6
CONTINUOUS
 62
1
 10
27.002201
 20
171.989972
 11
22.490133
 21
171.989972
  0
LINE
  8
ENTITYA19764
  6
CONTINUOUS
 62
1
 10
16.036826
 20
183.195815
 11
16.036826
 21
177.905503
  0
LINE
  8
ENTITYA19764
  6
CONTINUOUS
 62
1
 10
17.191076
 20
176.847440
 11
17.191076
 21
179.973534
  0
LINE
  8
ENTITYA19764
  6
CONTINUOUS
 62
1
 10
17.191076
 20
181.127784
 11
17.191076
 21
184.253878
  0
LINE
  8
ENTITYA19764
  6
CONTINUOUS
 62
1
 10
16.036826
 20
177.905503
 11
13.151201
 21
180.550659
  0
LINE
  8
ENTITYA19764
  6
CONTINUOUS
 62
1
 10
27.002201
 20
167.853909
 11
22.490133
 21
171.989972
  0
LINE
  8
ENTITYA19764
  6
CONTINUOUS
 62
1
 10
20.076701
 20
174.202284
 11
17.191076
 21
176.847440
  0
LINE
  8
ENTITYA19764
  6
CONTINUOUS
 62
1
 10
22.490133
 20
189.111347
 11
27.002201
 21
193.247409
  0
LINE
  8
ENTITYA19764
  6
CONTINUOUS
 62
1
 10
13.151201
 20
180.550659
 11
16.036826
 21
183.195815
  0
LINE
  8
ENTITYA19764
  6
CONTINUOUS
 62
1
 10
17.191076
 20
184.253878
 11
20.076701
 21
186.899034
  0
LINE
  8
ENTITYA19764
  6
CONTINUOUS
 62
1
 10
27.002201
 20
171.989972
 11
27.002201
 21
167.853909
  0
LINE
  8
ENTITYA19764
  6
CONTINUOUS
 62
1
 10
27.002201
 20
179.973534
 11
27.002201
 21
173.144222
  0
LINE
  8
ENTITYA19764
  6
CONTINUOUS
 62
1
 10
27.002201
 20
193.247409
 11
27.002201
 21
189.111347
  0
LINE
  8
ENTITYA19764
  6
CONTINUOUS
 62
1
 10
27.002201
 20
187.957097
 11
27.002201
 21
181.127784
  0
LINE
  8
ENTITYA19764
  6
CONTINUOUS
 62
1
 10
27.002201
 20
179.973534
 11
21.230951
 21
179.973534
  0
LINE
  8
ENTITYA19764
  6
CONTINUOUS
 62
1
 10
20.076701
 20
179.973534
 11
17.191076
 21
179.973534
  0
LINE
  8
ENTITYA19764
  6
CONTINUOUS
 62
1
 10
27.002201
 20
181.127784
 11
21.230951
 21
181.127784
  0
LINE
  8
ENTITYA19764
  6
CONTINUOUS
 62
1
 10
20.076701
 20
181.127784
 11
17.191076
 21
181.127784
  0
LINE
  8
ENTITYA19764
  6
CONTINUOUS
 62
1
 10
20.076701
 20
186.899034
 11
20.076701
 21
181.127784
  0
LINE
  8
ENTITYA19764
  6
CONTINUOUS
 62
1
 10
20.076701
 20
179.973534
 11
20.076701
 21
174.202284
  0
LINE
  8
ENTITYA19764
  6
CONTINUOUS
 62
1
 10
21.230951
 20
173.144222
 11
21.230951
 21
179.973534
  0
LINE
  8
ENTITYA19764
  6
CONTINUOUS
 62
1
 10
21.230951
 20
181.127784
 11
21.230951
 21
187.957097
  0
LINE
  8
ENTITYA19764
  6
CONTINUOUS
 62
1
 10
15.805976
 20
178.117115
 11
15.805976
 21
182.984203
  0
LINE
  8
ENTITYA19764
  6
CONTINUOUS
 62
1
 10
15.575126
 20
182.772590
 11
15.575126
 21
178.328728
  0
LINE
  8
ENTITYA19764
  6
CONTINUOUS
 62
1
 10
15.344276
 20
178.540340
 11
15.344276
 21
182.560978
  0
LINE
  8
ENTITYA19764
  6
CONTINUOUS
 62
1
 10
15.113426
 20
182.349365
 11
15.113426
 21
178.751953
  0
LINE
  8
ENTITYA19764
  6
CONTINUOUS
 62
1
 10
14.882576
 20
178.963565
 11
14.882576
 21
182.137753
  0
LINE
  8
ENTITYA19764
  6
CONTINUOUS
 62
1
 10
14.651726
 20
181.926140
 11
14.651726
 21
179.175178
  0
LINE
  8
ENTITYA19764
  6
CONTINUOUS
 62
1
 10
14.420876
 20
179.386790
 11
14.420876
 21
181.714528
  0
LINE
  8
ENTITYA19764
  6
CONTINUOUS
 62
1
 10
14.190026
 20
181.502915
 11
14.190026
 21
179.598403
  0
LINE
  8
ENTITYA19764
  6
CONTINUOUS
 62
1
 10
13.959176
 20
179.810015
 11
13.959176
 21
181.291303
  0
LINE
  8
ENTITYA19764
  6
CONTINUOUS
 62
1
 10
13.728326
 20
181.079690
 11
13.728326
 21
180.021628
  0
LINE
  8
ENTITYA19764
  6
CONTINUOUS
 62
1
 10
13.497476
 20
180.233240
 11
13.497476
 21
180.868078
  0
LINE
  8
ENTITYA19764
  6
CONTINUOUS
 62
1
 10
13.266626
 20
180.656465
 11
13.266626
 21
180.444853
  0
LINE
  8
ENTITYA19764
  6
CONTINUOUS
 62
1
 10
26.540501
 20
173.144222
 11
26.540501
 21
179.973534
  0
LINE
  8
ENTITYA19764
  6
CONTINUOUS
 62
1
 10
26.078801
 20
179.973534
 11
26.078801
 21
173.144222
  0
LINE
  8
ENTITYA19764
  6
CONTINUOUS
 62
1
 10
25.617101
 20
173.144222
 11
25.617101
 21
179.973534
  0
LINE
  8
ENTITYA19764
  6
CONTINUOUS
 62
1
 10
25.155401
 20
179.973534
 11
25.155401
 21
173.144222
  0
LINE
  8
ENTITYA19764
  6
CONTINUOUS
 62
1
 10
24.693701
 20
173.144222
 11
24.693701
 21
179.973534
  0
LINE
  8
ENTITYA19764
  6
CONTINUOUS
 62
1
 10
24.232001
 20
179.973534
 11
24.232001
 21
173.144222
  0
LINE
  8
ENTITYA19764
  6
CONTINUOUS
 62
1
 10
23.770301
 20
173.144222
 11
23.770301
 21
179.973534
  0
LINE
  8
ENTITYA19764
  6
CONTINUOUS
 62
1
 10
23.308601
 20
179.973534
 11
23.308601
 21
173.144222
  0
LINE
  8
ENTITYA19764
  6
CONTINUOUS
 62
1
 10
22.846901
 20
173.144222
 11
22.846901
 21
179.973534
  0
LINE
  8
ENTITYA19764
  6
CONTINUOUS
 62
1
 10
22.385201
 20
179.973534
 11
22.385201
 21
173.144222
  0
LINE
  8
ENTITYA19764
  6
CONTINUOUS
 62
1
 10
21.923501
 20
173.144222
 11
21.923501
 21
179.973534
  0
LINE
  8
ENTITYA19764
  6
CONTINUOUS
 62
1
 10
21.461801
 20
179.973534
 11
21.461801
 21
173.144222
  0
LINE
  8
ENTITYA19764
  6
CONTINUOUS
 62
1
 10
26.540501
 20
181.127784
 11
26.540501
 21
187.957097
  0
LINE
  8
ENTITYA19764
  6
CONTINUOUS
 62
1
 10
26.078801
 20
187.957097
 11
26.078801
 21
181.127784
  0
LINE
  8
ENTITYA19764
  6
CONTINUOUS
 62
1
 10
25.617101
 20
181.127784
 11
25.617101
 21
187.957097
  0
LINE
  8
ENTITYA19764
  6
CONTINUOUS
 62
1
 10
25.155401
 20
187.957097
 11
25.155401
 21
181.127784
  0
LINE
  8
ENTITYA19764
  6
CONTINUOUS
 62
1
 10
25.155401
 20
187.957097
 11
25.155401
 21
181.127784
  0
LINE
  8
ENTITYA19764
  6
CONTINUOUS
 62
1
 10
24.693701
 20
181.127784
 11
24.693701
 21
187.957097
  0
LINE
  8
ENTITYA19764
  6
CONTINUOUS
 62
1
 10
24.232001
 20
187.957097
 11
24.232001
 21
181.127784
  0
LINE
  8
ENTITYA19764
  6
CONTINUOUS
 62
1
 10
23.770301
 20
181.127784
 11
23.770301
 21
187.957097
  0
LINE
  8
ENTITYA19764
  6
CONTINUOUS
 62
1
 10
23.308601
 20
187.957097
 11
23.308601
 21
181.127784
  0
LINE
  8
ENTITYA19764
  6
CONTINUOUS
 62
1
 10
22.846901
 20
181.127784
 11
22.846901
 21
187.957097
  0
LINE
  8
ENTITYA19764
  6
CONTINUOUS
 62
1
 10
22.385201
 20
187.957097
 11
22.385201
 21
181.127784
  0
LINE
  8
ENTITYA19764
  6
CONTINUOUS
 62
1
 10
21.923501
 20
181.127784
 11
21.923501
 21
187.957097
  0
LINE
  8
ENTITYA19764
  6
CONTINUOUS
 62
1
 10
21.461801
 20
187.957097
 11
21.461801
 21
181.127784
  0
LINE
  8
ENTITYA19764
  6
CONTINUOUS
 62
1
 10
19.615001
 20
181.127784
 11
19.615001
 21
186.475809
  0
LINE
  8
ENTITYA19764
  6
CONTINUOUS
 62
1
 10
19.153301
 20
186.052584
 11
19.153301
 21
181.127784
  0
LINE
  8
ENTITYA19764
  6
CONTINUOUS
 62
1
 10
18.691601
 20
181.127784
 11
18.691601
 21
185.629359
  0
LINE
  8
ENTITYA19764
  6
CONTINUOUS
 62
1
 10
18.229901
 20
185.206134
 11
18.229901
 21
181.127784
  0
LINE
  8
ENTITYA19764
  6
CONTINUOUS
 62
1
 10
17.768201
 20
181.127784
 11
17.768201
 21
184.782909
  0
LINE
  8
ENTITYA19764
  6
CONTINUOUS
 62
1
 10
17.306501
 20
184.359684
 11
17.306501
 21
181.127784
  0
LINE
  8
ENTITYA19764
  6
CONTINUOUS
 62
1
 10
19.615001
 20
174.625509
 11
19.615001
 21
179.973534
  0
LINE
  8
ENTITYA19764
  6
CONTINUOUS
 62
1
 10
19.153301
 20
179.973534
 11
19.153301
 21
175.048734
  0
LINE
  8
ENTITYA19764
  6
CONTINUOUS
 62
1
 10
18.691601
 20
175.471959
 11
18.691601
 21
179.973534
  0
LINE
  8
ENTITYA19764
  6
CONTINUOUS
 62
1
 10
18.229901
 20
179.973534
 11
18.229901
 21
175.895184
  0
LINE
  8
ENTITYA19764
  6
CONTINUOUS
 62
1
 10
17.768201
 20
176.318409
 11
17.768201
 21
179.973534
  0
LINE
  8
ENTITYA19764
  6
CONTINUOUS
 62
1
 10
17.306501
 20
179.973534
 11
17.306501
 21
176.741634
  0
LINE
  8
ENTITYA19764
  6
CONTINUOUS
 62
1
 10
26.540501
 20
168.277134
 11
26.540501
 21
171.989972
  0
LINE
  8
ENTITYA19764
  6
CONTINUOUS
 62
1
 10
26.078801
 20
171.989972
 11
26.078801
 21
168.700359
  0
LINE
  8
ENTITYA19764
  6
CONTINUOUS
 62
1
 10
25.617101
 20
169.123584
 11
25.617101
 21
171.989972
  0
LINE
  8
ENTITYA19764
  6
CONTINUOUS
 62
1
 10
25.155401
 20
171.989972
 11
25.155401
 21
169.546809
  0
LINE
  8
ENTITYA19764
  6
CONTINUOUS
 62
1
 10
24.693701
 20
169.970034
 11
24.693701
 21
171.989972
  0
LINE
  8
ENTITYA19764
  6
CONTINUOUS
 62
1
 10
24.232001
 20
171.989972
 11
24.232001
 21
170.393259
  0
LINE
  8
ENTITYA19764
  6
CONTINUOUS
 62
1
 10
23.770301
 20
170.816484
 11
23.770301
 21
171.989972
  0
LINE
  8
ENTITYA19764
  6
CONTINUOUS
 62
1
 10
23.308601
 20
171.989972
 11
23.308601
 21
171.239709
  0
LINE
  8
ENTITYA19764
  6
CONTINUOUS
 62
1
 10
22.846901
 20
171.662934
 11
22.846901
 21
171.989972
  0
LINE
  8
ENTITYA19764
  6
CONTINUOUS
 62
1
 10
26.540501
 20
189.111347
 11
26.540501
 21
192.824184
  0
LINE
  8
ENTITYA19764
  6
CONTINUOUS
 62
1
 10
26.078801
 20
192.400959
 11
26.078801
 21
189.111347
  0
LINE
  8
ENTITYA19764
  6
CONTINUOUS
 62
1
 10
25.617101
 20
189.111347
 11
25.617101
 21
191.977734
  0
LINE
  8
ENTITYA19764
  6
CONTINUOUS
 62
1
 10
25.155401
 20
191.554509
 11
25.155401
 21
189.111347
  0
LINE
  8
ENTITYA19764
  6
CONTINUOUS
 62
1
 10
24.693701
 20
189.111347
 11
24.693701
 21
191.131284
  0
LINE
  8
ENTITYA19764
  6
CONTINUOUS
 62
1
 10
24.232001
 20
190.708059
 11
24.232001
 21
189.111347
  0
LINE
  8
ENTITYA19764
  6
CONTINUOUS
 62
1
 10
23.770301
 20
189.111347
 11
23.770301
 21
190.284834
  0
LINE
  8
ENTITYA19764
  6
CONTINUOUS
 62
1
 10
23.308601
 20
189.861609
 11
23.308601
 21
189.111347
  0
LINE
  8
ENTITYA19764
  6
CONTINUOUS
 62
1
 10
22.846901
 20
189.111347
 11
22.846901
 21
189.438384
  0
LINE
  8
ENTITYA19764
  6
CONTINUOUS
 62
1
 10
26.771351
 20
173.144222
 11
26.771351
 21
179.973534
  0
LINE
  8
ENTITYA19764
  6
CONTINUOUS
 62
1
 10
26.309651
 20
179.973534
 11
26.309651
 21
173.144222
  0
LINE
  8
ENTITYA19764
  6
CONTINUOUS
 62
1
 10
25.847951
 20
179.973534
 11
25.847951
 21
173.144222
  0
LINE
  8
ENTITYA19764
  6
CONTINUOUS
 62
1
 10
25.386251
 20
173.144222
 11
25.386251
 21
179.973534
  0
LINE
  8
ENTITYA19764
  6
CONTINUOUS
 62
1
 10
23.077751
 20
173.144222
 11
23.077751
 21
179.973534
  0
LINE
  8
ENTITYA19764
  6
CONTINUOUS
 62
1
 10
22.616051
 20
179.973534
 11
22.616051
 21
173.144222
  0
LINE
  8
ENTITYA19764
  6
CONTINUOUS
 62
1
 10
22.154351
 20
173.144222
 11
22.154351
 21
179.973534
  0
LINE
  8
ENTITYA19764
  6
CONTINUOUS
 62
1
 10
21.692651
 20
179.973534
 11
21.692651
 21
173.144222
  0
LINE
  8
ENTITYA19764
  6
CONTINUOUS
 62
1
 10
23.539451
 20
179.973534
 11
23.539451
 21
173.144222
  0
LINE
  8
ENTITYA19764
  6
CONTINUOUS
 62
1
 10
24.001151
 20
173.144222
 11
24.001151
 21
179.973534
  0
LINE
  8
ENTITYA19764
  6
CONTINUOUS
 62
1
 10
24.462851
 20
179.973534
 11
24.462851
 21
173.144222
  0
LINE
  8
ENTITYA19764
  6
CONTINUOUS
 62
1
 10
24.924551
 20
173.144222
 11
24.924551
 21
179.973534
  0
LINE
  8
ENTITYA19764
  6
CONTINUOUS
 62
1
 10
26.771351
 20
181.127784
 11
26.771351
 21
187.957097
  0
LINE
  8
ENTITYA19764
  6
CONTINUOUS
 62
1
 10
26.309651
 20
187.957097
 11
26.309651
 21
181.127784
  0
LINE
  8
ENTITYA19764
  6
CONTINUOUS
 62
1
 10
21.692651
 20
181.127784
 11
21.692651
 21
187.957097
  0
LINE
  8
ENTITYA19764
  6
CONTINUOUS
 62
1
 10
22.154351
 20
187.957097
 11
22.154351
 21
181.127784
  0
LINE
  8
ENTITYA19764
  6
CONTINUOUS
 62
1
 10
22.616051
 20
187.957097
 11
22.616051
 21
181.127784
  0
LINE
  8
ENTITYA19764
  6
CONTINUOUS
 62
1
 10
23.077751
 20
181.127784
 11
23.077751
 21
187.957097
  0
LINE
  8
ENTITYA19764
  6
CONTINUOUS
 62
1
 10
23.539451
 20
181.127784
 11
23.539451
 21
187.957097
  0
LINE
  8
ENTITYA19764
  6
CONTINUOUS
 62
1
 10
24.001151
 20
181.127784
 11
24.001151
 21
187.957097
  0
LINE
  8
ENTITYA19764
  6
CONTINUOUS
 62
1
 10
24.462851
 20
181.127784
 11
24.462851
 21
187.957097
  0
LINE
  8
ENTITYA19764
  6
CONTINUOUS
 62
1
 10
24.924551
 20
187.957097
 11
24.924551
 21
181.127784
  0
LINE
  8
ENTITYA19764
  6
CONTINUOUS
 62
1
 10
25.386251
 20
187.957097
 11
25.386251
 21
181.127784
  0
LINE
  8
ENTITYA19764
  6
CONTINUOUS
 62
1
 10
25.847951
 20
181.127784
 11
25.847951
 21
187.957097
  0
LINE
  8
ENTITYA19764
  6
CONTINUOUS
 62
1
 10
26.771351
 20
189.111347
 11
26.771351
 21
193.035797
  0
LINE
  8
ENTITYA19764
  6
CONTINUOUS
 62
1
 10
26.309651
 20
192.612572
 11
26.309651
 21
189.111347
  0
LINE
  8
ENTITYA19764
  6
CONTINUOUS
 62
1
 10
25.847951
 20
189.111347
 11
25.847951
 21
192.189347
  0
LINE
  8
ENTITYA19764
  6
CONTINUOUS
 62
1
 10
25.386251
 20
191.766122
 11
25.386251
 21
189.111347
  0
LINE
  8
ENTITYA19764
  6
CONTINUOUS
 62
1
 10
24.924551
 20
189.111347
 11
24.924551
 21
191.342897
  0
LINE
  8
ENTITYA19764
  6
CONTINUOUS
 62
1
 10
24.462851
 20
190.919672
 11
24.462851
 21
189.111347
  0
LINE
  8
ENTITYA19764
  6
CONTINUOUS
 62
1
 10
24.001151
 20
190.496447
 11
24.001151
 21
189.111347
  0
LINE
  8
ENTITYA19764
  6
CONTINUOUS
 62
1
 10
23.539451
 20
190.073222
 11
23.539451
 21
189.111347
  0
LINE
  8
ENTITYA19764
  6
CONTINUOUS
 62
1
 10
23.077751
 20
189.111347
 11
23.077751
 21
189.649997
  0
LINE
  8
ENTITYA19764
  6
CONTINUOUS
 62
1
 10
22.616051
 20
189.226772
 11
22.616051
 21
189.111347
  0
LINE
  8
ENTITYA19764
  6
CONTINUOUS
 62
1
 10
26.771351
 20
168.065522
 11
26.771351
 21
171.989972
  0
LINE
  8
ENTITYA19764
  6
CONTINUOUS
 62
1
 10
26.309651
 20
171.989972
 11
26.309651
 21
168.488747
  0
LINE
  8
ENTITYA19764
  6
CONTINUOUS
 62
1
 10
25.847951
 20
168.911972
 11
25.847951
 21
171.989972
  0
LINE
  8
ENTITYA19764
  6
CONTINUOUS
 62
1
 10
25.386251
 20
171.989972
 11
25.386251
 21
169.335197
  0
LINE
  8
ENTITYA19764
  6
CONTINUOUS
 62
1
 10
24.924551
 20
169.758422
 11
24.924551
 21
171.989972
  0
LINE
  8
ENTITYA19764
  6
CONTINUOUS
 62
1
 10
24.462851
 20
171.989972
 11
24.462851
 21
170.181647
  0
LINE
  8
ENTITYA19764
  6
CONTINUOUS
 62
1
 10
24.001151
 20
170.604872
 11
24.001151
 21
171.989972
  0
LINE
  8
ENTITYA19764
  6
CONTINUOUS
 62
1
 10
23.539451
 20
171.989972
 11
23.539451
 21
171.028097
  0
LINE
  8
ENTITYA19764
  6
CONTINUOUS
 62
1
 10
23.077751
 20
171.451322
 11
23.077751
 21
171.989972
  0
LINE
  8
ENTITYA19764
  6
CONTINUOUS
 62
1
 10
22.616051
 20
171.989972
 11
22.616051
 21
171.874547
  0
LINE
  8
ENTITYA19764
  6
CONTINUOUS
 62
1
 10
19.845851
 20
181.127784
 11
19.845851
 21
186.687422
  0
LINE
  8
ENTITYA19764
  6
CONTINUOUS
 62
1
 10
19.384151
 20
186.264197
 11
19.384151
 21
181.127784
  0
LINE
  8
ENTITYA19764
  6
CONTINUOUS
 62
1
 10
18.922451
 20
181.127784
 11
18.922451
 21
185.840972
  0
LINE
  8
ENTITYA19764
  6
CONTINUOUS
 62
1
 10
18.460751
 20
185.417747
 11
18.460751
 21
181.127784
  0
LINE
  8
ENTITYA19764
  6
CONTINUOUS
 62
1
 10
17.999051
 20
181.127784
 11
17.999051
 21
184.994522
  0
LINE
  8
ENTITYA19764
  6
CONTINUOUS
 62
1
 10
17.537351
 20
184.571297
 11
17.537351
 21
181.127784
  0
LINE
  8
ENTITYA19764
  6
CONTINUOUS
 62
1
 10
17.537351
 20
179.973534
 11
17.537351
 21
176.530022
  0
LINE
  8
ENTITYA19764
  6
CONTINUOUS
 62
1
 10
17.999051
 20
176.106797
 11
17.999051
 21
179.973534
  0
LINE
  8
ENTITYA19764
  6
CONTINUOUS
 62
1
 10
18.460751
 20
179.973534
 11
18.460751
 21
175.683572
  0
LINE
  8
ENTITYA19764
  6
CONTINUOUS
 62
1
 10
18.922451
 20
175.260347
 11
18.922451
 21
179.973534
  0
LINE
  8
ENTITYA19764
  6
CONTINUOUS
 62
1
 10
19.384151
 20
179.973534
 11
19.384151
 21
174.837122
  0
LINE
  8
ENTITYA19764
  6
CONTINUOUS
 62
1
 10
19.845851
 20
174.413897
 11
19.845851
 21
179.973534
  0
LINE
  8
ENTITYA19764
  6
CONTINUOUS
 62
1
 10
39.314201
 20
199.457590
 11
39.314201
 21
161.643698
  0
LINE
  8
ENTITYA19764
  6
CONTINUOUS
 62
1
 10
29.310701
 20
161.643698
 11
29.310701
 21
199.457590
  0
LINE
  8
ENTITYA19764
  6
CONTINUOUS
 62
1
 10
29.400701
 20
199.457590
 11
29.400701
 21
161.643698
  0
LINE
  8
ENTITYA19764
  6
CONTINUOUS
 62
1
 10
39.404201
 20
161.643698
 11
39.404201
 21
199.457590
  0
ARC
  8
ENTITYA19764
  6
CONTINUOUS
 62
1
 10
32.349256
 20
164.250945
 40
1.226409
 50
101.065051
 51
132.065051
  0
ARC
  8
ENTITYA19764
  6
CONTINUOUS
 62
1
 10
32.475046
 20
164.321257
 40
1.266304
 50
138.434949
 51
168.434949
  0
ARC
  8
ENTITYA19764
  6
CONTINUOUS
 62
1
 10
33.862080
 20
164.135412
 40
2.664166
 50
170.500000
 51
189.499999
  0
ARC
  8
ENTITYA19764
  6
CONTINUOUS
 62
1
 10
33.200607
 20
163.609854
 40
1.968029
 50
177.500000
 51
272.499999
  0
LINE
  8
ENTITYA19764
  6
CONTINUOUS
 62
1
 10
33.286451
 20
161.643698
 11
35.045308
 21
161.643698
  0
ARC
  8
ENTITYA19764
  6
CONTINUOUS
 62
1
 10
34.902426
 20
165.003773
 40
3.363111
 50
272.434949
 51
304.434949
  0
ARC
  8
ENTITYA19764
  6
CONTINUOUS
 62
1
 10
35.946657
 20
163.391595
 40
1.443835
 50
306.434949
 51
0.434948
  0
LINE
  8
ENTITYA19764
  6
CONTINUOUS
 62
1
 10
37.390451
 20
163.402555
 11
37.390451
 21
163.988841
  0
ARC
  8
ENTITYA19764
  6
CONTINUOUS
 62
1
 10
35.975821
 20
164.059022
 40
1.416370
 50
357.159808
 51
80.159810
  0
LINE
  8
ENTITYA19764
  6
CONTINUOUS
 62
1
 10
37.390451
 20
166.920269
 11
31.234451
 21
166.920269
  0
LINE
  8
ENTITYA19764
  6
CONTINUOUS
 62
1
 10
31.234451
 20
166.920269
 11
31.234451
 21
169.558555
  0
ARC
  8
ENTITYA19764
  6
CONTINUOUS
 62
1
 10
32.407022
 20
169.558555
 40
1.172571
 50
90.000000
 51
180.000000
  0
ARC
  8
ENTITYA19764
  6
CONTINUOUS
 62
1
 10
32.407022
 20
169.265412
 40
1.465714
 50
0.000001
 51
90.000000
  0
LINE
  8
ENTITYA19764
  6
CONTINUOUS
 62
1
 10
33.872736
 20
169.265412
 11
33.872736
 21
166.920269
  0
LINE
  8
ENTITYA19764
  6
CONTINUOUS
 62
1
 10
33.872736
 20
168.679126
 11
37.390451
 21
170.731126
  0
LINE
  8
ENTITYA19764
  6
CONTINUOUS
 62
1
 10
37.390451
 20
172.196841
 11
31.234451
 21
172.196841
  0
LINE
  8
ENTITYA19764
  6
CONTINUOUS
 62
1
 10
31.234451
 20
175.714555
 11
37.390451
 21
175.714555
  0
LINE
  8
ENTITYA19764
  6
CONTINUOUS
 62
1
 10
31.234451
 20
173.662555
 11
31.234451
 21
183.336269
  0
LINE
  8
ENTITYA19764
  6
CONTINUOUS
 62
1
 10
31.234451
 20
181.284269
 11
37.390451
 21
181.284269
  0
LINE
  8
ENTITYA19764
  6
CONTINUOUS
 62
1
 10
37.390451
 20
184.801984
 11
31.234451
 21
187.147126
  0
LINE
  8
ENTITYA19764
  6
CONTINUOUS
 62
1
 10
31.234451
 20
187.147126
 11
37.390451
 21
189.492269
  0
LINE
  8
ENTITYA19764
  6
CONTINUOUS
 62
1
 10
35.338451
 20
185.583698
 11
35.338451
 21
188.710555
  0
LINE
  8
ENTITYA19764
  6
CONTINUOUS
 62
1
 10
37.390451
 20
190.957984
 11
31.234451
 21
190.957984
  0
LINE
  8
ENTITYA19764
  6
CONTINUOUS
 62
1
 10
37.390451
 20
190.957984
 11
37.390451
 21
194.475698
  0
LINE
  8
ENTITYA19764
  6
CONTINUOUS
 62
1
 10
37.390451
 20
195.941412
 11
31.234451
 21
195.941412
  0
LINE
  8
ENTITYA19764
  6
CONTINUOUS
 62
1
 10
37.390451
 20
195.941412
 11
37.390451
 21
199.459126
  0
LINE
  8
ENTITYA19764
  6
CONTINUOUS
 62
1
 10
267.396594
 20
191.739155
 11
265.521594
 21
191.739155
  0
ARC
  8
ENTITYA19764
  6
CONTINUOUS
 62
1
 10
261.147317
 20
191.418037
 40
4.386048
 50
4.198591
 51
42.198592
  0
ARC
  8
ENTITYA19764
  6
CONTINUOUS
 62
1
 10
261.214393
 20
190.426044
 40
5.063114
 50
51.059965
 51
90.059967
  0
ARC
  8
ENTITYA19764
  6
CONTINUOUS
 62
1
 10
261.101330
 20
191.214025
 40
4.276488
 50
88.556045
 51
132.556044
  0
ARC
  8
ENTITYA19764
  6
CONTINUOUS
 62
1
 10
259.795267
 20
192.931661
 40
2.137285
 50
137.914383
 51
213.914386
  0
ARC
  8
ENTITYA19764
  6
CONTINUOUS
 62
1
 10
260.690291
 20
194.061984
 40
3.538004
 50
221.036243
 51
257.036244
  0
LINE
  8
ENTITYA19764
  6
CONTINUOUS
 62
1
 10
259.896594
 20
190.614155
 11
263.271594
 21
189.676655
  0
ARC
  8
ENTITYA19764
  6
CONTINUOUS
 62
1
 10
262.338553
 20
184.972034
 40
4.796251
 50
30.782407
 51
78.782407
  0
ARC
  8
ENTITYA19764
  6
CONTINUOUS
 62
1
 10
262.889004
 20
185.889914
 40
3.886787
 50
325.289408
 51
23.289407
  0
ARC
  8
ENTITYA19764
  6
CONTINUOUS
 62
1
 10
262.151938
 20
186.853467
 40
5.055095
 50
272.065052
 51
321.065051
  0
ARC
  8
ENTITYA19764
  6
CONTINUOUS
 62
1
 10
261.501553
 20
188.359467
 40
6.610448
 50
238.235225
 51
277.235226
  0
ARC
  8
ENTITYA19764
  6
CONTINUOUS
 62
1
 10
260.505843
 20
186.321326
 40
4.359294
 50
180.258542
 51
235.258541
  0
LINE
  8
ENTITYA19764
  6
CONTINUOUS
 62
1
 10
256.146594
 20
186.301655
 11
258.021594
 21
186.301655
  0
ARC
  8
ENTITYA19764
  6
CONTINUOUS
 62
1
 10
261.265167
 20
186.685927
 40
3.266256
 50
186.756437
 51
233.756439
  0
ARC
  8
ENTITYA19764
  6
CONTINUOUS
 62
1
 10
261.711205
 20
189.037712
 40
5.523714
 50
244.510447
 51
290.510447
  0
ARC
  8
ENTITYA19764
  6
CONTINUOUS
 62
1
 10
262.688744
 20
185.749331
 40
2.114560
 50
296.934949
 51
9.934947
  0
ARC
  8
ENTITYA19764
  6
CONTINUOUS
 62
1
 10
262.866695
 20
185.709257
 40
1.947455
 50
12.000000
 51
78.000002
  0
LINE
  8
ENTITYA19764
  6
CONTINUOUS
 62
1
 10
263.271594
 20
187.614155
 11
258.209094
 21
189.114155
  0
ARC
  8
ENTITYA19764
  6
CONTINUOUS
 62
1
 10
259.635115
 20
192.812541
 40
3.963785
 50
192.914382
 51
248.914383
  0
ARC
  8
ENTITYA19764
  6
CONTINUOUS
 62
1
 10
260.053830
 20
192.686743
 40
4.349170
 50
133.065052
 51
190.065051
  0
ARC
  8
ENTITYA19764
  6
CONTINUOUS
 62
1
 10
260.901814
 20
191.003999
 40
6.180300
 50
87.150123
 51
128.150124
  0
ARC
  8
ENTITYA19764
  6
CONTINUOUS
 62
1
 10
261.540327
 20
189.914073
 40
7.270132
 50
63.611341
 51
92.611342
  0
ARC
  8
ENTITYA19764
  6
CONTINUOUS
 62
1
 10
262.183439
 20
191.898539
 40
5.215591
 50
358.248827
 51
60.248826
  0
LINE
  8
ENTITYA19764
  6
CONTINUOUS
 62
1
 10
246.584094
 20
196.989155
 11
248.646594
 21
196.989155
  0
LINE
  8
ENTITYA19764
  6
CONTINUOUS
 62
1
 10
248.646594
 20
196.989155
 11
248.646594
 21
183.676655
  0
LINE
  8
ENTITYA19764
  6
CONTINUOUS
 62
1
 10
248.646594
 20
183.676655
 11
253.709094
 21
183.676655
  0
LINE
  8
ENTITYA19764
  6
CONTINUOUS
 62
1
 10
253.709094
 20
183.676655
 11
253.709094
 21
181.989155
  0
LINE
  8
ENTITYA19764
  6
CONTINUOUS
 62
1
 10
253.709094
 20
181.989155
 11
241.709094
 21
181.989155
  0
LINE
  8
ENTITYA19764
  6
CONTINUOUS
 62
1
 10
241.709094
 20
181.989155
 11
241.709094
 21
183.676655
  0
LINE
  8
ENTITYA19764
  6
CONTINUOUS
 62
1
 10
241.709094
 20
183.676655
 11
246.584094
 21
183.676655
  0
LINE
  8
ENTITYA19764
  6
CONTINUOUS
 62
1
 10
246.584094
 20
183.676655
 11
246.584094
 21
196.989155
  0
LINE
  8
ENTITYA19764
  6
CONTINUOUS
 62
1
 10
239.084094
 20
181.989155
 11
228.396594
 21
181.989155
  0
LINE
  8
ENTITYA19764
  6
CONTINUOUS
 62
1
 10
228.396594
 20
181.989155
 11
228.396594
 21
183.676655
  0
LINE
  8
ENTITYA19764
  6
CONTINUOUS
 62
1
 10
228.396594
 20
183.676655
 11
237.021594
 21
183.676655
  0
LINE
  8
ENTITYA19764
  6
CONTINUOUS
 62
1
 10
237.021594
 20
183.676655
 11
237.021594
 21
188.364155
  0
LINE
  8
ENTITYA19764
  6
CONTINUOUS
 62
1
 10
237.021594
 20
188.364155
 11
228.959094
 21
188.364155
  0
LINE
  8
ENTITYA19764
  6
CONTINUOUS
 62
1
 10
228.959094
 20
188.364155
 11
228.959094
 21
190.051655
  0
LINE
  8
ENTITYA19764
  6
CONTINUOUS
 62
1
 10
228.959094
 20
190.051655
 11
237.021594
 21
190.051655
  0
LINE
  8
ENTITYA19764
  6
CONTINUOUS
 62
1
 10
237.021594
 20
190.051655
 11
237.021594
 21
195.301655
  0
LINE
  8
ENTITYA19764
  6
CONTINUOUS
 62
1
 10
237.021594
 20
195.301655
 11
227.834094
 21
195.301655
  0
LINE
  8
ENTITYA19764
  6
CONTINUOUS
 62
1
 10
227.834094
 20
195.301655
 11
227.834094
 21
196.989155
  0
LINE
  8
ENTITYA19764
  6
CONTINUOUS
 62
1
 10
227.834094
 20
196.989155
 11
239.084094
 21
196.989155
  0
LINE
  8
ENTITYA19764
  6
CONTINUOUS
 62
1
 10
239.084094
 20
196.989155
 11
239.084094
 21
181.989155
  0
LINE
  8
ENTITYA19764
  6
CONTINUOUS
 62
1
 10
224.646594
 20
181.989155
 11
213.959094
 21
181.989155
  0
LINE
  8
ENTITYA19764
  6
CONTINUOUS
 62
1
 10
213.959094
 20
181.989155
 11
213.959094
 21
183.676655
  0
LINE
  8
ENTITYA19764
  6
CONTINUOUS
 62
1
 10
213.959094
 20
183.676655
 11
222.584094
 21
183.676655
  0
LINE
  8
ENTITYA19764
  6
CONTINUOUS
 62
1
 10
222.584094
 20
183.676655
 11
222.584094
 21
188.364155
  0
LINE
  8
ENTITYA19764
  6
CONTINUOUS
 62
1
 10
222.584094
 20
188.364155
 11
214.521594
 21
188.364155
  0
LINE
  8
ENTITYA19764
  6
CONTINUOUS
 62
1
 10
214.521594
 20
188.364155
 11
214.521594
 21
190.051655
  0
LINE
  8
ENTITYA19764
  6
CONTINUOUS
 62
1
 10
214.521594
 20
190.051655
 11
222.584094
 21
190.051655
  0
LINE
  8
ENTITYA19764
  6
CONTINUOUS
 62
1
 10
222.584094
 20
190.051655
 11
222.584094
 21
195.301655
  0
LINE
  8
ENTITYA19764
  6
CONTINUOUS
 62
1
 10
222.584094
 20
195.301655
 11
213.396594
 21
195.301655
  0
LINE
  8
ENTITYA19764
  6
CONTINUOUS
 62
1
 10
213.396594
 20
195.301655
 11
213.396594
 21
196.989155
  0
LINE
  8
ENTITYA19764
  6
CONTINUOUS
 62
1
 10
213.396594
 20
196.989155
 11
224.646594
 21
196.989155
  0
LINE
  8
ENTITYA19764
  6
CONTINUOUS
 62
1
 10
224.646594
 20
196.989155
 11
224.646594
 21
181.989155
  0
LINE
  8
ENTITYA19764
  6
CONTINUOUS
 62
1
 10
210.209094
 20
181.989155
 11
208.146594
 21
181.989155
  0
LINE
  8
ENTITYA19764
  6
CONTINUOUS
 62
1
 10
208.146594
 20
181.989155
 11
208.146594
 21
195.301655
  0
LINE
  8
ENTITYA19764
  6
CONTINUOUS
 62
1
 10
208.146594
 20
195.301655
 11
201.021594
 21
195.301655
  0
LINE
  8
ENTITYA19764
  6
CONTINUOUS
 62
1
 10
201.021594
 20
195.301655
 11
201.021594
 21
196.989155
  0
LINE
  8
ENTITYA19764
  6
CONTINUOUS
 62
1
 10
201.021594
 20
196.989155
 11
210.209094
 21
196.989155
  0
LINE
  8
ENTITYA19764
  6
CONTINUOUS
 62
1
 10
210.209094
 20
196.989155
 11
210.209094
 21
181.989155
  0
TEXT
  8
ENTITYA19764
  6
CONTINUOUS
 62
1
 10
19.929699
 20
18.447557
 40
6.000000
  1
Corporate W20 
 50
90.000000
 41
1.000000
 51
0.000000
  7
STANDARD
  0
TEXT
  8
ENTITYA19764
  6
CONTINUOUS
 62
1
 10
31.929699
 20
18.447557
 40
6.000000
  1
Vent Glazing Detail (US)
 50
90.000000
 41
1.000000
 51
0.000000
  7
STANDARD
  0
TEXT
  8
ENTITYA19764
  6
CONTINUOUS
 62
1
 10
284.910143
 20
182.410419
 40
10.000000
  1
D4
 50
90.000000
 41
1.000000
 51
0.000000
  7
STANDARD
  0
LINE
  8
ENTITYA19764
  6
CONTINUOUS
 62
1
 10
0.000000
 20
210.000000
 11
0.000000
 21
0.000000
  0
LINE
  8
ENTITYA19764
  6
CONTINUOUS
 62
1
 10
0.000000
 20
0.000000
 11
297.000000
 21
0.000000
  0
LINE
  8
ENTITYA19764
  6
CONTINUOUS
 62
1
 10
297.000000
 20
210.000000
 11
0.000000
 21
210.000000
  0
LINE
  8
ENTITYA19764
  6
CONTINUOUS
 62
1
 10
82.332240
 20
121.248580
 11
62.732240
 21
121.248580
  0
LINE
  8
ENTITYA19764
  6
CONTINUOUS
 62
1
 10
62.732240
 20
121.248580
 11
62.732240
 21
118.048580
  0
LINE
  8
ENTITYA19764
  6
CONTINUOUS
 62
1
 10
73.785137
 20
116.987501
 11
62.732240
 21
118.048580
  0
LINE
  8
ENTITYA19764
  6
CONTINUOUS
 62
1
 10
75.232240
 20
115.394824
 11
75.232240
 21
86.748580
  0
ARC
  8
ENTITYA19764
  6
CONTINUOUS
 62
1
 10
73.632240
 20
115.394824
 40
1.600000
 50
0.000000
 51
84.516410
  0
LINE
  8
ENTITYA19764
  6
CONTINUOUS
 62
1
 10
62.732240
 20
121.248580
 11
50.135117
 21
121.248580
  0
LINE
  8
ENTITYA19764
  6
CONTINUOUS
 62
1
 10
62.732240
 20
118.048580
 11
50.135117
 21
118.048580
  0
LINE
  8
ENTITYA19764
  6
CONTINUOUS
 62
1
 10
108.232240
 20
112.848580
 11
108.232240
 21
112.848580
  0
LINE
  8
ENTITYA19764
  6
CONTINUOUS
 62
1
 10
100.232240
 20
119.248580
 11
100.232240
 21
119.248580
  0
LINE
  8
ENTITYA19764
  6
CONTINUOUS
 62
1
 10
101.832240
 20
117.648580
 11
103.432240
 21
117.648580
  0
ARC
  8
ENTITYA19764
  6
CONTINUOUS
 62
1
 10
101.832240
 20
119.248580
 40
1.600000
 50
180.000000
 51
270.000000
  0
ARC
  8
ENTITYA19764
  6
CONTINUOUS
 62
1
 10
98.232240
 20
119.248580
 40
2.000000
 50
0.000000
 51
90.000000
  0
LINE
  8
ENTITYA19764
  6
CONTINUOUS
 62
1
 10
97.132240
 20
89.448580
 11
97.132240
 21
91.212230
  0
LINE
  8
ENTITYA19764
  6
CONTINUOUS
 62
1
 10
106.090196
 20
93.617007
 11
98.560269
 21
92.802961
  0
LINE
  8
ENTITYA19764
  6
CONTINUOUS
 62
1
 10
117.732240
 20
118.048580
 11
117.732240
 21
121.248580
  0
LINE
  8
ENTITYA19764
  6
CONTINUOUS
 62
1
 10
112.733784
 20
117.423773
 11
117.732240
 21
118.048580
  0
LINE
  8
ENTITYA19764
  6
CONTINUOUS
 62
1
 10
105.032240
 20
122.848580
 11
105.032240
 21
124.048580
  0
LINE
  8
ENTITYA19764
  6
CONTINUOUS
 62
1
 10
102.632240
 20
126.448580
 11
77.632240
 21
126.448580
  0
LINE
  8
ENTITYA19764
  6
CONTINUOUS
 62
1
 10
117.732240
 20
121.248580
 11
106.632240
 21
121.248580
  0
LINE
  8
ENTITYA19764
  6
CONTINUOUS
 62
1
 10
75.232240
 20
124.048580
 11
75.232240
 21
121.248580
  0
ARC
  8
ENTITYA19764
  6
CONTINUOUS
 62
1
 10
106.632240
 20
122.848580
 40
1.600000
 50
180.000000
 51
270.000000
  0
ARC
  8
ENTITYA19764
  6
CONTINUOUS
 62
1
 10
102.632240
 20
124.048580
 40
2.400000
 50
0.000000
 51
90.000000
  0
ARC
  8
ENTITYA19764
  6
CONTINUOUS
 62
1
 10
112.932240
 20
115.836128
 40
1.600000
 50
97.125016
 51
180.000000
  0
ARC
  8
ENTITYA19764
  6
CONTINUOUS
 62
1
 10
98.732240
 20
91.212230
 40
1.600000
 50
96.170175
 51
180.000000
  0
ARC
  8
ENTITYA19764
  6
CONTINUOUS
 62
1
 10
105.832240
 20
96.003104
 40
2.400000
 50
276.170175
 51
0.000000
  0
LINE
  8
ENTITYA19764
  6
CONTINUOUS
 62
1
 10
108.232240
 20
96.003104
 11
108.232240
 21
112.848580
  0
ARC
  8
ENTITYA19764
  6
CONTINUOUS
 62
1
 10
103.432240
 20
112.848580
 40
4.800000
 50
0.000000
 51
90.000000
  0
ARC
  8
ENTITYA19764
  6
CONTINUOUS
 62
1
 10
77.632240
 20
124.048580
 40
2.400000
 50
90.000000
 51
180.000000
  0
LINE
  8
ENTITYA19764
  6
CONTINUOUS
 62
1
 10
102.632240
 20
84.348580
 11
77.632240
 21
84.348580
  0
LINE
  8
ENTITYA19764
  6
CONTINUOUS
 62
1
 10
105.032240
 20
86.748580
 11
105.032240
 21
89.148580
  0
LINE
  8
ENTITYA19764
  6
CONTINUOUS
 62
1
 10
105.032240
 20
89.148580
 11
81.992240
 21
89.148580
  0
LINE
  8
ENTITYA19764
  6
CONTINUOUS
 62
1
 10
82.332240
 20
119.648580
 11
82.412240
 21
119.648580
  0
LINE
  8
ENTITYA19764
  6
CONTINUOUS
 62
1
 10
82.412240
 20
114.848580
 11
83.932240
 21
114.848580
  0
LINE
  8
ENTITYA19764
  6
CONTINUOUS
 62
1
 10
83.932240
 20
114.848580
 11
83.932240
 21
113.448580
  0
LINE
  8
ENTITYA19764
  6
CONTINUOUS
 62
1
 10
82.932240
 20
112.448580
 11
81.592240
 21
112.448580
  0
LINE
  8
ENTITYA19764
  6
CONTINUOUS
 62
1
 10
79.992240
 20
110.848580
 11
79.992240
 21
91.148580
  0
ARC
  8
ENTITYA19764
  6
CONTINUOUS
 62
1
 10
102.632240
 20
86.748580
 40
2.400000
 50
270.000000
 51
0.000000
  0
ARC
  8
ENTITYA19764
  6
CONTINUOUS
 62
1
 10
77.632240
 20
86.748580
 40
2.400000
 50
180.000000
 51
270.000000
  0
ARC
  8
ENTITYA19764
  6
CONTINUOUS
 62
1
 10
82.332240
 20
120.448580
 40
0.800000
 50
270.000000
 51
90.000000
  0
ARC
  8
ENTITYA19764
  6
CONTINUOUS
 62
1
 10
81.592240
 20
110.848580
 40
1.600000
 50
90.000000
 51
180.000000
  0
ARC
  8
ENTITYA19764
  6
CONTINUOUS
 62
1
 10
82.932240
 20
113.448580
 40
1.000000
 50
270.000000
 51
0.000000
  0
LINE
  8
ENTITYA19764
  6
CONTINUOUS
 62
1
 10
98.232240
 20
121.248580
 11
75.232240
 21
121.248580
  0
LINE
  8
ENTITYA19764
  6
CONTINUOUS
 62
1
 10
117.732240
 20
89.448580
 11
97.132240
 21
89.448580
  0
LINE
  8
ENTITYA19764
  6
CONTINUOUS
 62
1
 10
117.732240
 20
89.448580
 11
117.732240
 21
92.648580
  0
LINE
  8
ENTITYA19764
  6
CONTINUOUS
 62
1
 10
112.831388
 20
93.753897
 11
117.732240
 21
92.648580
  0
LINE
  8
ENTITYA19764
  6
CONTINUOUS
 62
1
 10
111.332240
 20
95.350715
 11
111.332240
 21
115.836128
  0
LINE
  8
ENTITYA19764
  6
CONTINUOUS
 62
1
 10
117.732240
 20
118.048580
 11
117.732240
 21
121.248580
  0
LINE
  8
ENTITYA19764
  6
CONTINUOUS
 62
1
 10
112.733784
 20
117.423773
 11
117.732240
 21
118.048580
  0
ARC
  8
ENTITYA19764
  6
CONTINUOUS
 62
1
 10
112.932240
 20
95.350715
 40
1.600000
 50
180.000000
 51
266.386119
  0
LINE
  8
ENTITYA19764
  6
CONTINUOUS
 62
1
 10
80.612240
 20
117.848580
 11
80.612240
 21
116.648580
  0
ARC
  8
ENTITYA19764
  6
CONTINUOUS
 62
1
 10
82.412240
 20
116.648580
 40
1.800000
 50
180.000000
 51
270.000000
  0
ARC
  8
ENTITYA19764
  6
CONTINUOUS
 62
1
 10
82.412240
 20
117.848580
 40
1.800000
 50
90.000000
 51
180.000000
  0
LINE
  8
ENTITYA19764
  6
CONTINUOUS
 62
1
 10
81.397862
 20
116.814070
 11
81.397862
 21
117.582019
  0
LINE
  8
ENTITYA19764
  6
CONTINUOUS
 62
1
 10
88.897862
 20
120.289457
 11
88.897862
 21
119.448044
  0
LINE
  8
ENTITYA19764
  6
CONTINUOUS
 62
1
 10
87.897862
 20
119.448044
 11
87.897862
 21
119.789457
  0
LINE
  8
ENTITYA19764
  6
CONTINUOUS
 62
1
 10
84.297862
 20
116.448044
 11
84.297862
 21
120.751589
  0
ARC
  8
ENTITYA19764
  6
CONTINUOUS
 62
1
 10
83.797862
 20
120.751589
 40
0.500000
 50
0.000000
 51
90.000000
  0
ARC
  8
ENTITYA19764
  6
CONTINUOUS
 62
1
 10
83.797862
 20
120.751589
 40
0.500000
 50
90.000000
 51
180.000000
  0
LINE
  8
ENTITYA19764
  6
CONTINUOUS
 62
1
 10
81.897862
 20
114.948044
 11
84.397862
 21
114.948044
  0
ARC
  8
ENTITYA19764
  6
CONTINUOUS
 62
1
 10
84.397862
 20
119.448044
 40
4.500000
 50
270.000000
 51
0.000000
  0
LINE
  8
ENTITYA19764
  6
CONTINUOUS
 62
1
 10
86.200638
 20
116.448044
 11
84.297862
 21
116.448044
  0
ARC
  8
ENTITYA19764
  6
CONTINUOUS
 62
1
 10
84.397862
 20
119.448044
 40
3.500000
 50
301.002719
 51
0.000000
  0
ARC
  8
ENTITYA19764
  6
CONTINUOUS
 62
1
 10
81.897862
 20
115.948044
 40
1.000000
 50
120.000000
 51
270.000000
  0
LINE
  8
ENTITYA19764
  6
CONTINUOUS
 62
1
 10
83.297862
 20
120.751589
 11
83.297862
 21
119.448044
  0
ARC
  8
ENTITYA19764
  6
CONTINUOUS
 62
1
 10
81.897862
 20
118.448044
 40
1.000000
 50
90.000000
 51
240.000000
  0
LINE
  8
ENTITYA19764
  6
CONTINUOUS
 62
1
 10
86.736738
 20
121.289457
 11
87.897862
 21
121.289457
  0
LINE
  8
ENTITYA19764
  6
CONTINUOUS
 62
1
 10
87.397862
 20
120.289457
 11
86.753253
 21
120.289457
  0
ARC
  8
ENTITYA19764
  6
CONTINUOUS
 62
1
 10
86.753253
 20
119.789457
 40
0.500000
 50
90.000000
 51
156.421822
  0
ARC
  8
ENTITYA19764
  6
CONTINUOUS
 62
1
 10
86.095251
 20
120.556591
 40
0.500000
 50
129.902782
 51
255.661366
  0
LINE
  8
ENTITYA19764
  6
CONTINUOUS
 62
1
 10
86.294995
 20
119.989457
 11
85.971425
 21
120.072166
  0
ARC
  8
ENTITYA19764
  6
CONTINUOUS
 62
1
 10
86.736738
 20
119.789457
 40
1.500000
 50
90.000000
 51
129.902782
  0
ARC
  8
ENTITYA19764
  6
CONTINUOUS
 62
1
 10
87.397862
 20
119.789457
 40
0.500000
 50
0.000000
 51
90.000000
  0
ARC
  8
ENTITYA19764
  6
CONTINUOUS
 62
1
 10
87.897862
 20
120.289457
 40
1.000000
 50
0.000000
 51
90.000000
  0
LINE
  8
ENTITYA19764
  6
CONTINUOUS
 62
1
 10
83.297862
 20
119.448044
 11
81.897862
 21
119.448044
  0
ARC
  8
ENTITYA19764
  6
CONTINUOUS
 62
1
 10
81.992240
 20
91.148580
 40
2.000000
 50
180.000000
 51
270.000000
  0
LINE
  8
ENTITYA19764
  6
CONTINUOUS
 62
1
 10
77.632240
 20
84.348580
 11
50.135117
 21
84.348580
  0
LINE
  8
ENTITYA19764
  6
CONTINUOUS
 62
1
 10
77.632240
 20
126.448580
 11
50.135117
 21
126.448580
  0
LINE
  8
ENTITYA19764
  6
RANDOM
 62
1
 10
50.135117
 20
126.448580
 11
50.135117
 21
84.348580
  0
LINE
  8
ENTITYA19764
  6
CONTINUOUS
 62
1
 10
232.957864
 20
121.248580
 11
213.357864
 21
121.248580
  0
LINE
  8
ENTITYA19764
  6
CONTINUOUS
 62
1
 10
213.357864
 20
121.248580
 11
213.357864
 21
118.048580
  0
LINE
  8
ENTITYA19764
  6
CONTINUOUS
 62
1
 10
224.410761
 20
116.987501
 11
213.357864
 21
118.048580
  0
LINE
  8
ENTITYA19764
  6
CONTINUOUS
 62
1
 10
225.857864
 20
115.394824
 11
225.857864
 21
86.748580
  0
ARC
  8
ENTITYA19764
  6
CONTINUOUS
 62
1
 10
224.257864
 20
115.394824
 40
1.600000
 50
0.000000
 51
84.516410
  0
LINE
  8
ENTITYA19764
  6
CONTINUOUS
 62
1
 10
213.357864
 20
121.248580
 11
207.172612
 21
121.248580
  0
LINE
  8
ENTITYA19764
  6
CONTINUOUS
 62
1
 10
213.157864
 20
118.048580
 11
207.172612
 21
118.048580
  0
LINE
  8
ENTITYA19764
  6
CONTINUOUS
 62
1
 10
258.857864
 20
112.848580
 11
258.857864
 21
112.848580
  0
LINE
  8
ENTITYA19764
  6
CONTINUOUS
 62
1
 10
250.857864
 20
119.248580
 11
250.857864
 21
119.248580
  0
LINE
  8
ENTITYA19764
  6
CONTINUOUS
 62
1
 10
252.457864
 20
117.648580
 11
254.057864
 21
117.648580
  0
ARC
  8
ENTITYA19764
  6
CONTINUOUS
 62
1
 10
252.457864
 20
119.248580
 40
1.600000
 50
180.000000
 51
270.000000
  0
ARC
  8
ENTITYA19764
  6
CONTINUOUS
 62
1
 10
248.857864
 20
119.248580
 40
2.000000
 50
0.000000
 51
90.000000
  0
LINE
  8
ENTITYA19764
  6
CONTINUOUS
 62
1
 10
247.757864
 20
89.448580
 11
247.757864
 21
91.212230
  0
LINE
  8
ENTITYA19764
  6
CONTINUOUS
 62
1
 10
256.715821
 20
93.617007
 11
249.185893
 21
92.802961
  0
LINE
  8
ENTITYA19764
  6
CONTINUOUS
 62
1
 10
268.357864
 20
118.048580
 11
268.357864
 21
121.248580
  0
LINE
  8
ENTITYA19764
  6
CONTINUOUS
 62
1
 10
263.359409
 20
117.423773
 11
268.357864
 21
118.048580
  0
LINE
  8
ENTITYA19764
  6
CONTINUOUS
 62
1
 10
255.657864
 20
122.848580
 11
255.657864
 21
124.048580
  0
LINE
  8
ENTITYA19764
  6
CONTINUOUS
 62
1
 10
253.257864
 20
126.448580
 11
228.257864
 21
126.448580
  0
LINE
  8
ENTITYA19764
  6
CONTINUOUS
 62
1
 10
268.357864
 20
121.248580
 11
257.257864
 21
121.248580
  0
LINE
  8
ENTITYA19764
  6
CONTINUOUS
 62
1
 10
225.857864
 20
124.048580
 11
225.857864
 21
121.248580
  0
ARC
  8
ENTITYA19764
  6
CONTINUOUS
 62
1
 10
257.257864
 20
122.848580
 40
1.600000
 50
180.000000
 51
270.000000
  0
ARC
  8
ENTITYA19764
  6
CONTINUOUS
 62
1
 10
253.257864
 20
124.048580
 40
2.400000
 50
0.000000
 51
90.000000
  0
ARC
  8
ENTITYA19764
  6
CONTINUOUS
 62
1
 10
263.557864
 20
115.836128
 40
1.600000
 50
97.125016
 51
180.000000
  0
ARC
  8
ENTITYA19764
  6
CONTINUOUS
 62
1
 10
249.357864
 20
91.212230
 40
1.600000
 50
96.170175
 51
180.000000
  0
ARC
  8
ENTITYA19764
  6
CONTINUOUS
 62
1
 10
256.457864
 20
96.003104
 40
2.400000
 50
276.170175
 51
0.000000
  0
LINE
  8
ENTITYA19764
  6
CONTINUOUS
 62
1
 10
258.857864
 20
96.003104
 11
258.857864
 21
112.848580
  0
ARC
  8
ENTITYA19764
  6
CONTINUOUS
 62
1
 10
254.057864
 20
112.848580
 40
4.800000
 50
0.000000
 51
90.000000
  0
ARC
  8
ENTITYA19764
  6
CONTINUOUS
 62
1
 10
228.257864
 20
124.048580
 40
2.400000
 50
90.000000
 51
180.000000
  0
LINE
  8
ENTITYA19764
  6
CONTINUOUS
 62
1
 10
253.257864
 20
84.348580
 11
228.257864
 21
84.348580
  0
LINE
  8
ENTITYA19764
  6
CONTINUOUS
 62
1
 10
255.657864
 20
86.748580
 11
255.657864
 21
89.148580
  0
LINE
  8
ENTITYA19764
  6
CONTINUOUS
 62
1
 10
255.657864
 20
89.148580
 11
232.617864
 21
89.148580
  0
LINE
  8
ENTITYA19764
  6
CONTINUOUS
 62
1
 10
232.957864
 20
119.648580
 11
233.037864
 21
119.648580
  0
LINE
  8
ENTITYA19764
  6
CONTINUOUS
 62
1
 10
233.037864
 20
114.848580
 11
234.557864
 21
114.848580
  0
LINE
  8
ENTITYA19764
  6
CONTINUOUS
 62
1
 10
234.557864
 20
114.848580
 11
234.557864
 21
113.448580
  0
LINE
  8
ENTITYA19764
  6
CONTINUOUS
 62
1
 10
233.557864
 20
112.448580
 11
232.217864
 21
112.448580
  0
LINE
  8
ENTITYA19764
  6
CONTINUOUS
 62
1
 10
230.617864
 20
110.848580
 11
230.617864
 21
91.148580
  0
ARC
  8
ENTITYA19764
  6
CONTINUOUS
 62
1
 10
253.257864
 20
86.748580
 40
2.400000
 50
270.000000
 51
0.000000
  0
ARC
  8
ENTITYA19764
  6
CONTINUOUS
 62
1
 10
228.257864
 20
86.748580
 40
2.400000
 50
180.000000
 51
270.000000
  0
ARC
  8
ENTITYA19764
  6
CONTINUOUS
 62
1
 10
232.957864
 20
120.448580
 40
0.800000
 50
270.000000
 51
90.000000
  0
ARC
  8
ENTITYA19764
  6
CONTINUOUS
 62
1
 10
232.217864
 20
110.848580
 40
1.600000
 50
90.000000
 51
180.000000
  0
ARC
  8
ENTITYA19764
  6
CONTINUOUS
 62
1
 10
233.557864
 20
113.448580
 40
1.000000
 50
270.000000
 51
0.000000
  0
LINE
  8
ENTITYA19764
  6
CONTINUOUS
 62
1
 10
248.857864
 20
121.248580
 11
225.857864
 21
121.248580
  0
LINE
  8
ENTITYA19764
  6
CONTINUOUS
 62
1
 10
268.357864
 20
89.448580
 11
247.757864
 21
89.448580
  0
LINE
  8
ENTITYA19764
  6
CONTINUOUS
 62
1
 10
268.357864
 20
89.448580
 11
268.357864
 21
92.648580
  0
LINE
  8
ENTITYA19764
  6
CONTINUOUS
 62
1
 10
263.457012
 20
93.753897
 11
268.357864
 21
92.648580
  0
LINE
  8
ENTITYA19764
  6
CONTINUOUS
 62
1
 10
261.957864
 20
95.350715
 11
261.957864
 21
115.836128
  0
LINE
  8
ENTITYA19764
  6
CONTINUOUS
 62
1
 10
268.357864
 20
118.048580
 11
268.357864
 21
121.248580
  0
LINE
  8
ENTITYA19764
  6
CONTINUOUS
 62
1
 10
263.359409
 20
117.423773
 11
268.357864
 21
118.048580
  0
ARC
  8
ENTITYA19764
  6
CONTINUOUS
 62
1
 10
263.557864
 20
95.350715
 40
1.600000
 50
180.000000
 51
266.386119
  0
LINE
  8
ENTITYA19764
  6
CONTINUOUS
 62
1
 10
231.237864
 20
117.848580
 11
231.237864
 21
116.648580
  0
ARC
  8
ENTITYA19764
  6
CONTINUOUS
 62
1
 10
233.037864
 20
116.648580
 40
1.800000
 50
180.000000
 51
270.000000
  0
ARC
  8
ENTITYA19764
  6
CONTINUOUS
 62
1
 10
233.037864
 20
117.848580
 40
1.800000
 50
90.000000
 51
180.000000
  0
LINE
  8
ENTITYA19764
  6
CONTINUOUS
 62
1
 10
232.023487
 20
116.814070
 11
232.023487
 21
117.582019
  0
LINE
  8
ENTITYA19764
  6
CONTINUOUS
 62
1
 10
239.523487
 20
120.289457
 11
239.523487
 21
119.448044
  0
LINE
  8
ENTITYA19764
  6
CONTINUOUS
 62
1
 10
238.523487
 20
119.448044
 11
238.523487
 21
119.789457
  0
LINE
  8
ENTITYA19764
  6
CONTINUOUS
 62
1
 10
234.923487
 20
116.448044
 11
234.923487
 21
120.751589
  0
ARC
  8
ENTITYA19764
  6
CONTINUOUS
 62
1
 10
234.423487
 20
120.751589
 40
0.500000
 50
0.000000
 51
90.000000
  0
ARC
  8
ENTITYA19764
  6
CONTINUOUS
 62
1
 10
234.423487
 20
120.751589
 40
0.500000
 50
90.000000
 51
180.000000
  0
LINE
  8
ENTITYA19764
  6
CONTINUOUS
 62
1
 10
232.523487
 20
114.948044
 11
235.023487
 21
114.948044
  0
ARC
  8
ENTITYA19764
  6
CONTINUOUS
 62
1
 10
235.023487
 20
119.448044
 40
4.500000
 50
270.000000
 51
0.000000
  0
LINE
  8
ENTITYA19764
  6
CONTINUOUS
 62
1
 10
236.826262
 20
116.448044
 11
234.923487
 21
116.448044
  0
ARC
  8
ENTITYA19764
  6
CONTINUOUS
 62
1
 10
235.023487
 20
119.448044
 40
3.500000
 50
301.002719
 51
0.000000
  0
ARC
  8
ENTITYA19764
  6
CONTINUOUS
 62
1
 10
232.523487
 20
115.948044
 40
1.000000
 50
120.000000
 51
270.000000
  0
LINE
  8
ENTITYA19764
  6
CONTINUOUS
 62
1
 10
233.923487
 20
120.751589
 11
233.923487
 21
119.448044
  0
ARC
  8
ENTITYA19764
  6
CONTINUOUS
 62
1
 10
232.523487
 20
118.448044
 40
1.000000
 50
90.000000
 51
240.000000
  0
LINE
  8
ENTITYA19764
  6
CONTINUOUS
 62
1
 10
237.362362
 20
121.289457
 11
238.523487
 21
121.289457
  0
LINE
  8
ENTITYA19764
  6
CONTINUOUS
 62
1
 10
238.023487
 20
120.289457
 11
237.378877
 21
120.289457
  0
ARC
  8
ENTITYA19764
  6
CONTINUOUS
 62
1
 10
237.378877
 20
119.789457
 40
0.500000
 50
90.000000
 51
156.421822
  0
ARC
  8
ENTITYA19764
  6
CONTINUOUS
 62
1
 10
236.720875
 20
120.556591
 40
0.500000
 50
129.902782
 51
255.661366
  0
LINE
  8
ENTITYA19764
  6
CONTINUOUS
 62
1
 10
236.920619
 20
119.989457
 11
236.597049
 21
120.072166
  0
ARC
  8
ENTITYA19764
  6
CONTINUOUS
 62
1
 10
237.362362
 20
119.789457
 40
1.500000
 50
90.000000
 51
129.902782
  0
ARC
  8
ENTITYA19764
  6
CONTINUOUS
 62
1
 10
238.023487
 20
119.789457
 40
0.500000
 50
0.000000
 51
90.000000
  0
ARC
  8
ENTITYA19764
  6
CONTINUOUS
 62
1
 10
238.523487
 20
120.289457
 40
1.000000
 50
0.000000
 51
90.000000
  0
LINE
  8
ENTITYA19764
  6
CONTINUOUS
 62
1
 10
233.923487
 20
119.448044
 11
232.523487
 21
119.448044
  0
ARC
  8
ENTITYA19764
  6
CONTINUOUS
 62
1
 10
232.617864
 20
91.148580
 40
2.000000
 50
180.000000
 51
270.000000
  0
LINE
  8
ENTITYA19764
  6
CONTINUOUS
 62
1
 10
228.257864
 20
84.348580
 11
207.172612
 21
84.348580
  0
LINE
  8
ENTITYA19764
  6
CONTINUOUS
 62
1
 10
228.257864
 20
126.448580
 11
207.172612
 21
126.448580
  0
LINE
  8
ENTITYA19764
  6
RANDOM
 62
1
 10
207.172612
 20
126.448580
 11
207.172612
 21
84.348580
  0
LINE
  8
ENTITYA19764
  6
CONTINUOUS
 62
1
 10
158.390457
 20
121.248580
 11
138.790457
 21
121.248580
  0
LINE
  8
ENTITYA19764
  6
CONTINUOUS
 62
1
 10
138.790457
 20
121.248580
 11
138.790457
 21
118.048580
  0
LINE
  8
ENTITYA19764
  6
CONTINUOUS
 62
1
 10
149.843354
 20
116.987501
 11
138.790457
 21
118.048580
  0
LINE
  8
ENTITYA19764
  6
CONTINUOUS
 62
1
 10
151.290457
 20
115.394824
 11
151.290457
 21
86.748580
  0
ARC
  8
ENTITYA19764
  6
CONTINUOUS
 62
1
 10
149.690457
 20
115.394824
 40
1.600000
 50
0.000000
 51
84.516410
  0
LINE
  8
ENTITYA19764
  6
CONTINUOUS
 62
1
 10
138.790457
 20
118.048580
 11
129.740796
 21
118.048580
  0
LINE
  8
ENTITYA19764
  6
CONTINUOUS
 62
1
 10
184.290457
 20
112.848580
 11
184.290457
 21
112.848580
  0
LINE
  8
ENTITYA19764
  6
CONTINUOUS
 62
1
 10
176.290457
 20
119.248580
 11
176.290457
 21
119.248580
  0
LINE
  8
ENTITYA19764
  6
CONTINUOUS
 62
1
 10
177.890457
 20
117.648580
 11
179.490457
 21
117.648580
  0
ARC
  8
ENTITYA19764
  6
CONTINUOUS
 62
1
 10
177.890457
 20
119.248580
 40
1.600000
 50
180.000000
 51
270.000000
  0
ARC
  8
ENTITYA19764
  6
CONTINUOUS
 62
1
 10
174.290457
 20
119.248580
 40
2.000000
 50
0.000000
 51
90.000000
  0
LINE
  8
ENTITYA19764
  6
CONTINUOUS
 62
1
 10
173.190457
 20
89.448580
 11
173.190457
 21
91.212230
  0
LINE
  8
ENTITYA19764
  6
CONTINUOUS
 62
1
 10
182.148414
 20
93.617007
 11
174.618486
 21
92.802961
  0
LINE
  8
ENTITYA19764
  6
CONTINUOUS
 62
1
 10
193.790457
 20
118.048580
 11
193.790457
 21
121.248580
  0
LINE
  8
ENTITYA19764
  6
CONTINUOUS
 62
1
 10
188.792002
 20
117.423773
 11
193.790457
 21
118.048580
  0
LINE
  8
ENTITYA19764
  6
CONTINUOUS
 62
1
 10
181.090457
 20
122.848580
 11
181.090457
 21
124.048580
  0
LINE
  8
ENTITYA19764
  6
CONTINUOUS
 62
1
 10
178.690457
 20
126.448580
 11
153.690457
 21
126.448580
  0
LINE
  8
ENTITYA19764
  6
CONTINUOUS
 62
1
 10
193.790457
 20
121.248580
 11
182.690457
 21
121.248580
  0
LINE
  8
ENTITYA19764
  6
CONTINUOUS
 62
1
 10
151.290457
 20
124.048580
 11
151.290457
 21
121.248580
  0
ARC
  8
ENTITYA19764
  6
CONTINUOUS
 62
1
 10
182.690457
 20
122.848580
 40
1.600000
 50
180.000000
 51
270.000000
  0
ARC
  8
ENTITYA19764
  6
CONTINUOUS
 62
1
 10
178.690457
 20
124.048580
 40
2.400000
 50
0.000000
 51
90.000000
  0
ARC
  8
ENTITYA19764
  6
CONTINUOUS
 62
1
 10
188.990457
 20
115.836128
 40
1.600000
 50
97.125016
 51
180.000000
  0
ARC
  8
ENTITYA19764
  6
CONTINUOUS
 62
1
 10
174.790457
 20
91.212230
 40
1.600000
 50
96.170175
 51
180.000000
  0
ARC
  8
ENTITYA19764
  6
CONTINUOUS
 62
1
 10
181.890457
 20
96.003104
 40
2.400000
 50
276.170175
 51
0.000000
  0
LINE
  8
ENTITYA19764
  6
CONTINUOUS
 62
1
 10
184.290457
 20
96.003104
 11
184.290457
 21
112.848580
  0
ARC
  8
ENTITYA19764
  6
CONTINUOUS
 62
1
 10
179.490457
 20
112.848580
 40
4.800000
 50
0.000000
 51
90.000000
  0
ARC
  8
ENTITYA19764
  6
CONTINUOUS
 62
1
 10
153.690457
 20
124.048580
 40
2.400000
 50
90.000000
 51
180.000000
  0
LINE
  8
ENTITYA19764
  6
CONTINUOUS
 62
1
 10
178.690457
 20
84.348580
 11
153.690457
 21
84.348580
  0
LINE
  8
ENTITYA19764
  6
CONTINUOUS
 62
1
 10
181.090457
 20
86.748580
 11
181.090457
 21
89.148580
  0
LINE
  8
ENTITYA19764
  6
CONTINUOUS
 62
1
 10
181.090457
 20
89.148580
 11
158.050457
 21
89.148580
  0
LINE
  8
ENTITYA19764
  6
CONTINUOUS
 62
1
 10
158.390457
 20
119.648580
 11
158.470457
 21
119.648580
  0
LINE
  8
ENTITYA19764
  6
CONTINUOUS
 62
1
 10
158.470457
 20
114.848580
 11
159.990457
 21
114.848580
  0
LINE
  8
ENTITYA19764
  6
CONTINUOUS
 62
1
 10
159.990457
 20
114.848580
 11
159.990457
 21
113.448580
  0
LINE
  8
ENTITYA19764
  6
CONTINUOUS
 62
1
 10
158.990457
 20
112.448580
 11
157.650457
 21
112.448580
  0
LINE
  8
ENTITYA19764
  6
CONTINUOUS
 62
1
 10
156.050457
 20
110.848580
 11
156.050457
 21
91.148580
  0
ARC
  8
ENTITYA19764
  6
CONTINUOUS
 62
1
 10
178.690457
 20
86.748580
 40
2.400000
 50
270.000000
 51
0.000000
  0
ARC
  8
ENTITYA19764
  6
CONTINUOUS
 62
1
 10
153.690457
 20
86.748580
 40
2.400000
 50
180.000000
 51
270.000000
  0
ARC
  8
ENTITYA19764
  6
CONTINUOUS
 62
1
 10
158.390457
 20
120.448580
 40
0.800000
 50
270.000000
 51
90.000000
  0
ARC
  8
ENTITYA19764
  6
CONTINUOUS
 62
1
 10
157.650457
 20
110.848580
 40
1.600000
 50
90.000000
 51
180.000000
  0
ARC
  8
ENTITYA19764
  6
CONTINUOUS
 62
1
 10
158.990457
 20
113.448580
 40
1.000000
 50
270.000000
 51
0.000000
  0
LINE
  8
ENTITYA19764
  6
CONTINUOUS
 62
1
 10
174.290457
 20
121.248580
 11
151.290457
 21
121.248580
  0
LINE
  8
ENTITYA19764
  6
CONTINUOUS
 62
1
 10
193.790457
 20
89.448580
 11
173.190457
 21
89.448580
  0
LINE
  8
ENTITYA19764
  6
CONTINUOUS
 62
1
 10
193.790457
 20
89.448580
 11
193.790457
 21
92.648580
  0
LINE
  8
ENTITYA19764
  6
CONTINUOUS
 62
1
 10
188.889605
 20
93.753897
 11
193.790457
 21
92.648580
  0
LINE
  8
ENTITYA19764
  6
CONTINUOUS
 62
1
 10
187.390457
 20
95.350715
 11
187.390457
 21
115.836128
  0
LINE
  8
ENTITYA19764
  6
CONTINUOUS
 62
1
 10
193.790457
 20
118.048580
 11
193.790457
 21
121.248580
  0
LINE
  8
ENTITYA19764
  6
CONTINUOUS
 62
1
 10
188.792002
 20
117.423773
 11
193.790457
 21
118.048580
  0
ARC
  8
ENTITYA19764
  6
CONTINUOUS
 62
1
 10
188.990457
 20
95.350715
 40
1.600000
 50
180.000000
 51
266.386119
  0
LINE
  8
ENTITYA19764
  6
CONTINUOUS
 62
1
 10
156.670457
 20
117.848580
 11
156.670457
 21
116.648580
  0
ARC
  8
ENTITYA19764
  6
CONTINUOUS
 62
1
 10
158.470457
 20
116.648580
 40
1.800000
 50
180.000000
 51
270.000000
  0
ARC
  8
ENTITYA19764
  6
CONTINUOUS
 62
1
 10
158.470457
 20
117.848580
 40
1.800000
 50
90.000000
 51
180.000000
  0
LINE
  8
ENTITYA19764
  6
CONTINUOUS
 62
1
 10
157.456080
 20
116.814070
 11
157.456080
 21
117.582019
  0
LINE
  8
ENTITYA19764
  6
CONTINUOUS
 62
1
 10
164.956080
 20
120.289457
 11
164.956080
 21
119.448044
  0
LINE
  8
ENTITYA19764
  6
CONTINUOUS
 62
1
 10
163.956080
 20
119.448044
 11
163.956080
 21
119.789457
  0
LINE
  8
ENTITYA19764
  6
CONTINUOUS
 62
1
 10
160.356080
 20
116.448044
 11
160.356080
 21
120.751589
  0
ARC
  8
ENTITYA19764
  6
CONTINUOUS
 62
1
 10
159.856080
 20
120.751589
 40
0.500000
 50
0.000000
 51
90.000000
  0
ARC
  8
ENTITYA19764
  6
CONTINUOUS
 62
1
 10
159.856080
 20
120.751589
 40
0.500000
 50
90.000000
 51
180.000000
  0
LINE
  8
ENTITYA19764
  6
CONTINUOUS
 62
1
 10
157.956080
 20
114.948044
 11
160.456080
 21
114.948044
  0
ARC
  8
ENTITYA19764
  6
CONTINUOUS
 62
1
 10
160.456080
 20
119.448044
 40
4.500000
 50
270.000000
 51
0.000000
  0
LINE
  8
ENTITYA19764
  6
CONTINUOUS
 62
1
 10
162.258855
 20
116.448044
 11
160.356080
 21
116.448044
  0
ARC
  8
ENTITYA19764
  6
CONTINUOUS
 62
1
 10
160.456080
 20
119.448044
 40
3.500000
 50
301.002719
 51
0.000000
  0
ARC
  8
ENTITYA19764
  6
CONTINUOUS
 62
1
 10
157.956080
 20
115.948044
 40
1.000000
 50
120.000000
 51
270.000000
  0
LINE
  8
ENTITYA19764
  6
CONTINUOUS
 62
1
 10
159.356080
 20
120.751589
 11
159.356080
 21
119.448044
  0
ARC
  8
ENTITYA19764
  6
CONTINUOUS
 62
1
 10
157.956080
 20
118.448044
 40
1.000000
 50
90.000000
 51
240.000000
  0
LINE
  8
ENTITYA19764
  6
CONTINUOUS
 62
1
 10
162.794955
 20
121.289457
 11
163.956080
 21
121.289457
  0
LINE
  8
ENTITYA19764
  6
CONTINUOUS
 62
1
 10
163.456080
 20
120.289457
 11
162.811470
 21
120.289457
  0
ARC
  8
ENTITYA19764
  6
CONTINUOUS
 62
1
 10
162.811470
 20
119.789457
 40
0.500000
 50
90.000000
 51
156.421822
  0
ARC
  8
ENTITYA19764
  6
CONTINUOUS
 62
1
 10
162.153468
 20
120.556591
 40
0.500000
 50
129.902782
 51
255.661366
  0
LINE
  8
ENTITYA19764
  6
CONTINUOUS
 62
1
 10
162.353212
 20
119.989457
 11
162.029642
 21
120.072166
  0
ARC
  8
ENTITYA19764
  6
CONTINUOUS
 62
1
 10
162.794955
 20
119.789457
 40
1.500000
 50
90.000000
 51
129.902782
  0
ARC
  8
ENTITYA19764
  6
CONTINUOUS
 62
1
 10
163.456080
 20
119.789457
 40
0.500000
 50
0.000000
 51
90.000000
  0
ARC
  8
ENTITYA19764
  6
CONTINUOUS
 62
1
 10
163.956080
 20
120.289457
 40
1.000000
 50
0.000000
 51
90.000000
  0
LINE
  8
ENTITYA19764
  6
CONTINUOUS
 62
1
 10
159.356080
 20
119.448044
 11
157.956080
 21
119.448044
  0
ARC
  8
ENTITYA19764
  6
CONTINUOUS
 62
1
 10
158.050457
 20
91.148580
 40
2.000000
 50
180.000000
 51
270.000000
  0
LINE
  8
ENTITYA19764
  6
CONTINUOUS
 62
1
 10
153.690457
 20
84.348580
 11
129.740796
 21
84.348580
  0
LINE
  8
ENTITYA19764
  6
CONTINUOUS
 62
1
 10
153.690457
 20
126.448580
 11
129.740796
 21
126.448580
  0
LINE
  8
ENTITYA19764
  6
RANDOM
 62
1
 10
129.740796
 20
126.448580
 11
129.740796
 21
84.348580
  0
LINE
  8
ENTITYA19764
  6
CONTINUOUS
 62
1
 10
160.790457
 20
119.601877
 11
160.790457
 21
119.601877
  0
LINE
  8
ENTITYA19764
  6
CONTINUOUS
 62
1
 10
160.790457
 20
120.601877
 11
160.790457
 21
120.601877
  0
LINE
  8
ENTITYA19764
  6
CONTINUOUS
 62
1
 10
160.790457
 20
119.640371
 11
160.790457
 21
119.640371
  0
LINE
  8
ENTITYA19764
  6
CONTINUOUS
 62
1
 10
213.357864
 20
118.048580
 11
207.172612
 21
118.048580
  0
TEXT
  8
ENTITYA19764
  6
CONTINUOUS
 62
1
 10
172.194837
 20
11.587438
 40
3.000000
  1
SILICONE HEEL BEAD &
 50
90.000000
 41
1.000000
 51
0.000000
  7
STANDARD
  0
TEXT
  8
ENTITYA19764
  6
CONTINUOUS
 62
1
 10
178.194837
 20
11.587438
 40
3.000000
  1
SETTING BLOCKS
 50
90.000000
 41
1.000000
 51
0.000000
  7
STANDARD
  0
LINE
  8
ENTITYA19764
  6
DASHED
 62
1
 10
73.532240
 20
96.948580
 11
73.532240
 21
91.548580
  0
LINE
  8
ENTITYA19764
  6
DASHED
 62
1
 10
76.332240
 20
96.748580
 11
76.332240
 21
91.748580
  0
LINE
  8
ENTITYA19764
  6
DASHED
 62
1
 10
79.132240
 20
92.373580
 11
79.132240
 21
96.123580
  0
LINE
  8
ENTITYA19764
  6
DASHED
 62
1
 10
70.732240
 20
91.798580
 11
71.532240
 21
91.798580
  0
LINE
  8
ENTITYA19764
  6
DASHED
 62
1
 10
70.732240
 20
96.698580
 11
71.532240
 21
96.698580
  0
LINE
  8
ENTITYA19764
  6
DASHED
 62
1
 10
70.732240
 20
91.798580
 11
69.532240
 21
92.998580
  0
LINE
  8
ENTITYA19764
  6
DASHED
 62
1
 10
70.732240
 20
96.698580
 11
69.532240
 21
95.498580
  0
LINE
  8
ENTITYA19764
  6
DASHED
 62
1
 10
73.532240
 20
92.498580
 11
71.532240
 21
92.498580
  0
LINE
  8
ENTITYA19764
  6
DASHED
 62
1
 10
73.532240
 20
95.998580
 11
71.532240
 21
95.998580
  0
LINE
  8
ENTITYA19764
  6
DASHED
 62
1
 10
75.232240
 20
91.548580
 11
73.532240
 21
91.548580
  0
LINE
  8
ENTITYA19764
  6
DASHED
 62
1
 10
75.232240
 20
96.948580
 11
73.532240
 21
96.948580
  0
LINE
  8
ENTITYA19764
  6
DASHED
 62
1
 10
71.132240
 20
94.848580
 11
71.132240
 21
93.648580
  0
LINE
  8
ENTITYA19764
  6
DASHED
 62
1
 10
71.132240
 20
93.648580
 11
69.532240
 21
93.648580
  0
LINE
  8
ENTITYA19764
  6
DASHED
 62
1
 10
71.132240
 20
94.848580
 11
69.532240
 21
94.848580
  0
LINE
  8
ENTITYA19764
  6
DASHED
 62
1
 10
69.532240
 20
92.998580
 11
69.532240
 21
93.648580
  0
LINE
  8
ENTITYA19764
  6
DASHED
 62
1
 10
69.532240
 20
94.848580
 11
69.532240
 21
95.498580
  0
LINE
  8
ENTITYA19764
  6
DASHED
 62
1
 10
70.732240
 20
96.698580
 11
70.732240
 21
94.848580
  0
LINE
  8
ENTITYA19764
  6
DASHED
 62
1
 10
70.732240
 20
93.648580
 11
70.732240
 21
91.798580
  0
LINE
  8
ENTITYA19764
  6
DASHED
 62
1
 10
79.992240
 20
91.748580
 11
75.232240
 21
91.748580
  0
LINE
  8
ENTITYA19764
  6
DASHED
 62
1
 10
79.992240
 20
96.748580
 11
75.232240
 21
96.748580
  0
LINE
  8
ENTITYA19764
  6
DASHED
 62
1
 10
76.332240
 20
92.373580
 11
79.992240
 21
92.373580
  0
LINE
  8
ENTITYA19764
  6
DASHED
 62
1
 10
76.332240
 20
96.123580
 11
79.992240
 21
96.123580
  0
LINE
  8
ENTITYA19764
  6
DASHED
 62
1
 10
76.332240
 20
96.123580
 11
75.232240
 21
96.123580
  0
LINE
  8
ENTITYA19764
  6
DASHED
 62
1
 10
76.332240
 20
92.373580
 11
75.232240
 21
92.373580
  0
LINE
  8
ENTITYA19764
  6
DASHED
 62
1
 10
78.507240
 20
96.748580
 11
78.507240
 21
91.748580
  0
LINE
  8
ENTITYA19764
  6
DASHED
 62
1
 10
79.132240
 20
92.373580
 11
78.507240
 21
91.748580
  0
LINE
  8
ENTITYA19764
  6
DASHED
 62
1
 10
79.132240
 20
96.123580
 11
78.507240
 21
96.748580
  0
LINE
  8
ENTITYA19764
  6
DASHED
 62
1
 10
71.532240
 20
96.698580
 11
71.532240
 21
91.798580
  0
LINE
  8
ENTITYA19764
  6
CONTINUOUS
 62
1
 10
66.971378
 20
90.701567
 11
74.753131
 21
90.701567
  0
LINE
  8
ENTITYA19764
  6
CONTINUOUS
 62
1
 10
72.668580
 20
97.401567
 11
63.680482
 21
97.401567
  0
LINE
  8
ENTITYA19764
  6
CONTINUOUS
 62
1
 10
73.303131
 20
91.701567
 11
67.317788
 21
91.701567
  0
LINE
  8
ENTITYA19764
  6
CONTINUOUS
 62
1
 10
64.777447
 20
96.401567
 11
70.403131
 21
96.401567
  0
LINE
  8
ENTITYA19764
  6
CONTINUOUS
 62
1
 10
73.303131
 20
91.701567
 11
73.303131
 21
91.401567
  0
LINE
  8
ENTITYA19764
  6
CONTINUOUS
 62
1
 10
73.303131
 20
91.401567
 11
74.753131
 21
91.401567
  0
LINE
  8
ENTITYA19764
  6
CONTINUOUS
 62
1
 10
71.603131
 20
96.701567
 11
71.603131
 21
96.151567
  0
LINE
  8
ENTITYA19764
  6
CONTINUOUS
 62
1
 10
70.703131
 20
96.701567
 11
71.603131
 21
96.701567
  0
LINE
  8
ENTITYA19764
  6
CONTINUOUS
 62
1
 10
70.703131
 20
96.701567
 11
70.403131
 21
96.401567
  0
LINE
  8
ENTITYA19764
  6
CONTINUOUS
 62
1
 10
71.603131
 20
96.151567
 11
72.003131
 21
96.151567
  0
LINE
  8
ENTITYA19764
  6
CONTINUOUS
 62
1
 10
72.003131
 20
96.151567
 11
72.861416
 21
96.871754
  0
ARC
  8
ENTITYA19764
  6
CONTINUOUS
 62
1
 10
72.668580
 20
97.101567
 40
0.300000
 50
310.000000
 51
90.000000
  0
ARC
  8
ENTITYA19764
  6
CONTINUOUS
 62
1
 10
74.753131
 20
91.051567
 40
0.350000
 50
270.000000
 51
0.000000
  0
ARC
  8
ENTITYA19764
  6
CONTINUOUS
 62
1
 10
74.753131
 20
91.051567
 40
0.350000
 50
0.000000
 51
90.000000
  0
LINE
  8
ENTITYA19764
  6
CONTINUOUS
 62
1
 10
62.670119
 20
97.151567
 11
66.105353
 21
91.201567
  0
LINE
  8
ENTITYA19764
  6
CONTINUOUS
 62
1
 10
66.798173
 20
92.001567
 11
64.517639
 21
95.951567
  0
ARC
  8
ENTITYA19764
  6
CONTINUOUS
 62
1
 10
66.971378
 20
91.701567
 40
1.000000
 50
210.000000
 51
270.000000
  0
ARC
  8
ENTITYA19764
  6
CONTINUOUS
 62
1
 10
67.317788
 20
92.301567
 40
0.600000
 50
210.000000
 51
270.000000
  0
ARC
  8
ENTITYA19764
  6
CONTINUOUS
 62
1
 10
64.777447
 20
96.101567
 40
0.300000
 50
90.000000
 51
210.000000
  0
LINE
  8
ENTITYA19764
  6
CONTINUOUS
 62
1
 10
63.103131
 20
97.901567
 11
63.180482
 21
97.901567
  0
ARC
  8
ENTITYA19764
  6
CONTINUOUS
 62
1
 10
63.103131
 20
97.401567
 40
0.500000
 50
90.000000
 51
210.000000
  0
ARC
  8
ENTITYA19764
  6
CONTINUOUS
 62
1
 10
63.180482
 20
97.401567
 40
0.500000
 50
0.000000
 51
90.000000
  0
ARC
  8
ENTITYA19764
  6
CONTINUOUS
 62
1
 10
62.126805
 20
97.192046
 40
0.500000
 50
225.294432
 51
12.372426
  0
ARC
  8
ENTITYA19764
  6
CONTINUOUS
 62
1
 10
65.409081
 20
102.171635
 40
6.455057
 50
197.770054
 51
235.738501
  0
ARC
  8
ENTITYA19764
  6
CONTINUOUS
 62
1
 10
70.778373
 20
100.574347
 40
1.500000
 50
291.582723
 51
345.610062
  0
ARC
  8
ENTITYA19764
  6
CONTINUOUS
 62
1
 10
65.976834
 20
99.463749
 40
2.000000
 50
244.732944
 51
300.656818
  0
ARC
  8
ENTITYA19764
  6
CONTINUOUS
 62
1
 10
66.404766
 20
97.719041
 40
2.000000
 50
85.846562
 51
143.324628
  0
ARC
  8
ENTITYA19764
  6
CONTINUOUS
 62
1
 10
66.664268
 20
98.720382
 40
1.000000
 50
15.000000
 51
96.583241
  0
ARC
  8
ENTITYA19764
  6
CONTINUOUS
 62
1
 10
66.664268
 20
98.720382
 40
1.000000
 50
299.981778
 51
15.000000
  0
LINE
  8
ENTITYA19764
  6
CONTINUOUS
 62
1
 10
67.163992
 20
97.854198
 11
66.996623
 21
97.743275
  0
ARC
  8
ENTITYA19764
  6
CONTINUOUS
 62
1
 10
65.698430
 20
98.473055
 40
1.000000
 50
153.861185
 51
234.881299
  0
ARC
  8
ENTITYA19764
  6
CONTINUOUS
 62
1
 10
65.976834
 20
99.463749
 40
2.000000
 50
244.732944
 51
300.656818
  0
ARC
  8
ENTITYA19764
  6
CONTINUOUS
 62
1
 10
65.698430
 20
98.473055
 40
1.000000
 50
219.664803
 51
234.881299
  0
ARC
  8
ENTITYA19764
  6
CONTINUOUS
 62
1
 10
66.404766
 20
97.719041
 40
2.000000
 50
85.846562
 51
143.324628
  0
ARC
  8
ENTITYA19764
  6
CONTINUOUS
 62
1
 10
66.664268
 20
98.720382
 40
1.000000
 50
15.000000
 51
96.583241
  0
ARC
  8
ENTITYA19764
  6
CONTINUOUS
 62
1
 10
66.664268
 20
98.720382
 40
1.000000
 50
299.981778
 51
15.000000
  0
LINE
  8
ENTITYA19764
  6
CONTINUOUS
 62
1
 10
67.163992
 20
97.854198
 11
66.996623
 21
97.743275
  0
ARC
  8
ENTITYA19764
  6
CONTINUOUS
 62
1
 10
65.698430
 20
98.473055
 40
1.000000
 50
153.861185
 51
234.881299
  0
ARC
  8
ENTITYA19764
  6
CONTINUOUS
 62
1
 10
65.156253
 20
109.233233
 40
11.798055
 50
273.988266
 51
301.553665
  0
LINE
  8
ENTITYA19764
  6
CONTINUOUS
 62
1
 10
63.348407
 20
97.872525
 11
65.649461
 21
97.490724
  0
LINE
  8
ENTITYA19764
  6
CONTINUOUS
 62
1
 10
66.971378
 20
90.701567
 11
50.135117
 21
90.701567
  0
LINE
  8
ENTITYA19764
  6
CONTINUOUS
 62
1
 10
62.126805
 20
96.692046
 11
50.135117
 21
96.692046
  0
LINE
  8
ENTITYA19764
  6
CONTINUOUS
 62
1
 10
62.532240
 20
118.048580
 11
61.399916
 21
116.076567
  0
LINE
  8
ENTITYA19764
  6
CONTINUOUS
 62
1
 10
71.032240
 20
116.076567
 11
71.032240
 21
100.201567
  0
LINE
  8
ENTITYA19764
  6
CONTINUOUS
 62
1
 10
50.135117
 20
116.076567
 11
71.223741
 21
116.076567
  0
LINE
  8
ENTITYA19764
  6
CONTINUOUS
 62
1
 10
71.032240
 20
100.201567
 11
50.135117
 21
100.201567
  0
LINE
  8
ENTITYA19764
  6
CONTINUOUS
 62
1
 10
71.032240
 20
111.316567
 11
50.135117
 21
111.316567
  0
LINE
  8
ENTITYA19764
  6
CONTINUOUS
 62
1
 10
50.135117
 20
104.961567
 11
71.032240
 21
104.961567
  0
LINE
  8
ENTITYA19764
  6
CONTINUOUS
 62
1
 10
66.272240
 20
104.961567
 11
66.272240
 21
111.316567
  0
LINE
  8
ENTITYA19764
  6
CONTINUOUS
 62
1
 10
66.272240
 20
111.316567
 11
71.032240
 21
104.961567
  0
LINE
  8
ENTITYA19764
  6
CONTINUOUS
 62
1
 10
66.272240
 20
104.961567
 11
71.032240
 21
111.316567
  0
LINE
  8
ENTITYA19764
  6
CONTINUOUS
 62
1
 10
71.032240
 20
114.886567
 11
50.135117
 21
114.886567
  0
LINE
  8
ENTITYA19764
  6
CONTINUOUS
 62
1
 10
71.032240
 20
103.771567
 11
50.135117
 21
103.771567
  0
LINE
  8
ENTITYA19764
  6
CONTINUOUS
 62
1
 10
50.135117
 20
113.696567
 11
71.032240
 21
113.696567
  0
LINE
  8
ENTITYA19764
  6
CONTINUOUS
 62
1
 10
71.032240
 20
112.506567
 11
50.135117
 21
112.506567
  0
LINE
  8
ENTITYA19764
  6
CONTINUOUS
 62
1
 10
50.135117
 20
102.581567
 11
71.032240
 21
102.581567
  0
LINE
  8
ENTITYA19764
  6
CONTINUOUS
 62
1
 10
71.032240
 20
101.391567
 11
50.135117
 21
101.391567
  0
LINE
  8
ENTITYA19764
  6
CONTINUOUS
 62
1
 10
71.032240
 20
100.201567
 11
75.232240
 21
100.201567
  0
LINE
  8
ENTITYA19764
  6
CONTINUOUS
 62
1
 10
71.032240
 20
115.392634
 11
75.232240
 21
115.392634
  0
LINE
  8
ENTITYA19764
  6
CONTINUOUS
 62
1
 10
71.032240
 20
100.201567
 11
75.232240
 21
115.392634
  0
LINE
  8
ENTITYA19764
  6
CONTINUOUS
 62
1
 10
75.232240
 20
100.201567
 11
71.032240
 21
115.392634
  0
LINE
  8
ENTITYA19764
  6
CONTINUOUS
 62
1
 10
71.721524
 20
116.529532
 11
71.735435
 21
116.676759
  0
LINE
  8
ENTITYA19764
  6
CONTINUOUS
 62
1
 10
65.413593
 20
117.274099
 11
65.352129
 21
116.623602
  0
ARC
  8
ENTITYA19764
  6
CONTINUOUS
 62
1
 10
65.911376
 20
117.227064
 40
0.500000
 50
84.602251
 51
174.602251
  0
ARC
  8
ENTITYA19764
  6
CONTINUOUS
 62
1
 10
65.849911
 20
116.576567
 40
0.500000
 50
174.602251
 51
270.000000
  0
ARC
  8
ENTITYA19764
  6
CONTINUOUS
 62
1
 10
71.223741
 20
116.576567
 40
0.500000
 50
270.000000
 51
354.602251
  0
ARC
  8
ENTITYA19764
  6
CONTINUOUS
 62
1
 10
71.237652
 20
116.723794
 40
0.500000
 50
354.602251
 51
84.602251
  0
LINE
  8
ENTITYA19764
  6
CONTINUOUS
 62
1
 10
66.383277
 20
116.906116
 11
70.936495
 21
116.690594
  0
LINE
  8
ENTITYA19764
  6
CONTINUOUS
 62
1
 10
63.155960
 20
116.076567
 11
63.155960
 21
117.989645
  0
LINE
  8
ENTITYA19764
  6
CONTINUOUS
 62
1
 10
62.155960
 20
117.393266
 11
62.155960
 21
116.076567
  0
LINE
  8
ENTITYA19764
  6
CONTINUOUS
 62
1
 10
64.155960
 20
117.895157
 11
64.155960
 21
116.076567
  0
LINE
  8
ENTITYA19764
  6
CONTINUOUS
 62
1
 10
65.155960
 20
116.076567
 11
65.155960
 21
117.800669
  0
LINE
  8
ENTITYA19764
  6
CONTINUOUS
 62
1
 10
65.394929
 20
117.076567
 11
61.974113
 21
117.076567
  0
LINE
  8
ENTITYA19764
  6
CONTINUOUS
 62
1
 10
213.357864
 20
121.248580
 11
207.172612
 21
121.248580
  0
LINE
  8
ENTITYA19764
  6
CONTINUOUS
 62
1
 10
213.357864
 20
118.048580
 11
212.225540
 21
115.586080
  0
LINE
  8
ENTITYA19764
  6
CONTINUOUS
 62
1
 10
221.857864
 20
115.586080
 11
221.857864
 21
99.711080
  0
LINE
  8
ENTITYA19764
  6
CONTINUOUS
 62
1
 10
207.172612
 20
115.586080
 11
222.049365
 21
115.586080
  0
LINE
  8
ENTITYA19764
  6
CONTINUOUS
 62
1
 10
221.857864
 20
99.711080
 11
207.172612
 21
99.711080
  0
LINE
  8
ENTITYA19764
  6
CONTINUOUS
 62
1
 10
221.857864
 20
110.826080
 11
207.172612
 21
110.826080
  0
LINE
  8
ENTITYA19764
  6
CONTINUOUS
 62
1
 10
207.172612
 20
104.471080
 11
221.857864
 21
104.471080
  0
LINE
  8
ENTITYA19764
  6
CONTINUOUS
 62
1
 10
217.097864
 20
104.471080
 11
217.097864
 21
110.826080
  0
LINE
  8
ENTITYA19764
  6
CONTINUOUS
 62
1
 10
217.097864
 20
110.826080
 11
221.857864
 21
104.471080
  0
LINE
  8
ENTITYA19764
  6
CONTINUOUS
 62
1
 10
217.097864
 20
104.471080
 11
221.857864
 21
110.826080
  0
LINE
  8
ENTITYA19764
  6
CONTINUOUS
 62
1
 10
221.857864
 20
114.396080
 11
207.172612
 21
114.396080
  0
LINE
  8
ENTITYA19764
  6
CONTINUOUS
 62
1
 10
221.857864
 20
103.281080
 11
207.172612
 21
103.281080
  0
LINE
  8
ENTITYA19764
  6
CONTINUOUS
 62
1
 10
207.172612
 20
113.206080
 11
221.857864
 21
113.206080
  0
LINE
  8
ENTITYA19764
  6
CONTINUOUS
 62
1
 10
221.857864
 20
112.016080
 11
207.172612
 21
112.016080
  0
LINE
  8
ENTITYA19764
  6
CONTINUOUS
 62
1
 10
207.172612
 20
102.091080
 11
221.857864
 21
102.091080
  0
LINE
  8
ENTITYA19764
  6
CONTINUOUS
 62
1
 10
221.857864
 20
100.901080
 11
207.172612
 21
100.901080
  0
LINE
  8
ENTITYA19764
  6
CONTINUOUS
 62
1
 10
221.857864
 20
99.711080
 11
225.857864
 21
99.711080
  0
LINE
  8
ENTITYA19764
  6
CONTINUOUS
 62
1
 10
221.857864
 20
99.711080
 11
226.057864
 21
115.392634
  0
LINE
  8
ENTITYA19764
  6
CONTINUOUS
 62
1
 10
222.547148
 20
116.039045
 11
222.561059
 21
116.676759
  0
LINE
  8
ENTITYA19764
  6
CONTINUOUS
 62
1
 10
216.239217
 20
117.274099
 11
216.177753
 21
116.133114
  0
ARC
  8
ENTITYA19764
  6
CONTINUOUS
 62
1
 10
216.737000
 20
117.227064
 40
0.500000
 50
84.602251
 51
174.602251
  0
ARC
  8
ENTITYA19764
  6
CONTINUOUS
 62
1
 10
216.675536
 20
116.086080
 40
0.500000
 50
174.602251
 51
270.000000
  0
ARC
  8
ENTITYA19764
  6
CONTINUOUS
 62
1
 10
222.049365
 20
116.086080
 40
0.500000
 50
270.000000
 51
354.602251
  0
ARC
  8
ENTITYA19764
  6
CONTINUOUS
 62
1
 10
222.063276
 20
116.723794
 40
0.500000
 50
354.602251
 51
84.602251
  0
LINE
  8
ENTITYA19764
  6
CONTINUOUS
 62
1
 10
213.981585
 20
115.586080
 11
213.981585
 21
117.989645
  0
LINE
  8
ENTITYA19764
  6
CONTINUOUS
 62
1
 10
212.981585
 20
117.230273
 11
212.981585
 21
115.586080
  0
LINE
  8
ENTITYA19764
  6
CONTINUOUS
 62
1
 10
214.981585
 20
117.895157
 11
214.981585
 21
115.586080
  0
LINE
  8
ENTITYA19764
  6
CONTINUOUS
 62
1
 10
215.981585
 20
115.586080
 11
215.981585
 21
117.800669
  0
LINE
  8
ENTITYA19764
  6
CONTINUOUS
 62
1
 10
216.220553
 20
117.076567
 11
212.910906
 21
117.076567
  0
LINE
  8
ENTITYA19764
  6
CONTINUOUS
 62
1
 10
207.172612
 20
97.248580
 11
226.057864
 21
97.248580
  0
LINE
  8
ENTITYA19764
  6
CONTINUOUS
 62
1
 10
226.057864
 20
91.248580
 11
207.172612
 21
91.248580
  0
LINE
  8
ENTITYA19764
  6
CONTINUOUS
 62
1
 10
214.057864
 20
91.248580
 11
214.057864
 21
97.248580
  0
LINE
  8
ENTITYA19764
  6
DASHED
 62
1
 10
215.057865
 20
92.248580
 11
230.617864
 21
92.248580
  0
LINE
  8
ENTITYA19764
  6
DASHED
 62
1
 10
230.617864
 20
96.248579
 11
215.057865
 21
96.248579
  0
LINE
  8
ENTITYA19764
  6
DASHED
 62
1
 10
230.617864
 20
92.648580
 11
215.057865
 21
92.648580
  0
LINE
  8
ENTITYA19764
  6
DASHED
 62
1
 10
215.057865
 20
95.848579
 11
230.617864
 21
95.848579
  0
LINE
  8
ENTITYA19764
  6
DASHED
 62
1
 10
228.740456
 20
92.248580
 11
228.740456
 21
96.248579
  0
LINE
  8
ENTITYA19764
  6
DASHED
 62
1
 10
214.057864
 20
97.248580
 11
215.057865
 21
96.248579
  0
LINE
  8
ENTITYA19764
  6
DASHED
 62
1
 10
214.057864
 20
91.248580
 11
215.057865
 21
92.248580
  0
LINE
  8
ENTITYA19764
  6
DASHED
 62
1
 10
215.057865
 20
96.248579
 11
215.057865
 21
92.248580
  0
LINE
  8
ENTITYA19764
  6
CONTINUOUS
 62
1
 10
226.057864
 20
115.392634
 11
221.857864
 21
115.392634
  0
LINE
  8
ENTITYA19764
  6
CONTINUOUS
 62
1
 10
225.857864
 20
100.457820
 11
221.857864
 21
115.392634
  0
LINE
  8
ENTITYA19764
  6
CONTINUOUS
 62
1
 10
212.451079
 20
116.076567
 11
216.174707
 21
116.076567
  0
LINE
  8
ENTITYA19764
  6
CONTINUOUS
 62
1
 10
217.162522
 20
116.646302
 11
221.715740
 21
116.430780
  0
LINE
  8
ENTITYA19764
  6
CONTINUOUS
 62
1
 10
214.057864
 20
97.248580
 11
212.925540
 21
99.711080
  0
LINE
  8
ENTITYA19764
  6
CONTINUOUS
 62
1
 10
223.247148
 20
99.258114
 11
223.279839
 21
97.759484
  0
ARC
  8
ENTITYA19764
  6
CONTINUOUS
 62
1
 10
222.749365
 20
99.211080
 40
0.500000
 50
5.397749
 51
90.000000
  0
LINE
  8
ENTITYA19764
  6
CONTINUOUS
 62
1
 10
214.681585
 20
99.711080
 11
214.681585
 21
97.248580
  0
LINE
  8
ENTITYA19764
  6
CONTINUOUS
 62
1
 10
213.681585
 20
98.066886
 11
213.681585
 21
99.711080
  0
LINE
  8
ENTITYA19764
  6
CONTINUOUS
 62
1
 10
215.681585
 20
97.248580
 11
215.681585
 21
99.711080
  0
LINE
  8
ENTITYA19764
  6
CONTINUOUS
 62
1
 10
216.681585
 20
99.711080
 11
216.681585
 21
97.248580
  0
LINE
  8
ENTITYA19764
  6
CONTINUOUS
 62
1
 10
216.938088
 20
98.044026
 11
213.692096
 21
98.044026
  0
LINE
  8
ENTITYA19764
  6
CONTINUOUS
 62
1
 10
213.232269
 20
99.044026
 11
216.884218
 21
99.044026
  0
LINE
  8
ENTITYA19764
  6
CONTINUOUS
 62
1
 10
216.928804
 20
97.737675
 11
216.896901
 21
99.200175
  0
ARC
  8
ENTITYA19764
  6
CONTINUOUS
 62
1
 10
217.396782
 20
99.211080
 40
0.500000
 50
90.000000
 51
181.249661
  0
ARC
  8
ENTITYA19764
  6
CONTINUOUS
 62
1
 10
217.428685
 20
97.748580
 40
0.500000
 50
181.249661
 51
270.000000
  0
ARC
  8
ENTITYA19764
  6
CONTINUOUS
 62
1
 10
222.779958
 20
97.748580
 40
0.500000
 50
270.000000
 51
1.249661
  0
LINE
  8
ENTITYA19764
  6
CONTINUOUS
 62
1
 10
217.932432
 20
98.466970
 11
222.287755
 21
98.466970
  0
LINE
  8
ENTITYA19764
  6
DASHED
 62
1
 10
149.585243
 20
103.448580
 11
149.585243
 21
98.048580
  0
LINE
  8
ENTITYA19764
  6
DASHED
 62
1
 10
152.385243
 20
103.248580
 11
152.385243
 21
98.248580
  0
LINE
  8
ENTITYA19764
  6
DASHED
 62
1
 10
155.185243
 20
98.873580
 11
155.185243
 21
102.623580
  0
LINE
  8
ENTITYA19764
  6
DASHED
 62
1
 10
146.785243
 20
98.298580
 11
147.585243
 21
98.298580
  0
LINE
  8
ENTITYA19764
  6
DASHED
 62
1
 10
146.785243
 20
103.198580
 11
147.585243
 21
103.198580
  0
LINE
  8
ENTITYA19764
  6
DASHED
 62
1
 10
146.785243
 20
98.298580
 11
145.585243
 21
99.498580
  0
LINE
  8
ENTITYA19764
  6
DASHED
 62
1
 10
146.785243
 20
103.198580
 11
145.585243
 21
101.998580
  0
LINE
  8
ENTITYA19764
  6
DASHED
 62
1
 10
149.585243
 20
98.998580
 11
147.585243
 21
98.998580
  0
LINE
  8
ENTITYA19764
  6
DASHED
 62
1
 10
149.585243
 20
102.498580
 11
147.585243
 21
102.498580
  0
LINE
  8
ENTITYA19764
  6
DASHED
 62
1
 10
151.290457
 20
98.048580
 11
149.585243
 21
98.048580
  0
LINE
  8
ENTITYA19764
  6
DASHED
 62
1
 10
151.290457
 20
103.448580
 11
149.585243
 21
103.448580
  0
LINE
  8
ENTITYA19764
  6
DASHED
 62
1
 10
147.185243
 20
101.348580
 11
147.185243
 21
100.148580
  0
LINE
  8
ENTITYA19764
  6
DASHED
 62
1
 10
147.185243
 20
100.148580
 11
145.585243
 21
100.148580
  0
LINE
  8
ENTITYA19764
  6
DASHED
 62
1
 10
147.185243
 20
101.348580
 11
145.585243
 21
101.348580
  0
LINE
  8
ENTITYA19764
  6
DASHED
 62
1
 10
145.585243
 20
99.498580
 11
145.585243
 21
100.148580
  0
LINE
  8
ENTITYA19764
  6
DASHED
 62
1
 10
145.585243
 20
101.348580
 11
145.585243
 21
101.998580
  0
LINE
  8
ENTITYA19764
  6
DASHED
 62
1
 10
146.785243
 20
103.198580
 11
146.785243
 21
101.348580
  0
LINE
  8
ENTITYA19764
  6
DASHED
 62
1
 10
146.785243
 20
100.148580
 11
146.785243
 21
98.298580
  0
LINE
  8
ENTITYA19764
  6
DASHED
 62
1
 10
156.050457
 20
103.248580
 11
151.290457
 21
103.248580
  0
LINE
  8
ENTITYA19764
  6
DASHED
 62
1
 10
152.385243
 20
98.873580
 11
156.050457
 21
98.873580
  0
LINE
  8
ENTITYA19764
  6
DASHED
 62
1
 10
152.385243
 20
102.623580
 11
156.050457
 21
102.623580
  0
LINE
  8
ENTITYA19764
  6
DASHED
 62
1
 10
152.385243
 20
102.623580
 11
151.290457
 21
102.623580
  0
LINE
  8
ENTITYA19764
  6
DASHED
 62
1
 10
152.385243
 20
98.873580
 11
151.290457
 21
98.873580
  0
LINE
  8
ENTITYA19764
  6
DASHED
 62
1
 10
154.560243
 20
103.248580
 11
154.560243
 21
98.248580
  0
LINE
  8
ENTITYA19764
  6
DASHED
 62
1
 10
155.185243
 20
98.873580
 11
154.560243
 21
98.248580
  0
LINE
  8
ENTITYA19764
  6
DASHED
 62
1
 10
155.185243
 20
102.623580
 11
154.560243
 21
103.248580
  0
LINE
  8
ENTITYA19764
  6
DASHED
 62
1
 10
147.585243
 20
103.198580
 11
147.585243
 21
98.298580
  0
LINE
  8
ENTITYA19764
  6
CONTINUOUS
 62
1
 10
141.351150
 20
104.155457
 11
148.967774
 21
104.155457
  0
LINE
  8
ENTITYA19764
  6
CONTINUOUS
 62
1
 10
150.629387
 20
96.955457
 11
144.064696
 21
96.955457
  0
LINE
  8
ENTITYA19764
  6
CONTINUOUS
 62
1
 10
144.555444
 20
98.205457
 11
149.304387
 21
98.205457
  0
LINE
  8
ENTITYA19764
  6
CONTINUOUS
 62
1
 10
146.404387
 20
102.905457
 11
142.534718
 21
102.905457
  0
LINE
  8
ENTITYA19764
  6
CONTINUOUS
 62
1
 10
149.304387
 20
97.905457
 11
149.304387
 21
98.205457
  0
LINE
  8
ENTITYA19764
  6
CONTINUOUS
 62
1
 10
150.629387
 20
97.905457
 11
149.304387
 21
97.905457
  0
ARC
  8
ENTITYA19764
  6
CONTINUOUS
 62
1
 10
150.629387
 20
97.430457
 40
0.475000
 50
0.000000
 51
90.000000
  0
ARC
  8
ENTITYA19764
  6
CONTINUOUS
 62
1
 10
150.629387
 20
97.430457
 40
0.475000
 50
270.000000
 51
0.000000
  0
LINE
  8
ENTITYA19764
  6
CONTINUOUS
 62
1
 10
138.688121
 20
105.267957
 11
143.198670
 21
97.455457
  0
LINE
  8
ENTITYA19764
  6
CONTINUOUS
 62
1
 10
144.035828
 20
98.505457
 11
142.015102
 21
102.005457
  0
ARC
  8
ENTITYA19764
  6
CONTINUOUS
 62
1
 10
139.229387
 20
105.580457
 40
0.625000
 50
120.000000
 51
210.000000
  0
ARC
  8
ENTITYA19764
  6
CONTINUOUS
 62
1
 10
139.229387
 20
105.580457
 40
0.625000
 50
30.000000
 51
120.000000
  0
LINE
  8
ENTITYA19764
  6
CONTINUOUS
 62
1
 10
147.604387
 20
102.655457
 11
147.604387
 21
103.205457
  0
LINE
  8
ENTITYA19764
  6
CONTINUOUS
 62
1
 10
147.604387
 20
103.205457
 11
146.704387
 21
103.205457
  0
LINE
  8
ENTITYA19764
  6
CONTINUOUS
 62
1
 10
148.004387
 20
102.655457
 11
147.604387
 21
102.655457
  0
LINE
  8
ENTITYA19764
  6
CONTINUOUS
 62
1
 10
148.004387
 20
102.655457
 11
149.160611
 21
103.625644
  0
ARC
  8
ENTITYA19764
  6
CONTINUOUS
 62
1
 10
148.967774
 20
103.855457
 40
0.300000
 50
310.000000
 51
90.000000
  0
LINE
  8
ENTITYA19764
  6
CONTINUOUS
 62
1
 10
146.704387
 20
103.205457
 11
146.404387
 21
102.905457
  0
LINE
  8
ENTITYA19764
  6
CONTINUOUS
 62
1
 10
140.485124
 20
104.655457
 11
139.770653
 21
105.892957
  0
ARC
  8
ENTITYA19764
  6
CONTINUOUS
 62
1
 10
141.351150
 20
105.155457
 40
1.000000
 50
210.000000
 51
270.000000
  0
ARC
  8
ENTITYA19764
  6
CONTINUOUS
 62
1
 10
144.064696
 20
97.955457
 40
1.000000
 50
210.000000
 51
270.000000
  0
ARC
  8
ENTITYA19764
  6
CONTINUOUS
 62
1
 10
142.534718
 20
102.305457
 40
0.600000
 50
90.000000
 51
210.000000
  0
ARC
  8
ENTITYA19764
  6
CONTINUOUS
 62
1
 10
144.555444
 20
98.805457
 40
0.600000
 50
210.000000
 51
270.000000
  0
LINE
  8
ENTITYA19764
  6
CONTINUOUS
 62
1
 10
141.473123
 20
117.287992
 11
141.323312
 21
115.702492
  0
LINE
  8
ENTITYA19764
  6
CONTINUOUS
 62
1
 10
139.214178
 20
115.155457
 11
139.214178
 21
117.989645
  0
LINE
  8
ENTITYA19764
  6
CONTINUOUS
 62
1
 10
138.214178
 20
117.489029
 11
138.214178
 21
115.155457
  0
LINE
  8
ENTITYA19764
  6
CONTINUOUS
 62
1
 10
140.214178
 20
117.895157
 11
140.214178
 21
115.155457
  0
LINE
  8
ENTITYA19764
  6
CONTINUOUS
 62
1
 10
141.214178
 20
115.155457
 11
141.214178
 21
117.800669
  0
LINE
  8
ENTITYA19764
  6
CONTINUOUS
 62
1
 10
141.453146
 20
117.076567
 11
137.936810
 21
117.076567
  0
LINE
  8
ENTITYA19764
  6
CONTINUOUS
 62
1
 10
147.085243
 20
115.155457
 11
147.085243
 21
108.805457
  0
ARC
  8
ENTITYA19764
  6
CONTINUOUS
 62
1
 10
138.223091
 20
105.002490
 40
0.500000
 50
225.294432
 51
0.000000
  0
ARC
  8
ENTITYA19764
  6
CONTINUOUS
 62
1
 10
141.505368
 20
109.982079
 40
6.455057
 50
190.502538
 51
235.738501
  0
ARC
  8
ENTITYA19764
  6
CONTINUOUS
 62
1
 10
138.223091
 20
105.002490
 40
0.500000
 50
225.294432
 51
15.669500
  0
ARC
  8
ENTITYA19764
  6
CONTINUOUS
 62
1
 10
146.874660
 20
108.384791
 40
1.500000
 50
291.582723
 51
16.286723
  0
ARC
  8
ENTITYA19764
  6
CONTINUOUS
 62
1
 10
142.073120
 20
107.274193
 40
2.000000
 50
244.732944
 51
300.656818
  0
ARC
  8
ENTITYA19764
  6
CONTINUOUS
 62
1
 10
141.794716
 20
106.283499
 40
1.000000
 50
219.664803
 51
234.881299
  0
ARC
  8
ENTITYA19764
  6
CONTINUOUS
 62
1
 10
142.501052
 20
105.529486
 40
2.000000
 50
85.846562
 51
143.324628
  0
ARC
  8
ENTITYA19764
  6
CONTINUOUS
 62
1
 10
142.760554
 20
106.530827
 40
1.000000
 50
15.000000
 51
96.583241
  0
ARC
  8
ENTITYA19764
  6
CONTINUOUS
 62
1
 10
142.760554
 20
106.530827
 40
1.000000
 50
299.981778
 51
15.000000
  0
LINE
  8
ENTITYA19764
  6
CONTINUOUS
 62
1
 10
143.260278
 20
105.664642
 11
143.092909
 21
105.553720
  0
ARC
  8
ENTITYA19764
  6
CONTINUOUS
 62
1
 10
141.794716
 20
106.283499
 40
1.000000
 50
153.861185
 51
234.881299
  0
ARC
  8
ENTITYA19764
  6
CONTINUOUS
 62
1
 10
142.073120
 20
107.274193
 40
2.000000
 50
244.732944
 51
300.656818
  0
ARC
  8
ENTITYA19764
  6
CONTINUOUS
 62
1
 10
141.794716
 20
106.283499
 40
1.000000
 50
219.664803
 51
234.881299
  0
ARC
  8
ENTITYA19764
  6
CONTINUOUS
 62
1
 10
142.501052
 20
105.529486
 40
2.000000
 50
85.846562
 51
143.324628
  0
ARC
  8
ENTITYA19764
  6
CONTINUOUS
 62
1
 10
142.760554
 20
106.530827
 40
1.000000
 50
15.000000
 51
96.583241
  0
ARC
  8
ENTITYA19764
  6
CONTINUOUS
 62
1
 10
142.760554
 20
106.530827
 40
1.000000
 50
299.981778
 51
15.000000
  0
LINE
  8
ENTITYA19764
  6
CONTINUOUS
 62
1
 10
143.260278
 20
105.664642
 11
143.092909
 21
105.553720
  0
ARC
  8
ENTITYA19764
  6
CONTINUOUS
 62
1
 10
141.794716
 20
106.283499
 40
1.000000
 50
153.861185
 51
234.881299
  0
ARC
  8
ENTITYA19764
  6
CONTINUOUS
 62
1
 10
141.252540
 20
117.043678
 40
11.798055
 50
273.988266
 51
301.553665
  0
LINE
  8
ENTITYA19764
  6
CONTINUOUS
 62
1
 10
139.939269
 20
105.600907
 11
141.745748
 21
105.301168
  0
LINE
  8
ENTITYA19764
  6
CONTINUOUS
 62
1
 10
138.627615
 20
105.411653
 11
138.704509
 21
105.137534
  0
LINE
  8
ENTITYA19764
  6
CONTINUOUS
 62
1
 10
144.064696
 20
96.955457
 11
129.740796
 21
96.955457
  0
LINE
  8
ENTITYA19764
  6
CONTINUOUS
 62
1
 10
138.223091
 20
104.502490
 11
129.740796
 21
104.502490
  0
LINE
  8
ENTITYA19764
  6
CONTINUOUS
 62
1
 10
138.590457
 20
121.248580
 11
129.740796
 21
121.248580
  0
LINE
  8
ENTITYA19764
  6
CONTINUOUS
 62
1
 10
129.740796
 20
108.805457
 11
147.085243
 21
108.805457
  0
LINE
  8
ENTITYA19764
  6
CONTINUOUS
 62
1
 10
147.194924
 20
115.155457
 11
129.740796
 21
115.155457
  0
LINE
  8
ENTITYA19764
  6
CONTINUOUS
 62
1
 10
147.085243
 20
115.155457
 11
151.290457
 21
115.155457
  0
LINE
  8
ENTITYA19764
  6
CONTINUOUS
 62
1
 10
147.085243
 20
108.805457
 11
151.290457
 21
108.805457
  0
LINE
  8
ENTITYA19764
  6
CONTINUOUS
 62
1
 10
151.290457
 20
115.155457
 11
147.085243
 21
108.805457
  0
LINE
  8
ENTITYA19764
  6
CONTINUOUS
 62
1
 10
147.085243
 20
115.155457
 11
151.290457
 21
108.805457
  0
LINE
  8
ENTITYA19764
  6
CONTINUOUS
 62
1
 10
129.740796
 20
113.567957
 11
147.085243
 21
113.567957
  0
LINE
  8
ENTITYA19764
  6
CONTINUOUS
 62
1
 10
147.085243
 20
111.980457
 11
129.740796
 21
111.980457
  0
LINE
  8
ENTITYA19764
  6
CONTINUOUS
 62
1
 10
129.740796
 20
110.392957
 11
147.085243
 21
110.392957
  0
LINE
  8
ENTITYA19764
  6
CONTINUOUS
 62
1
 10
137.264342
 20
116.076567
 11
141.358658
 21
116.076567
  0
ARC
  8
ENTITYA19764
  6
CONTINUOUS
 62
1
 10
141.970906
 20
117.240958
 40
0.500000
 50
84.516410
 51
174.602251
  0
ARC
  8
ENTITYA19764
  6
CONTINUOUS
 62
1
 10
141.821095
 20
115.655457
 40
0.500000
 50
174.602251
 51
270.000000
  0
LINE
  8
ENTITYA19764
  6
CONTINUOUS
 62
1
 10
147.692707
 20
115.608423
 11
147.794211
 21
116.682673
  0
ARC
  8
ENTITYA19764
  6
CONTINUOUS
 62
1
 10
147.194924
 20
115.655457
 40
0.500000
 50
270.000000
 51
354.602251
  0
ARC
  8
ENTITYA19764
  6
CONTINUOUS
 62
1
 10
147.296428
 20
116.729708
 40
0.500000
 50
354.602251
 51
84.516410
  0
LINE
  8
ENTITYA19764
  6
CONTINUOUS
 62
1
 10
142.345598
 20
116.434951
 11
146.898816
 21
116.219429
  0
LINE
  8
ENTITYA19764
  6
CONTINUOUS
 62
1
 10
136.644925
 20
115.155457
 11
138.590457
 21
118.048580
  0
LINE
  8
ENTITYA19764
  6
DASHED
 62
1
 10
156.050457
 20
98.248580
 11
151.290457
 21
98.248580
  0
LINE
  8
ENTITYA19764
  6
CONTINUOUS
 62
1
 10
137.214178
 20
115.155457
 11
137.214178
 21
116.001970
  0
LINE
  8
ENTITYA19764
  6
CONTINUOUS
 62
1
 10
71.032240
 20
100.201567
 11
75.232240
 21
100.201567
  0
ARC
  8
ENTITYA19764
  6
CONTINUOUS
 62
1
 10
71.472449
 20
94.277237
 40
5.940662
 50
50.736266
 51
94.249569
  0
LINE
  8
ENTITYA19764
  6
CONTINUOUS
 62
1
 10
75.232240
 20
99.201567
 11
74.795466
 21
99.201567
  0
LINE
  8
ENTITYA19764
  6
CONTINUOUS
 62
1
 10
75.232240
 20
101.201567
 11
71.032240
 21
101.201567
  0
LINE
  8
ENTITYA19764
  6
CONTINUOUS
 62
1
 10
71.032240
 20
102.201567
 11
75.232240
 21
102.201567
  0
LINE
  8
ENTITYA19764
  6
CONTINUOUS
 62
1
 10
75.232240
 20
103.201567
 11
71.032240
 21
103.201567
  0
LINE
  8
ENTITYA19764
  6
CONTINUOUS
 62
1
 10
71.032240
 20
104.201567
 11
75.232240
 21
104.201567
  0
LINE
  8
ENTITYA19764
  6
RANDOM
 62
1
 10
75.232240
 20
105.201567
 11
71.032240
 21
105.201567
  0
LINE
  8
ENTITYA19764
  6
CONTINUOUS
 62
1
 10
72.032240
 20
100.201567
 11
72.032240
 21
105.201567
  0
LINE
  8
ENTITYA19764
  6
CONTINUOUS
 62
1
 10
73.032240
 20
105.201567
 11
73.032240
 21
100.009472
  0
LINE
  8
ENTITYA19764
  6
CONTINUOUS
 62
1
 10
74.032240
 20
99.638108
 11
74.032240
 21
105.201567
  0
LINE
  8
ENTITYA19764
  6
CONTINUOUS
 62
1
 10
151.290457
 20
108.805457
 11
147.085243
 21
108.805457
  0
ARC
  8
ENTITYA19764
  6
CONTINUOUS
 62
1
 10
147.526475
 20
104.904335
 40
3.925995
 50
16.517435
 51
96.452944
  0
LINE
  8
ENTITYA19764
  6
CONTINUOUS
 62
1
 10
147.085243
 20
109.805457
 11
151.290457
 21
109.805457
  0
LINE
  8
ENTITYA19764
  6
CONTINUOUS
 62
1
 10
151.290457
 20
110.805457
 11
147.085243
 21
110.805457
  0
LINE
  8
ENTITYA19764
  6
CONTINUOUS
 62
1
 10
147.085243
 20
111.805457
 11
151.290457
 21
111.805457
  0
LINE
  8
ENTITYA19764
  6
RANDOM
 62
1
 10
151.290457
 20
112.805457
 11
147.085243
 21
112.805457
  0
LINE
  8
ENTITYA19764
  6
CONTINUOUS
 62
1
 10
150.171646
 20
107.805457
 11
151.290457
 21
107.805457
  0
LINE
  8
ENTITYA19764
  6
CONTINUOUS
 62
1
 10
150.085243
 20
107.881942
 11
150.085243
 21
112.805457
  0
LINE
  8
ENTITYA19764
  6
CONTINUOUS
 62
1
 10
149.085243
 20
112.805457
 11
149.085243
 21
108.507623
  0
LINE
  8
ENTITYA19764
  6
CONTINUOUS
 62
1
 10
148.085243
 20
108.790364
 11
148.085243
 21
112.805457
  0
LINE
  8
ENTITYA19764
  6
CONTINUOUS
 62
1
 10
221.857864
 20
99.711080
 11
225.857864
 21
99.711080
  0
LINE
  8
ENTITYA19764
  6
CONTINUOUS
 62
1
 10
221.857864
 20
99.711080
 11
225.857864
 21
99.711080
  0
ARC
  8
ENTITYA19764
  6
CONTINUOUS
 62
1
 10
222.298073
 20
93.786750
 40
5.940662
 50
53.185612
 51
94.249569
  0
LINE
  8
ENTITYA19764
  6
CONTINUOUS
 62
1
 10
225.857864
 20
98.711080
 11
225.621090
 21
98.711080
  0
LINE
  8
ENTITYA19764
  6
CONTINUOUS
 62
1
 10
225.857864
 20
100.711080
 11
221.857864
 21
100.711080
  0
LINE
  8
ENTITYA19764
  6
CONTINUOUS
 62
1
 10
221.857864
 20
101.711080
 11
225.857864
 21
101.711080
  0
LINE
  8
ENTITYA19764
  6
CONTINUOUS
 62
1
 10
225.857864
 20
102.711080
 11
221.857864
 21
102.711080
  0
LINE
  8
ENTITYA19764
  6
CONTINUOUS
 62
1
 10
221.857864
 20
103.711080
 11
225.857864
 21
103.711080
  0
LINE
  8
ENTITYA19764
  6
RANDOM
 62
1
 10
225.857864
 20
104.711080
 11
221.857864
 21
104.711080
  0
LINE
  8
ENTITYA19764
  6
CONTINUOUS
 62
1
 10
222.857864
 20
99.711080
 11
222.857864
 21
104.711080
  0
LINE
  8
ENTITYA19764
  6
CONTINUOUS
 62
1
 10
223.857864
 20
104.711080
 11
223.857864
 21
99.518985
  0
LINE
  8
ENTITYA19764
  6
CONTINUOUS
 62
1
 10
224.857864
 20
99.147621
 11
224.857864
 21
104.711080
  0
TEXT
  8
ENTITYA19764
  6
CONTINUOUS
 62
1
 10
262.129284
 20
36.255529
 40
2.500000
  1
5/8" IGU
 50
90.000000
 41
1.000000
 51
0.000000
  7
STANDARD
  0
LINE
  8
ENTITYA19764
  6
CONTINUOUS
 62
1
 10
263.379284
 20
55.786779
 11
263.379284
 21
35.786779
  0
TEXT
  8
ENTITYA19764
  6
CONTINUOUS
 62
1
 10
267.129284
 20
27.505529
 40
2.500000
  1
WITH SOLID BEAD
 50
90.000000
 41
1.000000
 51
0.000000
  7
STANDARD
  0
LINE
  8
ENTITYA19764
  6
CONTINUOUS
 62
1
 10
268.379284
 20
64.536779
 11
268.379284
 21
27.036779
  0
TEXT
  8
ENTITYA19764
  6
CONTINUOUS
 62
1
 10
272.129284
 20
27.505529
 40
2.500000
  1
GLAZE OUT SHOWN
 50
90.000000
 41
1.000000
 51
0.000000
  7
STANDARD
  0
LINE
  8
ENTITYA19764
  6
CONTINUOUS
 62
1
 10
273.379284
 20
64.536779
 11
273.379284
 21
27.036779
  0
TEXT
  8
ENTITYA19764
  6
CONTINUOUS
 62
1
 10
277.129284
 20
13.755529
 40
2.500000
  1
SEE D3 FOR GLAZE IN DETAIL
 50
90.000000
 41
1.000000
 51
0.000000
  7
STANDARD
  0
LINE
  8
ENTITYA19764
  6
CONTINUOUS
 62
1
 10
278.379284
 20
78.286779
 11
278.379284
 21
13.286779
  0
TEXT
  8
ENTITYA19764
  6
CONTINUOUS
 62
1
 10
53.505109
 20
138.469401
 40
3.000000
  1
5/8" IGU
 50
90.000000
 41
1.000000
 51
0.000000
  7
STANDARD
  0
TEXT
  8
ENTITYA19764
  6
CONTINUOUS
 62
1
 10
69.324548
 20
138.469401
 40
3.000000
  1
PRESHIMMED .090" TAPE
 50
90.000000
 41
1.000000
 51
0.000000
  7
STANDARD
  0
TEXT
  8
ENTITYA19764
  6
CONTINUOUS
 62
1
 10
75.324548
 20
138.469401
 40
3.000000
  1
CAPPED WITH BLACK
 50
90.000000
 41
1.000000
 51
0.000000
  7
STANDARD
  0
TEXT
  8
ENTITYA19764
  6
CONTINUOUS
 62
1
 10
81.324548
 20
138.469401
 40
3.000000
  1
SILICONE CAULKING
 50
90.000000
 41
1.000000
 51
0.000000
  7
STANDARD
  0
TEXT
  8
ENTITYA19764
  6
CONTINUOUS
 62
1
 10
96.192081
 20
138.469401
 40
3.000000
  1
SILICONE HEEL BEAD &
 50
90.000000
 41
1.000000
 51
0.000000
  7
STANDARD
  0
TEXT
  8
ENTITYA19764
  6
CONTINUOUS
 62
1
 10
102.192081
 20
138.469401
 40
3.000000
  1
SETTING BLOCKS
 50
90.000000
 41
1.000000
 51
0.000000
  7
STANDARD
  0
TEXT
  8
ENTITYA19764
  6
CONTINUOUS
 62
1
 10
74.904044
 20
13.259772
 40
3.000000
  1
11931 SECTION BEAD &
 50
90.000000
 41
1.000000
 51
0.000000
  7
STANDARD
  0
TEXT
  8
ENTITYA19764
  6
CONTINUOUS
 62
1
 10
80.904044
 20
13.259772
 40
3.000000
  1
74.0188.50 BEAD SCREW
 50
90.000000
 41
1.000000
 51
0.000000
  7
STANDARD
  0
TEXT
  8
ENTITYA19764
  6
CONTINUOUS
 62
1
 10
53.391058
 20
13.259772
 40
3.000000
  1
11338 VISION STRIP
 50
90.000000
 41
1.000000
 51
0.000000
  7
STANDARD
  0
TEXT
  8
ENTITYA19764
  6
CONTINUOUS
 62
1
 10
59.391058
 20
13.259772
 40
3.000000
  1
(CODE RED)       
 50
90.000000
 41
1.000000
 51
0.000000
  7
STANDARD
  0
TEXT
  8
ENTITYA19764
  6
CONTINUOUS
 62
1
 10
102.278788
 20
32.992815
 40
2.500000
  1
5/8" IGU
 50
90.000000
 41
1.000000
 51
0.000000
  7
STANDARD
  0
LINE
  8
ENTITYA19764
  6
CONTINUOUS
 62
1
 10
103.528788
 20
52.524065
 11
103.528788
 21
32.524065
  0
TEXT
  8
ENTITYA19764
  6
CONTINUOUS
 62
1
 10
107.278788
 20
24.242815
 40
2.500000
  1
GLAZE OUT SHOWN
 50
90.000000
 41
1.000000
 51
0.000000
  7
STANDARD
  0
LINE
  8
ENTITYA19764
  6
CONTINUOUS
 62
1
 10
108.528788
 20
61.274065
 11
108.528788
 21
23.774065
  0
TEXT
  8
ENTITYA19764
  6
CONTINUOUS
 62
1
 10
112.278788
 20
10.492815
 40
2.500000
  1
SEE D3 FOR GLAZE IN DETAIL
 50
90.000000
 41
1.000000
 51
0.000000
  7
STANDARD
  0
LINE
  8
ENTITYA19764
  6
CONTINUOUS
 62
1
 10
113.528788
 20
75.024065
 11
113.528788
 21
10.024065
  0
LINE
  8
ENTITYA19764
  6
CONTINUOUS
 62
1
 10
53.987577
 20
136.538745
 11
56.246011
 21
118.048580
  0
LINE
  8
ENTITYA19764
  6
CONTINUOUS
 62
1
 10
56.317993
 20
121.583881
 11
55.325229
 21
121.462624
  0
LINE
  8
ENTITYA19764
  6
CONTINUOUS
 62
1
 10
55.325229
 20
121.462624
 11
56.246011
 21
118.048580
  0
LINE
  8
ENTITYA19764
  6
CONTINUOUS
 62
1
 10
56.246011
 20
118.048580
 11
56.317993
 21
121.583881
  0
LINE
  8
ENTITYA19764
  6
CONTINUOUS
 62
1
 10
72.705518
 20
136.488550
 11
67.837213
 21
117.558502
  0
LINE
  8
ENTITYA19764
  6
CONTINUOUS
 62
1
 10
69.193266
 20
120.823833
 11
68.224732
 21
121.072915
  0
LINE
  8
ENTITYA19764
  6
CONTINUOUS
 62
1
 10
68.224732
 20
121.072915
 11
67.837213
 21
117.558502
  0
LINE
  8
ENTITYA19764
  6
CONTINUOUS
 62
1
 10
67.837213
 20
117.558502
 11
69.193266
 21
120.823833
  0
LINE
  8
ENTITYA19764
  6
CONTINUOUS
 62
1
 10
93.080601
 20
136.938000
 11
73.132240
 21
115.392634
  0
LINE
  8
ENTITYA19764
  6
CONTINUOUS
 62
1
 10
75.877007
 20
117.621179
 11
75.143224
 21
118.300572
  0
LINE
  8
ENTITYA19764
  6
CONTINUOUS
 62
1
 10
75.143224
 20
118.300572
 11
73.132240
 21
115.392634
  0
LINE
  8
ENTITYA19764
  6
CONTINUOUS
 62
1
 10
73.132240
 20
115.392634
 11
75.877007
 21
117.621179
  0
LINE
  8
ENTITYA19764
  6
CONTINUOUS
 62
1
 10
53.508374
 20
66.369620
 11
60.331346
 21
98.186116
  0
LINE
  8
ENTITYA19764
  6
CONTINUOUS
 62
1
 10
59.108425
 20
94.868357
 11
60.086315
 21
94.658650
  0
LINE
  8
ENTITYA19764
  6
CONTINUOUS
 62
1
 10
60.086315
 20
94.658650
 11
60.331346
 21
98.186116
  0
LINE
  8
ENTITYA19764
  6
CONTINUOUS
 62
1
 10
60.331346
 20
98.186116
 11
59.108425
 21
94.868357
  0
LINE
  8
ENTITYA19764
  6
CONTINUOUS
 62
1
 10
73.920605
 20
73.469527
 11
70.862255
 21
90.701567
  0
LINE
  8
ENTITYA19764
  6
CONTINUOUS
 62
1
 10
70.981572
 20
87.168045
 11
71.966185
 21
87.342794
  0
LINE
  8
ENTITYA19764
  6
CONTINUOUS
 62
1
 10
71.966185
 20
87.342794
 11
70.862255
 21
90.701567
  0
LINE
  8
ENTITYA19764
  6
CONTINUOUS
 62
1
 10
70.862255
 20
90.701567
 11
70.981572
 21
87.168045
  0
TEXT
  8
ENTITYA19764
  6
CONTINUOUS
 62
1
 10
151.872251
 20
13.462594
 40
3.000000
  1
11929 SECTION BEAD &
 50
90.000000
 41
1.000000
 51
0.000000
  7
STANDARD
  0
TEXT
  8
ENTITYA19764
  6
CONTINUOUS
 62
1
 10
157.872251
 20
13.462594
 40
3.000000
  1
74.0188.50 BEAD SCREW
 50
90.000000
 41
1.000000
 51
0.000000
  7
STANDARD
  0
TEXT
  8
ENTITYA19764
  6
CONTINUOUS
 62
1
 10
137.894576
 20
13.462594
 40
3.000000
  1
VISION STRIP                   
 50
90.000000
 41
1.000000
 51
0.000000
  7
STANDARD
  0
TEXT
  8
ENTITYA19764
  6
CONTINUOUS
 62
1
 10
145.817453
 20
138.742476
 40
3.000000
  1
PRESHIMMED TAPE
 50
90.000000
 41
1.000000
 51
0.000000
  7
STANDARD
  0
TEXT
  8
ENTITYA19764
  6
CONTINUOUS
 62
1
 10
151.817453
 20
138.742476
 40
3.000000
  1
CAPPED WITH BLACK
 50
90.000000
 41
1.000000
 51
0.000000
  7
STANDARD
  0
TEXT
  8
ENTITYA19764
  6
CONTINUOUS
 62
1
 10
157.817453
 20
138.742476
 40
3.000000
  1
SILICONE CAULKING
 50
90.000000
 41
1.000000
 51
0.000000
  7
STANDARD
  0
TEXT
  8
ENTITYA19764
  6
CONTINUOUS
 62
1
 10
132.529036
 20
138.742476
 40
3.000000
  1
1/4" GLASS
 50
90.000000
 41
1.000000
 51
0.000000
  7
STANDARD
  0
TEXT
  8
ENTITYA19764
  6
CONTINUOUS
 62
1
 10
177.982637
 20
149.023527
 40
2.500000
  1
SINGLE GLASS
 50
90.000000
 41
1.000000
 51
0.000000
  7
STANDARD
  0
LINE
  8
ENTITYA19764
  6
CONTINUOUS
 62
1
 10
179.232637
 20
178.554777
 11
179.232637
 21
148.554777
  0
TEXT
  8
ENTITYA19764
  6
CONTINUOUS
 62
1
 10
182.982637
 20
145.273527
 40
2.500000
  1
GLAZE OUT SHOWN
 50
90.000000
 41
1.000000
 51
0.000000
  7
STANDARD
  0
LINE
  8
ENTITYA19764
  6
CONTINUOUS
 62
1
 10
184.232637
 20
182.304777
 11
184.232637
 21
144.804777
  0
TEXT
  8
ENTITYA19764
  6
CONTINUOUS
 62
1
 10
187.982637
 20
131.523527
 40
2.500000
  1
SEE D3 FOR GLAZE IN DETAIL
 50
90.000000
 41
1.000000
 51
0.000000
  7
STANDARD
  0
LINE
  8
ENTITYA19764
  6
CONTINUOUS
 62
1
 10
189.232637
 20
196.054777
 11
189.232637
 21
131.054777
  0
LINE
  8
ENTITYA19764
  6
CONTINUOUS
 62
1
 10
146.391517
 20
137.182616
 11
143.662138
 21
117.580898
  0
LINE
  8
ENTITYA19764
  6
CONTINUOUS
 62
1
 10
144.640051
 20
120.978501
 11
143.649605
 21
121.116413
  0
LINE
  8
ENTITYA19764
  6
CONTINUOUS
 62
1
 10
143.649605
 20
121.116413
 11
143.662138
 21
117.580898
  0
LINE
  8
ENTITYA19764
  6
CONTINUOUS
 62
1
 10
143.662138
 20
117.580898
 11
144.640051
 21
120.978501
  0
LINE
  8
ENTITYA19764
  6
CONTINUOUS
 62
1
 10
133.117383
 20
137.906660
 11
133.358731
 21
115.155457
  0
LINE
  8
ENTITYA19764
  6
CONTINUOUS
 62
1
 10
133.821604
 20
118.660761
 11
132.821604
 21
118.650154
  0
LINE
  8
ENTITYA19764
  6
CONTINUOUS
 62
1
 10
132.821604
 20
118.650154
 11
133.358731
 21
115.155457
  0
LINE
  8
ENTITYA19764
  6
CONTINUOUS
 62
1
 10
133.358731
 20
115.155457
 11
133.821604
 21
118.660761
  0
LINE
  8
ENTITYA19764
  6
CONTINUOUS
 62
1
 10
137.702993
 20
49.573333
 11
137.871359
 21
104.647125
  0
LINE
  8
ENTITYA19764
  6
CONTINUOUS
 62
1
 10
137.360605
 20
101.148308
 11
138.360704
 21
101.145249
  0
LINE
  8
ENTITYA19764
  6
CONTINUOUS
 62
1
 10
138.360704
 20
101.145249
 11
137.871359
 21
104.647125
  0
LINE
  8
ENTITYA19764
  6
CONTINUOUS
 62
1
 10
137.871359
 20
104.647125
 11
137.360605
 21
101.148308
  0
LINE
  8
ENTITYA19764
  6
CONTINUOUS
 62
1
 10
150.253083
 20
73.949470
 11
147.347042
 21
96.955457
  0
LINE
  8
ENTITYA19764
  6
CONTINUOUS
 62
1
 10
147.289606
 20
93.420369
 11
148.281728
 21
93.545690
  0
LINE
  8
ENTITYA19764
  6
CONTINUOUS
 62
1
 10
148.281728
 20
93.545690
 11
147.347042
 21
96.955457
  0
LINE
  8
ENTITYA19764
  6
CONTINUOUS
 62
1
 10
147.347042
 20
96.955457
 11
147.289606
 21
93.420369
  0
LINE
  8
ENTITYA19764
  6
CONTINUOUS
 62
1
 10
169.319566
 20
72.018687
 11
150.253083
 21
107.979522
  0
LINE
  8
ENTITYA19764
  6
CONTINUOUS
 62
1
 10
151.451001
 20
104.652616
 11
152.334618
 21
105.121109
  0
LINE
  8
ENTITYA19764
  6
CONTINUOUS
 62
1
 10
152.334618
 20
105.121109
 11
150.253083
 21
107.979522
  0
LINE
  8
ENTITYA19764
  6
CONTINUOUS
 62
1
 10
150.253083
 20
107.979522
 11
151.451001
 21
104.652616
  0
TEXT
  8
ENTITYA19764
  6
CONTINUOUS
 62
1
 10
242.264664
 20
138.894999
 40
3.000000
  1
PRESHIMMED
 50
90.000000
 41
1.000000
 51
0.000000
  7
STANDARD
  0
TEXT
  8
ENTITYA19764
  6
CONTINUOUS
 62
1
 10
248.264664
 20
138.894999
 40
3.000000
  1
.090" TAPE
 50
90.000000
 41
1.000000
 51
0.000000
  7
STANDARD
  0
TEXT
  8
ENTITYA19764
  6
CONTINUOUS
 62
1
 10
254.264664
 20
138.894999
 40
3.000000
  1
CAPPED WITH
 50
90.000000
 41
1.000000
 51
0.000000
  7
STANDARD
  0
TEXT
  8
ENTITYA19764
  6
CONTINUOUS
 62
1
 10
260.264664
 20
138.894999
 40
3.000000
  1
BLACK SILICONE 
 50
90.000000
 41
1.000000
 51
0.000000
  7
STANDARD
  0
TEXT
  8
ENTITYA19764
  6
CONTINUOUS
 62
1
 10
266.264664
 20
138.894999
 40
3.000000
  1
CAULKING
 50
90.000000
 41
1.000000
 51
0.000000
  7
STANDARD
  0
TEXT
  8
ENTITYA19764
  6
CONTINUOUS
 62
1
 10
214.265445
 20
138.894999
 40
3.000000
  1
5/8" IGU
 50
90.000000
 41
1.000000
 51
0.000000
  7
STANDARD
  0
TEXT
  8
ENTITYA19764
  6
CONTINUOUS
 62
1
 10
243.637175
 20
11.587438
 40
3.000000
  1
SILICONE HEEL BEAD &
 50
90.000000
 41
1.000000
 51
0.000000
  7
STANDARD
  0
TEXT
  8
ENTITYA19764
  6
CONTINUOUS
 62
1
 10
249.637175
 20
11.587438
 40
3.000000
  1
SETTING BLOCKS
 50
90.000000
 41
1.000000
 51
0.000000
  7
STANDARD
  0
TEXT
  8
ENTITYA19764
  6
CONTINUOUS
 62
1
 10
210.422415
 20
11.587438
 40
3.000000
  1
1/2" x 1/4" SOLID
 50
90.000000
 41
1.000000
 51
0.000000
  7
STANDARD
  0
TEXT
  8
ENTITYA19764
  6
CONTINUOUS
 62
1
 10
216.422415
 20
11.587438
 40
3.000000
  1
ALUMINIUM BEAD
 50
90.000000
 41
1.000000
 51
0.000000
  7
STANDARD
  0
TEXT
  8
ENTITYA19764
  6
CONTINUOUS
 62
1
 10
222.422415
 20
11.587438
 40
3.000000
  1
& STEEL SCREW 
 50
90.000000
 41
1.000000
 51
0.000000
  7
STANDARD
  0
LINE
  8
ENTITYA19764
  6
CONTINUOUS
 62
1
 10
210.971419
 20
62.035757
 11
218.931981
 21
91.248580
  0
LINE
  8
ENTITYA19764
  6
CONTINUOUS
 62
1
 10
217.529243
 20
88.002889
 11
218.494146
 21
87.739950
  0
LINE
  8
ENTITYA19764
  6
CONTINUOUS
 62
1
 10
218.494146
 20
87.739950
 11
218.931981
 21
91.248580
  0
LINE
  8
ENTITYA19764
  6
CONTINUOUS
 62
1
 10
218.931981
 20
91.248580
 11
217.529243
 21
88.002889
  0
LINE
  8
ENTITYA19764
  6
CONTINUOUS
 62
1
 10
239.794145
 20
71.094329
 11
225.857864
 21
99.711080
  0
LINE
  8
ENTITYA19764
  6
CONTINUOUS
 62
1
 10
226.940915
 20
96.344991
 11
227.840098
 21
96.782889
  0
LINE
  8
ENTITYA19764
  6
CONTINUOUS
 62
1
 10
227.840098
 20
96.782889
 11
225.857864
 21
99.711080
  0
LINE
  8
ENTITYA19764
  6
CONTINUOUS
 62
1
 10
225.857864
 20
99.711080
 11
226.940915
 21
96.344991
  0
LINE
  8
ENTITYA19764
  6
CONTINUOUS
 62
1
 10
212.579778
 20
137.335420
 11
209.577791
 21
115.586080
  0
LINE
  8
ENTITYA19764
  6
CONTINUOUS
 62
1
 10
210.551654
 20
118.984854
 11
209.561043
 21
119.121585
  0
LINE
  8
ENTITYA19764
  6
CONTINUOUS
 62
1
 10
209.561043
 20
119.121585
 11
209.577791
 21
115.586080
  0
LINE
  8
ENTITYA19764
  6
CONTINUOUS
 62
1
 10
209.577791
 20
115.586080
 11
210.551654
 21
118.984854
  0
LINE
  8
ENTITYA19764
  6
CONTINUOUS
 62
1
 10
238.847165
 20
137.585586
 11
220.316500
 21
117.380551
  0
LINE
  8
ENTITYA19764
  6
CONTINUOUS
 62
1
 10
223.050773
 20
119.622115
 11
222.313764
 21
120.298048
  0
LINE
  8
ENTITYA19764
  6
CONTINUOUS
 62
1
 10
222.313764
 20
120.298048
 11
220.316500
 21
117.380551
  0
LINE
  8
ENTITYA19764
  6
CONTINUOUS
 62
1
 10
220.316500
 20
117.380551
 11
223.050773
 21
119.622115
  0
ENDSEC
  0
EOF
