  0
SECTION
  2
HEADER
  9
$LIMMIN
 10
0.000000
 20
0.000000
  9
$LIMMAX
 10
297.301779
 20
210.224104
  9
$EXTMIN
 10
0.000000
 20
0.000000
  9
$EXTMAX
 10
297.301779
 20
210.224104
  9
$ANGBASE
 50
0.0
  9
$ANGDIR
 70
0
  9
$DIMRND
 40
0.000010
  9
$DIMSE1
 70
0
  9
$DIMSE2
 70
0
  9
$DIMTXT
 40
3.500000
  9
$LTSCALE
 40
1.000000
  9
$LUPREC
 70
3
  9
$AUPREC
 70
3
  9
$PDMODE
 70
2
  9
$PDSIZE
 40
1.486509
  0
ENDSEC
  0
SECTION
  2
TABLES
  0
TABLE
  2
VPORT
  70
1
  0
VPORT
  2
*ACTIVE
 70
0
  10
0.0
 20
0.0
 11
1.0
 21
1.0
 12
594.0
 22
420.0
 13
0.0
 23
0.0
 14
10.0
 24
10.0
 15
10.0
 25
10.0
 16
0.0
 26
0.0
 36
1.0
 17
594.0
 27
420.0
 37
100.0
 40
1000.0
 41
1.0
 42
50.0
 43
0.0
 44
0.0
 50
0.0
 51
0.0
 71
0
 72
2000
 73
1
 74
3
 75
0
 76
0
 77
0
 78
1
  0
ENDTAB
  0
TABLE
  2
LTYPE
 70
4
  0
LTYPE
  2
CONTINUOUS
 70
0
  3
Solid line
 72
65
 73
0
 40
0.0
  0
LTYPE
  2
DASHED
 70
0
  3
Dashed line
 72
65
 73
2
 40
6.000000
 49
3.000000
 49
-3.000000
  0
LTYPE
  2
CENTER
 70
0
  3
Chain line
 72
65
 73
4
 40
24.000000
 49
15.000000
 49
-3.000000
 49
3.000000
 49
-3.000000
  0
LTYPE
  2
RANDOM
 70
0
  3
Random line
 72
65
 73
4
 40
22.500000
 49
6.000000
 49
-3.000000
 49
4.500000
 49
-9.000000
  0
ENDTAB
  0
TABLE
  2
STYLE
 70
9
  0
STYLE
  2
STANDARD
 40
0
 41
1.0
 50
0.0
 71
0
 42
0
  3
simplex
  4

 70
0
  0
ENDTAB
  0
TABLE
  2
LAYER
 70
2
  0
LAYER
  2
0
 70
0
 62
7
  6
CONTINUOUS
  0
LAYER
  2
ENTITYA19764
 62
1
  6
CONTINUOUS
 70
0
  0
ENDTAB
  0
ENDSEC
  0
SECTION
  2
BLOCKS
  0
ENDSEC
  0
SECTION
  2
ENTITIES
  0
LINE
  8
ENTITYA19764
  6
CONTINUOUS
 62
1
 10
0.000000
 20
0.000000
 11
297.000000
 21
0.000000
  0
LINE
  8
ENTITYA19764
  6
CONTINUOUS
 62
1
 10
297.000000
 20
0.000000
 11
297.000000
 21
210.000000
  0
LINE
  8
ENTITYA19764
  6
CONTINUOUS
 62
1
 10
297.000000
 20
210.000000
 11
0.000000
 21
210.000000
  0
LINE
  8
ENTITYA19764
  6
CONTINUOUS
 62
1
 10
0.000000
 20
210.000000
 11
0.000000
 21
0.000000
  0
CIRCLE
  8
ENTITYA19764
  6
CONTINUOUS
 62
1
 10
292.314963
 20
5.150956
 40
2.537993
  0
TEXT
  8
ENTITYA19764
  6
CONTINUOUS
 62
1
 10
293.314963
 20
4.588456
 40
2.000000
  1
C
 50
90.000000
 41
0.900000
 51
0.000000
  7
STANDARD
  0
TEXT
  8
ENTITYA19764
  6
CONTINUOUS
 62
1
 10
293.314963
 20
9.420802
 40
2.000000
  1
CRITTALL WINDOWS LTD. 2005
 50
90.000000
 41
0.900000
 51
0.000000
  7
STANDARD
  0
LINE
  8
ENTITYA19764
  6
CONTINUOUS
 62
1
 10
21.230951
 20
173.144222
 11
27.002201
 21
173.144222
  0
LINE
  8
ENTITYA19764
  6
CONTINUOUS
 62
1
 10
21.230951
 20
187.957097
 11
27.002201
 21
187.957097
  0
LINE
  8
ENTITYA19764
  6
CONTINUOUS
 62
1
 10
27.002201
 20
189.111347
 11
22.490133
 21
189.111347
  0
LINE
  8
ENTITYA19764
  6
CONTINUOUS
 62
1
 10
27.002201
 20
171.989972
 11
22.490133
 21
171.989972
  0
LINE
  8
ENTITYA19764
  6
CONTINUOUS
 62
1
 10
16.036826
 20
183.195815
 11
16.036826
 21
177.905503
  0
LINE
  8
ENTITYA19764
  6
CONTINUOUS
 62
1
 10
17.191076
 20
176.847440
 11
17.191076
 21
179.973534
  0
LINE
  8
ENTITYA19764
  6
CONTINUOUS
 62
1
 10
17.191076
 20
181.127784
 11
17.191076
 21
184.253878
  0
LINE
  8
ENTITYA19764
  6
CONTINUOUS
 62
1
 10
16.036826
 20
177.905503
 11
13.151201
 21
180.550659
  0
LINE
  8
ENTITYA19764
  6
CONTINUOUS
 62
1
 10
27.002201
 20
167.853909
 11
22.490133
 21
171.989972
  0
LINE
  8
ENTITYA19764
  6
CONTINUOUS
 62
1
 10
20.076701
 20
174.202284
 11
17.191076
 21
176.847440
  0
LINE
  8
ENTITYA19764
  6
CONTINUOUS
 62
1
 10
22.490133
 20
189.111347
 11
27.002201
 21
193.247409
  0
LINE
  8
ENTITYA19764
  6
CONTINUOUS
 62
1
 10
13.151201
 20
180.550659
 11
16.036826
 21
183.195815
  0
LINE
  8
ENTITYA19764
  6
CONTINUOUS
 62
1
 10
17.191076
 20
184.253878
 11
20.076701
 21
186.899034
  0
LINE
  8
ENTITYA19764
  6
CONTINUOUS
 62
1
 10
27.002201
 20
171.989972
 11
27.002201
 21
167.853909
  0
LINE
  8
ENTITYA19764
  6
CONTINUOUS
 62
1
 10
27.002201
 20
179.973534
 11
27.002201
 21
173.144222
  0
LINE
  8
ENTITYA19764
  6
CONTINUOUS
 62
1
 10
27.002201
 20
193.247409
 11
27.002201
 21
189.111347
  0
LINE
  8
ENTITYA19764
  6
CONTINUOUS
 62
1
 10
27.002201
 20
187.957097
 11
27.002201
 21
181.127784
  0
LINE
  8
ENTITYA19764
  6
CONTINUOUS
 62
1
 10
27.002201
 20
179.973534
 11
21.230951
 21
179.973534
  0
LINE
  8
ENTITYA19764
  6
CONTINUOUS
 62
1
 10
20.076701
 20
179.973534
 11
17.191076
 21
179.973534
  0
LINE
  8
ENTITYA19764
  6
CONTINUOUS
 62
1
 10
27.002201
 20
181.127784
 11
21.230951
 21
181.127784
  0
LINE
  8
ENTITYA19764
  6
CONTINUOUS
 62
1
 10
20.076701
 20
181.127784
 11
17.191076
 21
181.127784
  0
LINE
  8
ENTITYA19764
  6
CONTINUOUS
 62
1
 10
20.076701
 20
186.899034
 11
20.076701
 21
181.127784
  0
LINE
  8
ENTITYA19764
  6
CONTINUOUS
 62
1
 10
20.076701
 20
179.973534
 11
20.076701
 21
174.202284
  0
LINE
  8
ENTITYA19764
  6
CONTINUOUS
 62
1
 10
21.230951
 20
173.144222
 11
21.230951
 21
179.973534
  0
LINE
  8
ENTITYA19764
  6
CONTINUOUS
 62
1
 10
21.230951
 20
181.127784
 11
21.230951
 21
187.957097
  0
LINE
  8
ENTITYA19764
  6
CONTINUOUS
 62
1
 10
15.805976
 20
178.117115
 11
15.805976
 21
182.984203
  0
LINE
  8
ENTITYA19764
  6
CONTINUOUS
 62
1
 10
15.575126
 20
182.772590
 11
15.575126
 21
178.328728
  0
LINE
  8
ENTITYA19764
  6
CONTINUOUS
 62
1
 10
15.344276
 20
178.540340
 11
15.344276
 21
182.560978
  0
LINE
  8
ENTITYA19764
  6
CONTINUOUS
 62
1
 10
15.113426
 20
182.349365
 11
15.113426
 21
178.751953
  0
LINE
  8
ENTITYA19764
  6
CONTINUOUS
 62
1
 10
14.882576
 20
178.963565
 11
14.882576
 21
182.137753
  0
LINE
  8
ENTITYA19764
  6
CONTINUOUS
 62
1
 10
14.651726
 20
181.926140
 11
14.651726
 21
179.175178
  0
LINE
  8
ENTITYA19764
  6
CONTINUOUS
 62
1
 10
14.420876
 20
179.386790
 11
14.420876
 21
181.714528
  0
LINE
  8
ENTITYA19764
  6
CONTINUOUS
 62
1
 10
14.190026
 20
181.502915
 11
14.190026
 21
179.598403
  0
LINE
  8
ENTITYA19764
  6
CONTINUOUS
 62
1
 10
13.959176
 20
179.810015
 11
13.959176
 21
181.291303
  0
LINE
  8
ENTITYA19764
  6
CONTINUOUS
 62
1
 10
13.728326
 20
181.079690
 11
13.728326
 21
180.021628
  0
LINE
  8
ENTITYA19764
  6
CONTINUOUS
 62
1
 10
13.497476
 20
180.233240
 11
13.497476
 21
180.868078
  0
LINE
  8
ENTITYA19764
  6
CONTINUOUS
 62
1
 10
13.266626
 20
180.656465
 11
13.266626
 21
180.444853
  0
LINE
  8
ENTITYA19764
  6
CONTINUOUS
 62
1
 10
26.540501
 20
173.144222
 11
26.540501
 21
179.973534
  0
LINE
  8
ENTITYA19764
  6
CONTINUOUS
 62
1
 10
26.078801
 20
179.973534
 11
26.078801
 21
173.144222
  0
LINE
  8
ENTITYA19764
  6
CONTINUOUS
 62
1
 10
25.617101
 20
173.144222
 11
25.617101
 21
179.973534
  0
LINE
  8
ENTITYA19764
  6
CONTINUOUS
 62
1
 10
25.155401
 20
179.973534
 11
25.155401
 21
173.144222
  0
LINE
  8
ENTITYA19764
  6
CONTINUOUS
 62
1
 10
24.693701
 20
173.144222
 11
24.693701
 21
179.973534
  0
LINE
  8
ENTITYA19764
  6
CONTINUOUS
 62
1
 10
24.232001
 20
179.973534
 11
24.232001
 21
173.144222
  0
LINE
  8
ENTITYA19764
  6
CONTINUOUS
 62
1
 10
23.770301
 20
173.144222
 11
23.770301
 21
179.973534
  0
LINE
  8
ENTITYA19764
  6
CONTINUOUS
 62
1
 10
23.308601
 20
179.973534
 11
23.308601
 21
173.144222
  0
LINE
  8
ENTITYA19764
  6
CONTINUOUS
 62
1
 10
22.846901
 20
173.144222
 11
22.846901
 21
179.973534
  0
LINE
  8
ENTITYA19764
  6
CONTINUOUS
 62
1
 10
22.385201
 20
179.973534
 11
22.385201
 21
173.144222
  0
LINE
  8
ENTITYA19764
  6
CONTINUOUS
 62
1
 10
21.923501
 20
173.144222
 11
21.923501
 21
179.973534
  0
LINE
  8
ENTITYA19764
  6
CONTINUOUS
 62
1
 10
21.461801
 20
179.973534
 11
21.461801
 21
173.144222
  0
LINE
  8
ENTITYA19764
  6
CONTINUOUS
 62
1
 10
26.540501
 20
181.127784
 11
26.540501
 21
187.957097
  0
LINE
  8
ENTITYA19764
  6
CONTINUOUS
 62
1
 10
26.078801
 20
187.957097
 11
26.078801
 21
181.127784
  0
LINE
  8
ENTITYA19764
  6
CONTINUOUS
 62
1
 10
25.617101
 20
181.127784
 11
25.617101
 21
187.957097
  0
LINE
  8
ENTITYA19764
  6
CONTINUOUS
 62
1
 10
25.155401
 20
187.957097
 11
25.155401
 21
181.127784
  0
LINE
  8
ENTITYA19764
  6
CONTINUOUS
 62
1
 10
25.155401
 20
187.957097
 11
25.155401
 21
181.127784
  0
LINE
  8
ENTITYA19764
  6
CONTINUOUS
 62
1
 10
24.693701
 20
181.127784
 11
24.693701
 21
187.957097
  0
LINE
  8
ENTITYA19764
  6
CONTINUOUS
 62
1
 10
24.232001
 20
187.957097
 11
24.232001
 21
181.127784
  0
LINE
  8
ENTITYA19764
  6
CONTINUOUS
 62
1
 10
23.770301
 20
181.127784
 11
23.770301
 21
187.957097
  0
LINE
  8
ENTITYA19764
  6
CONTINUOUS
 62
1
 10
23.308601
 20
187.957097
 11
23.308601
 21
181.127784
  0
LINE
  8
ENTITYA19764
  6
CONTINUOUS
 62
1
 10
22.846901
 20
181.127784
 11
22.846901
 21
187.957097
  0
LINE
  8
ENTITYA19764
  6
CONTINUOUS
 62
1
 10
22.385201
 20
187.957097
 11
22.385201
 21
181.127784
  0
LINE
  8
ENTITYA19764
  6
CONTINUOUS
 62
1
 10
21.923501
 20
181.127784
 11
21.923501
 21
187.957097
  0
LINE
  8
ENTITYA19764
  6
CONTINUOUS
 62
1
 10
21.461801
 20
187.957097
 11
21.461801
 21
181.127784
  0
LINE
  8
ENTITYA19764
  6
CONTINUOUS
 62
1
 10
19.615001
 20
181.127784
 11
19.615001
 21
186.475809
  0
LINE
  8
ENTITYA19764
  6
CONTINUOUS
 62
1
 10
19.153301
 20
186.052584
 11
19.153301
 21
181.127784
  0
LINE
  8
ENTITYA19764
  6
CONTINUOUS
 62
1
 10
18.691601
 20
181.127784
 11
18.691601
 21
185.629359
  0
LINE
  8
ENTITYA19764
  6
CONTINUOUS
 62
1
 10
18.229901
 20
185.206134
 11
18.229901
 21
181.127784
  0
LINE
  8
ENTITYA19764
  6
CONTINUOUS
 62
1
 10
17.768201
 20
181.127784
 11
17.768201
 21
184.782909
  0
LINE
  8
ENTITYA19764
  6
CONTINUOUS
 62
1
 10
17.306501
 20
184.359684
 11
17.306501
 21
181.127784
  0
LINE
  8
ENTITYA19764
  6
CONTINUOUS
 62
1
 10
19.615001
 20
174.625509
 11
19.615001
 21
179.973534
  0
LINE
  8
ENTITYA19764
  6
CONTINUOUS
 62
1
 10
19.153301
 20
179.973534
 11
19.153301
 21
175.048734
  0
LINE
  8
ENTITYA19764
  6
CONTINUOUS
 62
1
 10
18.691601
 20
175.471959
 11
18.691601
 21
179.973534
  0
LINE
  8
ENTITYA19764
  6
CONTINUOUS
 62
1
 10
18.229901
 20
179.973534
 11
18.229901
 21
175.895184
  0
LINE
  8
ENTITYA19764
  6
CONTINUOUS
 62
1
 10
17.768201
 20
176.318409
 11
17.768201
 21
179.973534
  0
LINE
  8
ENTITYA19764
  6
CONTINUOUS
 62
1
 10
17.306501
 20
179.973534
 11
17.306501
 21
176.741634
  0
LINE
  8
ENTITYA19764
  6
CONTINUOUS
 62
1
 10
26.540501
 20
168.277134
 11
26.540501
 21
171.989972
  0
LINE
  8
ENTITYA19764
  6
CONTINUOUS
 62
1
 10
26.078801
 20
171.989972
 11
26.078801
 21
168.700359
  0
LINE
  8
ENTITYA19764
  6
CONTINUOUS
 62
1
 10
25.617101
 20
169.123584
 11
25.617101
 21
171.989972
  0
LINE
  8
ENTITYA19764
  6
CONTINUOUS
 62
1
 10
25.155401
 20
171.989972
 11
25.155401
 21
169.546809
  0
LINE
  8
ENTITYA19764
  6
CONTINUOUS
 62
1
 10
24.693701
 20
169.970034
 11
24.693701
 21
171.989972
  0
LINE
  8
ENTITYA19764
  6
CONTINUOUS
 62
1
 10
24.232001
 20
171.989972
 11
24.232001
 21
170.393259
  0
LINE
  8
ENTITYA19764
  6
CONTINUOUS
 62
1
 10
23.770301
 20
170.816484
 11
23.770301
 21
171.989972
  0
LINE
  8
ENTITYA19764
  6
CONTINUOUS
 62
1
 10
23.308601
 20
171.989972
 11
23.308601
 21
171.239709
  0
LINE
  8
ENTITYA19764
  6
CONTINUOUS
 62
1
 10
22.846901
 20
171.662934
 11
22.846901
 21
171.989972
  0
LINE
  8
ENTITYA19764
  6
CONTINUOUS
 62
1
 10
26.540501
 20
189.111347
 11
26.540501
 21
192.824184
  0
LINE
  8
ENTITYA19764
  6
CONTINUOUS
 62
1
 10
26.078801
 20
192.400959
 11
26.078801
 21
189.111347
  0
LINE
  8
ENTITYA19764
  6
CONTINUOUS
 62
1
 10
25.617101
 20
189.111347
 11
25.617101
 21
191.977734
  0
LINE
  8
ENTITYA19764
  6
CONTINUOUS
 62
1
 10
25.155401
 20
191.554509
 11
25.155401
 21
189.111347
  0
LINE
  8
ENTITYA19764
  6
CONTINUOUS
 62
1
 10
24.693701
 20
189.111347
 11
24.693701
 21
191.131284
  0
LINE
  8
ENTITYA19764
  6
CONTINUOUS
 62
1
 10
24.232001
 20
190.708059
 11
24.232001
 21
189.111347
  0
LINE
  8
ENTITYA19764
  6
CONTINUOUS
 62
1
 10
23.770301
 20
189.111347
 11
23.770301
 21
190.284834
  0
LINE
  8
ENTITYA19764
  6
CONTINUOUS
 62
1
 10
23.308601
 20
189.861609
 11
23.308601
 21
189.111347
  0
LINE
  8
ENTITYA19764
  6
CONTINUOUS
 62
1
 10
22.846901
 20
189.111347
 11
22.846901
 21
189.438384
  0
LINE
  8
ENTITYA19764
  6
CONTINUOUS
 62
1
 10
26.771351
 20
173.144222
 11
26.771351
 21
179.973534
  0
LINE
  8
ENTITYA19764
  6
CONTINUOUS
 62
1
 10
26.309651
 20
179.973534
 11
26.309651
 21
173.144222
  0
LINE
  8
ENTITYA19764
  6
CONTINUOUS
 62
1
 10
25.847951
 20
179.973534
 11
25.847951
 21
173.144222
  0
LINE
  8
ENTITYA19764
  6
CONTINUOUS
 62
1
 10
25.386251
 20
173.144222
 11
25.386251
 21
179.973534
  0
LINE
  8
ENTITYA19764
  6
CONTINUOUS
 62
1
 10
23.077751
 20
173.144222
 11
23.077751
 21
179.973534
  0
LINE
  8
ENTITYA19764
  6
CONTINUOUS
 62
1
 10
22.616051
 20
179.973534
 11
22.616051
 21
173.144222
  0
LINE
  8
ENTITYA19764
  6
CONTINUOUS
 62
1
 10
22.154351
 20
173.144222
 11
22.154351
 21
179.973534
  0
LINE
  8
ENTITYA19764
  6
CONTINUOUS
 62
1
 10
21.692651
 20
179.973534
 11
21.692651
 21
173.144222
  0
LINE
  8
ENTITYA19764
  6
CONTINUOUS
 62
1
 10
23.539451
 20
179.973534
 11
23.539451
 21
173.144222
  0
LINE
  8
ENTITYA19764
  6
CONTINUOUS
 62
1
 10
24.001151
 20
173.144222
 11
24.001151
 21
179.973534
  0
LINE
  8
ENTITYA19764
  6
CONTINUOUS
 62
1
 10
24.462851
 20
179.973534
 11
24.462851
 21
173.144222
  0
LINE
  8
ENTITYA19764
  6
CONTINUOUS
 62
1
 10
24.924551
 20
173.144222
 11
24.924551
 21
179.973534
  0
LINE
  8
ENTITYA19764
  6
CONTINUOUS
 62
1
 10
26.771351
 20
181.127784
 11
26.771351
 21
187.957097
  0
LINE
  8
ENTITYA19764
  6
CONTINUOUS
 62
1
 10
26.309651
 20
187.957097
 11
26.309651
 21
181.127784
  0
LINE
  8
ENTITYA19764
  6
CONTINUOUS
 62
1
 10
21.692651
 20
181.127784
 11
21.692651
 21
187.957097
  0
LINE
  8
ENTITYA19764
  6
CONTINUOUS
 62
1
 10
22.154351
 20
187.957097
 11
22.154351
 21
181.127784
  0
LINE
  8
ENTITYA19764
  6
CONTINUOUS
 62
1
 10
22.616051
 20
187.957097
 11
22.616051
 21
181.127784
  0
LINE
  8
ENTITYA19764
  6
CONTINUOUS
 62
1
 10
23.077751
 20
181.127784
 11
23.077751
 21
187.957097
  0
LINE
  8
ENTITYA19764
  6
CONTINUOUS
 62
1
 10
23.539451
 20
181.127784
 11
23.539451
 21
187.957097
  0
LINE
  8
ENTITYA19764
  6
CONTINUOUS
 62
1
 10
24.001151
 20
181.127784
 11
24.001151
 21
187.957097
  0
LINE
  8
ENTITYA19764
  6
CONTINUOUS
 62
1
 10
24.462851
 20
181.127784
 11
24.462851
 21
187.957097
  0
LINE
  8
ENTITYA19764
  6
CONTINUOUS
 62
1
 10
24.924551
 20
187.957097
 11
24.924551
 21
181.127784
  0
LINE
  8
ENTITYA19764
  6
CONTINUOUS
 62
1
 10
25.386251
 20
187.957097
 11
25.386251
 21
181.127784
  0
LINE
  8
ENTITYA19764
  6
CONTINUOUS
 62
1
 10
25.847951
 20
181.127784
 11
25.847951
 21
187.957097
  0
LINE
  8
ENTITYA19764
  6
CONTINUOUS
 62
1
 10
26.771351
 20
189.111347
 11
26.771351
 21
193.035797
  0
LINE
  8
ENTITYA19764
  6
CONTINUOUS
 62
1
 10
26.309651
 20
192.612572
 11
26.309651
 21
189.111347
  0
LINE
  8
ENTITYA19764
  6
CONTINUOUS
 62
1
 10
25.847951
 20
189.111347
 11
25.847951
 21
192.189347
  0
LINE
  8
ENTITYA19764
  6
CONTINUOUS
 62
1
 10
25.386251
 20
191.766122
 11
25.386251
 21
189.111347
  0
LINE
  8
ENTITYA19764
  6
CONTINUOUS
 62
1
 10
24.924551
 20
189.111347
 11
24.924551
 21
191.342897
  0
LINE
  8
ENTITYA19764
  6
CONTINUOUS
 62
1
 10
24.462851
 20
190.919672
 11
24.462851
 21
189.111347
  0
LINE
  8
ENTITYA19764
  6
CONTINUOUS
 62
1
 10
24.001151
 20
190.496447
 11
24.001151
 21
189.111347
  0
LINE
  8
ENTITYA19764
  6
CONTINUOUS
 62
1
 10
23.539451
 20
190.073222
 11
23.539451
 21
189.111347
  0
LINE
  8
ENTITYA19764
  6
CONTINUOUS
 62
1
 10
23.077751
 20
189.111347
 11
23.077751
 21
189.649997
  0
LINE
  8
ENTITYA19764
  6
CONTINUOUS
 62
1
 10
22.616051
 20
189.226772
 11
22.616051
 21
189.111347
  0
LINE
  8
ENTITYA19764
  6
CONTINUOUS
 62
1
 10
26.771351
 20
168.065522
 11
26.771351
 21
171.989972
  0
LINE
  8
ENTITYA19764
  6
CONTINUOUS
 62
1
 10
26.309651
 20
171.989972
 11
26.309651
 21
168.488747
  0
LINE
  8
ENTITYA19764
  6
CONTINUOUS
 62
1
 10
25.847951
 20
168.911972
 11
25.847951
 21
171.989972
  0
LINE
  8
ENTITYA19764
  6
CONTINUOUS
 62
1
 10
25.386251
 20
171.989972
 11
25.386251
 21
169.335197
  0
LINE
  8
ENTITYA19764
  6
CONTINUOUS
 62
1
 10
24.924551
 20
169.758422
 11
24.924551
 21
171.989972
  0
LINE
  8
ENTITYA19764
  6
CONTINUOUS
 62
1
 10
24.462851
 20
171.989972
 11
24.462851
 21
170.181647
  0
LINE
  8
ENTITYA19764
  6
CONTINUOUS
 62
1
 10
24.001151
 20
170.604872
 11
24.001151
 21
171.989972
  0
LINE
  8
ENTITYA19764
  6
CONTINUOUS
 62
1
 10
23.539451
 20
171.989972
 11
23.539451
 21
171.028097
  0
LINE
  8
ENTITYA19764
  6
CONTINUOUS
 62
1
 10
23.077751
 20
171.451322
 11
23.077751
 21
171.989972
  0
LINE
  8
ENTITYA19764
  6
CONTINUOUS
 62
1
 10
22.616051
 20
171.989972
 11
22.616051
 21
171.874547
  0
LINE
  8
ENTITYA19764
  6
CONTINUOUS
 62
1
 10
19.845851
 20
181.127784
 11
19.845851
 21
186.687422
  0
LINE
  8
ENTITYA19764
  6
CONTINUOUS
 62
1
 10
19.384151
 20
186.264197
 11
19.384151
 21
181.127784
  0
LINE
  8
ENTITYA19764
  6
CONTINUOUS
 62
1
 10
18.922451
 20
181.127784
 11
18.922451
 21
185.840972
  0
LINE
  8
ENTITYA19764
  6
CONTINUOUS
 62
1
 10
18.460751
 20
185.417747
 11
18.460751
 21
181.127784
  0
LINE
  8
ENTITYA19764
  6
CONTINUOUS
 62
1
 10
17.999051
 20
181.127784
 11
17.999051
 21
184.994522
  0
LINE
  8
ENTITYA19764
  6
CONTINUOUS
 62
1
 10
17.537351
 20
184.571297
 11
17.537351
 21
181.127784
  0
LINE
  8
ENTITYA19764
  6
CONTINUOUS
 62
1
 10
17.537351
 20
179.973534
 11
17.537351
 21
176.530022
  0
LINE
  8
ENTITYA19764
  6
CONTINUOUS
 62
1
 10
17.999051
 20
176.106797
 11
17.999051
 21
179.973534
  0
LINE
  8
ENTITYA19764
  6
CONTINUOUS
 62
1
 10
18.460751
 20
179.973534
 11
18.460751
 21
175.683572
  0
LINE
  8
ENTITYA19764
  6
CONTINUOUS
 62
1
 10
18.922451
 20
175.260347
 11
18.922451
 21
179.973534
  0
LINE
  8
ENTITYA19764
  6
CONTINUOUS
 62
1
 10
19.384151
 20
179.973534
 11
19.384151
 21
174.837122
  0
LINE
  8
ENTITYA19764
  6
CONTINUOUS
 62
1
 10
19.845851
 20
174.413897
 11
19.845851
 21
179.973534
  0
LINE
  8
ENTITYA19764
  6
CONTINUOUS
 62
1
 10
39.314201
 20
199.457590
 11
39.314201
 21
161.643698
  0
LINE
  8
ENTITYA19764
  6
CONTINUOUS
 62
1
 10
29.310701
 20
161.643698
 11
29.310701
 21
199.457590
  0
LINE
  8
ENTITYA19764
  6
CONTINUOUS
 62
1
 10
29.400701
 20
199.457590
 11
29.400701
 21
161.643698
  0
LINE
  8
ENTITYA19764
  6
CONTINUOUS
 62
1
 10
39.404201
 20
161.643698
 11
39.404201
 21
199.457590
  0
ARC
  8
ENTITYA19764
  6
CONTINUOUS
 62
1
 10
32.349256
 20
164.250945
 40
1.226409
 50
101.065051
 51
132.065051
  0
ARC
  8
ENTITYA19764
  6
CONTINUOUS
 62
1
 10
32.475046
 20
164.321257
 40
1.266304
 50
138.434949
 51
168.434949
  0
ARC
  8
ENTITYA19764
  6
CONTINUOUS
 62
1
 10
33.862080
 20
164.135412
 40
2.664166
 50
170.500000
 51
189.499999
  0
ARC
  8
ENTITYA19764
  6
CONTINUOUS
 62
1
 10
33.200607
 20
163.609854
 40
1.968029
 50
177.500000
 51
272.499999
  0
LINE
  8
ENTITYA19764
  6
CONTINUOUS
 62
1
 10
33.286451
 20
161.643698
 11
35.045308
 21
161.643698
  0
ARC
  8
ENTITYA19764
  6
CONTINUOUS
 62
1
 10
34.902426
 20
165.003773
 40
3.363111
 50
272.434949
 51
304.434949
  0
ARC
  8
ENTITYA19764
  6
CONTINUOUS
 62
1
 10
35.946657
 20
163.391595
 40
1.443835
 50
306.434949
 51
0.434948
  0
LINE
  8
ENTITYA19764
  6
CONTINUOUS
 62
1
 10
37.390451
 20
163.402555
 11
37.390451
 21
163.988841
  0
ARC
  8
ENTITYA19764
  6
CONTINUOUS
 62
1
 10
35.975821
 20
164.059022
 40
1.416370
 50
357.159808
 51
80.159810
  0
LINE
  8
ENTITYA19764
  6
CONTINUOUS
 62
1
 10
37.390451
 20
166.920269
 11
31.234451
 21
166.920269
  0
LINE
  8
ENTITYA19764
  6
CONTINUOUS
 62
1
 10
31.234451
 20
166.920269
 11
31.234451
 21
169.558555
  0
ARC
  8
ENTITYA19764
  6
CONTINUOUS
 62
1
 10
32.407022
 20
169.558555
 40
1.172571
 50
90.000000
 51
180.000000
  0
ARC
  8
ENTITYA19764
  6
CONTINUOUS
 62
1
 10
32.407022
 20
169.265412
 40
1.465714
 50
0.000001
 51
90.000000
  0
LINE
  8
ENTITYA19764
  6
CONTINUOUS
 62
1
 10
33.872736
 20
169.265412
 11
33.872736
 21
166.920269
  0
LINE
  8
ENTITYA19764
  6
CONTINUOUS
 62
1
 10
33.872736
 20
168.679126
 11
37.390451
 21
170.731126
  0
LINE
  8
ENTITYA19764
  6
CONTINUOUS
 62
1
 10
37.390451
 20
172.196841
 11
31.234451
 21
172.196841
  0
LINE
  8
ENTITYA19764
  6
CONTINUOUS
 62
1
 10
31.234451
 20
175.714555
 11
37.390451
 21
175.714555
  0
LINE
  8
ENTITYA19764
  6
CONTINUOUS
 62
1
 10
31.234451
 20
173.662555
 11
31.234451
 21
183.336269
  0
LINE
  8
ENTITYA19764
  6
CONTINUOUS
 62
1
 10
31.234451
 20
181.284269
 11
37.390451
 21
181.284269
  0
LINE
  8
ENTITYA19764
  6
CONTINUOUS
 62
1
 10
37.390451
 20
184.801984
 11
31.234451
 21
187.147126
  0
LINE
  8
ENTITYA19764
  6
CONTINUOUS
 62
1
 10
31.234451
 20
187.147126
 11
37.390451
 21
189.492269
  0
LINE
  8
ENTITYA19764
  6
CONTINUOUS
 62
1
 10
35.338451
 20
185.583698
 11
35.338451
 21
188.710555
  0
LINE
  8
ENTITYA19764
  6
CONTINUOUS
 62
1
 10
37.390451
 20
190.957984
 11
31.234451
 21
190.957984
  0
LINE
  8
ENTITYA19764
  6
CONTINUOUS
 62
1
 10
37.390451
 20
190.957984
 11
37.390451
 21
194.475698
  0
LINE
  8
ENTITYA19764
  6
CONTINUOUS
 62
1
 10
37.390451
 20
195.941412
 11
31.234451
 21
195.941412
  0
LINE
  8
ENTITYA19764
  6
CONTINUOUS
 62
1
 10
37.390451
 20
195.941412
 11
37.390451
 21
199.459126
  0
LINE
  8
ENTITYA19764
  6
CONTINUOUS
 62
1
 10
267.396594
 20
191.739155
 11
265.521594
 21
191.739155
  0
ARC
  8
ENTITYA19764
  6
CONTINUOUS
 62
1
 10
261.147317
 20
191.418037
 40
4.386048
 50
4.198591
 51
42.198592
  0
ARC
  8
ENTITYA19764
  6
CONTINUOUS
 62
1
 10
261.214393
 20
190.426044
 40
5.063114
 50
51.059965
 51
90.059967
  0
ARC
  8
ENTITYA19764
  6
CONTINUOUS
 62
1
 10
261.101330
 20
191.214025
 40
4.276488
 50
88.556045
 51
132.556044
  0
ARC
  8
ENTITYA19764
  6
CONTINUOUS
 62
1
 10
259.795267
 20
192.931661
 40
2.137285
 50
137.914383
 51
213.914386
  0
ARC
  8
ENTITYA19764
  6
CONTINUOUS
 62
1
 10
260.690291
 20
194.061984
 40
3.538004
 50
221.036243
 51
257.036244
  0
LINE
  8
ENTITYA19764
  6
CONTINUOUS
 62
1
 10
259.896594
 20
190.614155
 11
263.271594
 21
189.676655
  0
ARC
  8
ENTITYA19764
  6
CONTINUOUS
 62
1
 10
262.338553
 20
184.972034
 40
4.796251
 50
30.782407
 51
78.782407
  0
ARC
  8
ENTITYA19764
  6
CONTINUOUS
 62
1
 10
262.889004
 20
185.889914
 40
3.886787
 50
325.289408
 51
23.289407
  0
ARC
  8
ENTITYA19764
  6
CONTINUOUS
 62
1
 10
262.151938
 20
186.853467
 40
5.055095
 50
272.065052
 51
321.065051
  0
ARC
  8
ENTITYA19764
  6
CONTINUOUS
 62
1
 10
261.501553
 20
188.359467
 40
6.610448
 50
238.235225
 51
277.235226
  0
ARC
  8
ENTITYA19764
  6
CONTINUOUS
 62
1
 10
260.505843
 20
186.321326
 40
4.359294
 50
180.258542
 51
235.258541
  0
LINE
  8
ENTITYA19764
  6
CONTINUOUS
 62
1
 10
256.146594
 20
186.301655
 11
258.021594
 21
186.301655
  0
ARC
  8
ENTITYA19764
  6
CONTINUOUS
 62
1
 10
261.265167
 20
186.685927
 40
3.266256
 50
186.756437
 51
233.756439
  0
ARC
  8
ENTITYA19764
  6
CONTINUOUS
 62
1
 10
261.711205
 20
189.037712
 40
5.523714
 50
244.510447
 51
290.510447
  0
ARC
  8
ENTITYA19764
  6
CONTINUOUS
 62
1
 10
262.688744
 20
185.749331
 40
2.114560
 50
296.934949
 51
9.934947
  0
ARC
  8
ENTITYA19764
  6
CONTINUOUS
 62
1
 10
262.866695
 20
185.709257
 40
1.947455
 50
12.000000
 51
78.000002
  0
LINE
  8
ENTITYA19764
  6
CONTINUOUS
 62
1
 10
263.271594
 20
187.614155
 11
258.209094
 21
189.114155
  0
ARC
  8
ENTITYA19764
  6
CONTINUOUS
 62
1
 10
259.635115
 20
192.812541
 40
3.963785
 50
192.914382
 51
248.914383
  0
ARC
  8
ENTITYA19764
  6
CONTINUOUS
 62
1
 10
260.053830
 20
192.686743
 40
4.349170
 50
133.065052
 51
190.065051
  0
ARC
  8
ENTITYA19764
  6
CONTINUOUS
 62
1
 10
260.901814
 20
191.003999
 40
6.180300
 50
87.150123
 51
128.150124
  0
ARC
  8
ENTITYA19764
  6
CONTINUOUS
 62
1
 10
261.540327
 20
189.914073
 40
7.270132
 50
63.611341
 51
92.611342
  0
ARC
  8
ENTITYA19764
  6
CONTINUOUS
 62
1
 10
262.183439
 20
191.898539
 40
5.215591
 50
358.248827
 51
60.248826
  0
LINE
  8
ENTITYA19764
  6
CONTINUOUS
 62
1
 10
246.584094
 20
196.989155
 11
248.646594
 21
196.989155
  0
LINE
  8
ENTITYA19764
  6
CONTINUOUS
 62
1
 10
248.646594
 20
196.989155
 11
248.646594
 21
183.676655
  0
LINE
  8
ENTITYA19764
  6
CONTINUOUS
 62
1
 10
248.646594
 20
183.676655
 11
253.709094
 21
183.676655
  0
LINE
  8
ENTITYA19764
  6
CONTINUOUS
 62
1
 10
253.709094
 20
183.676655
 11
253.709094
 21
181.989155
  0
LINE
  8
ENTITYA19764
  6
CONTINUOUS
 62
1
 10
253.709094
 20
181.989155
 11
241.709094
 21
181.989155
  0
LINE
  8
ENTITYA19764
  6
CONTINUOUS
 62
1
 10
241.709094
 20
181.989155
 11
241.709094
 21
183.676655
  0
LINE
  8
ENTITYA19764
  6
CONTINUOUS
 62
1
 10
241.709094
 20
183.676655
 11
246.584094
 21
183.676655
  0
LINE
  8
ENTITYA19764
  6
CONTINUOUS
 62
1
 10
246.584094
 20
183.676655
 11
246.584094
 21
196.989155
  0
LINE
  8
ENTITYA19764
  6
CONTINUOUS
 62
1
 10
239.084094
 20
181.989155
 11
228.396594
 21
181.989155
  0
LINE
  8
ENTITYA19764
  6
CONTINUOUS
 62
1
 10
228.396594
 20
181.989155
 11
228.396594
 21
183.676655
  0
LINE
  8
ENTITYA19764
  6
CONTINUOUS
 62
1
 10
228.396594
 20
183.676655
 11
237.021594
 21
183.676655
  0
LINE
  8
ENTITYA19764
  6
CONTINUOUS
 62
1
 10
237.021594
 20
183.676655
 11
237.021594
 21
188.364155
  0
LINE
  8
ENTITYA19764
  6
CONTINUOUS
 62
1
 10
237.021594
 20
188.364155
 11
228.959094
 21
188.364155
  0
LINE
  8
ENTITYA19764
  6
CONTINUOUS
 62
1
 10
228.959094
 20
188.364155
 11
228.959094
 21
190.051655
  0
LINE
  8
ENTITYA19764
  6
CONTINUOUS
 62
1
 10
228.959094
 20
190.051655
 11
237.021594
 21
190.051655
  0
LINE
  8
ENTITYA19764
  6
CONTINUOUS
 62
1
 10
237.021594
 20
190.051655
 11
237.021594
 21
195.301655
  0
LINE
  8
ENTITYA19764
  6
CONTINUOUS
 62
1
 10
237.021594
 20
195.301655
 11
227.834094
 21
195.301655
  0
LINE
  8
ENTITYA19764
  6
CONTINUOUS
 62
1
 10
227.834094
 20
195.301655
 11
227.834094
 21
196.989155
  0
LINE
  8
ENTITYA19764
  6
CONTINUOUS
 62
1
 10
227.834094
 20
196.989155
 11
239.084094
 21
196.989155
  0
LINE
  8
ENTITYA19764
  6
CONTINUOUS
 62
1
 10
239.084094
 20
196.989155
 11
239.084094
 21
181.989155
  0
LINE
  8
ENTITYA19764
  6
CONTINUOUS
 62
1
 10
224.646594
 20
181.989155
 11
213.959094
 21
181.989155
  0
LINE
  8
ENTITYA19764
  6
CONTINUOUS
 62
1
 10
213.959094
 20
181.989155
 11
213.959094
 21
183.676655
  0
LINE
  8
ENTITYA19764
  6
CONTINUOUS
 62
1
 10
213.959094
 20
183.676655
 11
222.584094
 21
183.676655
  0
LINE
  8
ENTITYA19764
  6
CONTINUOUS
 62
1
 10
222.584094
 20
183.676655
 11
222.584094
 21
188.364155
  0
LINE
  8
ENTITYA19764
  6
CONTINUOUS
 62
1
 10
222.584094
 20
188.364155
 11
214.521594
 21
188.364155
  0
LINE
  8
ENTITYA19764
  6
CONTINUOUS
 62
1
 10
214.521594
 20
188.364155
 11
214.521594
 21
190.051655
  0
LINE
  8
ENTITYA19764
  6
CONTINUOUS
 62
1
 10
214.521594
 20
190.051655
 11
222.584094
 21
190.051655
  0
LINE
  8
ENTITYA19764
  6
CONTINUOUS
 62
1
 10
222.584094
 20
190.051655
 11
222.584094
 21
195.301655
  0
LINE
  8
ENTITYA19764
  6
CONTINUOUS
 62
1
 10
222.584094
 20
195.301655
 11
213.396594
 21
195.301655
  0
LINE
  8
ENTITYA19764
  6
CONTINUOUS
 62
1
 10
213.396594
 20
195.301655
 11
213.396594
 21
196.989155
  0
LINE
  8
ENTITYA19764
  6
CONTINUOUS
 62
1
 10
213.396594
 20
196.989155
 11
224.646594
 21
196.989155
  0
LINE
  8
ENTITYA19764
  6
CONTINUOUS
 62
1
 10
224.646594
 20
196.989155
 11
224.646594
 21
181.989155
  0
LINE
  8
ENTITYA19764
  6
CONTINUOUS
 62
1
 10
210.209094
 20
181.989155
 11
208.146594
 21
181.989155
  0
LINE
  8
ENTITYA19764
  6
CONTINUOUS
 62
1
 10
208.146594
 20
181.989155
 11
208.146594
 21
195.301655
  0
LINE
  8
ENTITYA19764
  6
CONTINUOUS
 62
1
 10
208.146594
 20
195.301655
 11
201.021594
 21
195.301655
  0
LINE
  8
ENTITYA19764
  6
CONTINUOUS
 62
1
 10
201.021594
 20
195.301655
 11
201.021594
 21
196.989155
  0
LINE
  8
ENTITYA19764
  6
CONTINUOUS
 62
1
 10
201.021594
 20
196.989155
 11
210.209094
 21
196.989155
  0
LINE
  8
ENTITYA19764
  6
CONTINUOUS
 62
1
 10
210.209094
 20
196.989155
 11
210.209094
 21
181.989155
  0
TEXT
  8
ENTITYA19764
  6
CONTINUOUS
 62
1
 10
19.929699
 20
18.447557
 40
6.000000
  1
Corporate W20 
 50
90.000000
 41
1.000000
 51
0.000000
  7
STANDARD
  0
TEXT
  8
ENTITYA19764
  6
CONTINUOUS
 62
1
 10
31.929699
 20
18.447557
 40
6.000000
  1
Vent Glazing Detail
 50
90.000000
 41
1.000000
 51
0.000000
  7
STANDARD
  0
TEXT
  8
ENTITYA19764
  6
CONTINUOUS
 62
1
 10
284.910143
 20
182.410419
 40
10.000000
  1
D2
 50
90.000000
 41
1.000000
 51
0.000000
  7
STANDARD
  0
LINE
  8
ENTITYA19764
  6
CONTINUOUS
 62
1
 10
77.499971
 20
119.868187
 11
57.899971
 21
119.868187
  0
LINE
  8
ENTITYA19764
  6
CONTINUOUS
 62
1
 10
57.899971
 20
119.868187
 11
57.899971
 21
116.668187
  0
LINE
  8
ENTITYA19764
  6
CONTINUOUS
 62
1
 10
68.952868
 20
115.607108
 11
57.899971
 21
116.668187
  0
LINE
  8
ENTITYA19764
  6
CONTINUOUS
 62
1
 10
70.399971
 20
114.014431
 11
70.399971
 21
85.368187
  0
ARC
  8
ENTITYA19764
  6
CONTINUOUS
 62
1
 10
68.799971
 20
114.014431
 40
1.600000
 50
0.000000
 51
84.516410
  0
LINE
  8
ENTITYA19764
  6
CONTINUOUS
 62
1
 10
57.899971
 20
119.868187
 11
45.062212
 21
119.868187
  0
LINE
  8
ENTITYA19764
  6
DASHED
 62
1
 10
68.699971
 20
96.568187
 11
68.699971
 21
91.168187
  0
LINE
  8
ENTITYA19764
  6
DASHED
 62
1
 10
71.499971
 20
96.368187
 11
71.499971
 21
91.368187
  0
LINE
  8
ENTITYA19764
  6
DASHED
 62
1
 10
74.299971
 20
91.993187
 11
74.299971
 21
95.743187
  0
LINE
  8
ENTITYA19764
  6
DASHED
 62
1
 10
65.899971
 20
91.418187
 11
66.699971
 21
91.418187
  0
LINE
  8
ENTITYA19764
  6
DASHED
 62
1
 10
65.899971
 20
96.318187
 11
66.699971
 21
96.318187
  0
LINE
  8
ENTITYA19764
  6
DASHED
 62
1
 10
65.899971
 20
91.418187
 11
64.699971
 21
92.618187
  0
LINE
  8
ENTITYA19764
  6
DASHED
 62
1
 10
65.899971
 20
96.318187
 11
64.699971
 21
95.118187
  0
LINE
  8
ENTITYA19764
  6
DASHED
 62
1
 10
68.699971
 20
92.118187
 11
66.699971
 21
92.118187
  0
LINE
  8
ENTITYA19764
  6
DASHED
 62
1
 10
68.699971
 20
95.618187
 11
66.699971
 21
95.618187
  0
LINE
  8
ENTITYA19764
  6
DASHED
 62
1
 10
70.399971
 20
91.168187
 11
68.699971
 21
91.168187
  0
LINE
  8
ENTITYA19764
  6
DASHED
 62
1
 10
70.399971
 20
96.568187
 11
68.699971
 21
96.568187
  0
LINE
  8
ENTITYA19764
  6
DASHED
 62
1
 10
66.299971
 20
94.468187
 11
66.299971
 21
93.268187
  0
LINE
  8
ENTITYA19764
  6
DASHED
 62
1
 10
66.299971
 20
93.268187
 11
64.699971
 21
93.268187
  0
LINE
  8
ENTITYA19764
  6
DASHED
 62
1
 10
66.299971
 20
94.468187
 11
64.699971
 21
94.468187
  0
LINE
  8
ENTITYA19764
  6
DASHED
 62
1
 10
64.699971
 20
92.618187
 11
64.699971
 21
93.268187
  0
LINE
  8
ENTITYA19764
  6
DASHED
 62
1
 10
64.699971
 20
94.468187
 11
64.699971
 21
95.118187
  0
LINE
  8
ENTITYA19764
  6
DASHED
 62
1
 10
65.899971
 20
96.318187
 11
65.899971
 21
94.468187
  0
LINE
  8
ENTITYA19764
  6
DASHED
 62
1
 10
65.899971
 20
93.268187
 11
65.899971
 21
91.418187
  0
LINE
  8
ENTITYA19764
  6
DASHED
 62
1
 10
75.159971
 20
91.368187
 11
70.399971
 21
91.368187
  0
LINE
  8
ENTITYA19764
  6
DASHED
 62
1
 10
75.159971
 20
96.368187
 11
70.399971
 21
96.368187
  0
LINE
  8
ENTITYA19764
  6
DASHED
 62
1
 10
71.499971
 20
91.993187
 11
75.159971
 21
91.993187
  0
LINE
  8
ENTITYA19764
  6
DASHED
 62
1
 10
71.499971
 20
95.743187
 11
75.159971
 21
95.743187
  0
LINE
  8
ENTITYA19764
  6
DASHED
 62
1
 10
71.499971
 20
95.743187
 11
70.399971
 21
95.743187
  0
LINE
  8
ENTITYA19764
  6
DASHED
 62
1
 10
71.499971
 20
91.993187
 11
70.399971
 21
91.993187
  0
LINE
  8
ENTITYA19764
  6
DASHED
 62
1
 10
73.674971
 20
96.368187
 11
73.674971
 21
91.368187
  0
LINE
  8
ENTITYA19764
  6
DASHED
 62
1
 10
74.299971
 20
91.993187
 11
73.674971
 21
91.368187
  0
LINE
  8
ENTITYA19764
  6
DASHED
 62
1
 10
74.299971
 20
95.743187
 11
73.674971
 21
96.368187
  0
LINE
  8
ENTITYA19764
  6
DASHED
 62
1
 10
66.699971
 20
96.318187
 11
66.699971
 21
91.418187
  0
LINE
  8
ENTITYA19764
  6
CONTINUOUS
 62
1
 10
62.139109
 20
90.321174
 11
69.920863
 21
90.321174
  0
LINE
  8
ENTITYA19764
  6
CONTINUOUS
 62
1
 10
67.836311
 20
97.021174
 11
58.848213
 21
97.021174
  0
LINE
  8
ENTITYA19764
  6
CONTINUOUS
 62
1
 10
68.470863
 20
91.321174
 11
62.485520
 21
91.321174
  0
LINE
  8
ENTITYA19764
  6
CONTINUOUS
 62
1
 10
59.945178
 20
96.021174
 11
65.570863
 21
96.021174
  0
LINE
  8
ENTITYA19764
  6
CONTINUOUS
 62
1
 10
68.470863
 20
91.321174
 11
68.470863
 21
91.021174
  0
LINE
  8
ENTITYA19764
  6
CONTINUOUS
 62
1
 10
68.470863
 20
91.021174
 11
69.920863
 21
91.021174
  0
LINE
  8
ENTITYA19764
  6
CONTINUOUS
 62
1
 10
66.770863
 20
96.321174
 11
66.770863
 21
95.771174
  0
LINE
  8
ENTITYA19764
  6
CONTINUOUS
 62
1
 10
65.870863
 20
96.321174
 11
66.770863
 21
96.321174
  0
LINE
  8
ENTITYA19764
  6
CONTINUOUS
 62
1
 10
65.870863
 20
96.321174
 11
65.570863
 21
96.021174
  0
LINE
  8
ENTITYA19764
  6
CONTINUOUS
 62
1
 10
66.770863
 20
95.771174
 11
67.170863
 21
95.771174
  0
LINE
  8
ENTITYA19764
  6
CONTINUOUS
 62
1
 10
67.170863
 20
95.771174
 11
68.029148
 21
96.491361
  0
ARC
  8
ENTITYA19764
  6
CONTINUOUS
 62
1
 10
67.836311
 20
96.721174
 40
0.300000
 50
310.000000
 51
90.000000
  0
ARC
  8
ENTITYA19764
  6
CONTINUOUS
 62
1
 10
69.920863
 20
90.671174
 40
0.350000
 50
270.000000
 51
0.000000
  0
ARC
  8
ENTITYA19764
  6
CONTINUOUS
 62
1
 10
69.920863
 20
90.671174
 40
0.350000
 50
0.000000
 51
90.000000
  0
LINE
  8
ENTITYA19764
  6
CONTINUOUS
 62
1
 10
57.837850
 20
96.771174
 11
61.273084
 21
90.821174
  0
LINE
  8
ENTITYA19764
  6
CONTINUOUS
 62
1
 10
61.965904
 20
91.621174
 11
59.685371
 21
95.571174
  0
ARC
  8
ENTITYA19764
  6
CONTINUOUS
 62
1
 10
62.139109
 20
91.321174
 40
1.000000
 50
210.000000
 51
270.000000
  0
ARC
  8
ENTITYA19764
  6
CONTINUOUS
 62
1
 10
62.485520
 20
91.921174
 40
0.600000
 50
210.000000
 51
270.000000
  0
ARC
  8
ENTITYA19764
  6
CONTINUOUS
 62
1
 10
59.945178
 20
95.721174
 40
0.300000
 50
90.000000
 51
210.000000
  0
LINE
  8
ENTITYA19764
  6
CONTINUOUS
 62
1
 10
58.270863
 20
97.521174
 11
58.348213
 21
97.521174
  0
ARC
  8
ENTITYA19764
  6
CONTINUOUS
 62
1
 10
58.270863
 20
97.021174
 40
0.500000
 50
90.000000
 51
210.000000
  0
ARC
  8
ENTITYA19764
  6
CONTINUOUS
 62
1
 10
58.348213
 20
97.021174
 40
0.500000
 50
0.000000
 51
90.000000
  0
ARC
  8
ENTITYA19764
  6
CONTINUOUS
 62
1
 10
57.294536
 20
96.811653
 40
0.500000
 50
225.294432
 51
12.372426
  0
ARC
  8
ENTITYA19764
  6
CONTINUOUS
 62
1
 10
60.576813
 20
101.791242
 40
6.455057
 50
197.770054
 51
235.738501
  0
ARC
  8
ENTITYA19764
  6
CONTINUOUS
 62
1
 10
65.946105
 20
100.193954
 40
1.500000
 50
291.582723
 51
345.610062
  0
ARC
  8
ENTITYA19764
  6
CONTINUOUS
 62
1
 10
61.144565
 20
99.083356
 40
2.000000
 50
244.732944
 51
300.656818
  0
ARC
  8
ENTITYA19764
  6
CONTINUOUS
 62
1
 10
61.572497
 20
97.338648
 40
2.000000
 50
85.846562
 51
143.324628
  0
ARC
  8
ENTITYA19764
  6
CONTINUOUS
 62
1
 10
61.831999
 20
98.339989
 40
1.000000
 50
15.000000
 51
96.583241
  0
ARC
  8
ENTITYA19764
  6
CONTINUOUS
 62
1
 10
61.831999
 20
98.339989
 40
1.000000
 50
299.981778
 51
15.000000
  0
LINE
  8
ENTITYA19764
  6
CONTINUOUS
 62
1
 10
62.331723
 20
97.473805
 11
62.164354
 21
97.362882
  0
ARC
  8
ENTITYA19764
  6
CONTINUOUS
 62
1
 10
60.866161
 20
98.092662
 40
1.000000
 50
153.861185
 51
234.881299
  0
ARC
  8
ENTITYA19764
  6
CONTINUOUS
 62
1
 10
61.144565
 20
99.083356
 40
2.000000
 50
244.732944
 51
300.656818
  0
ARC
  8
ENTITYA19764
  6
CONTINUOUS
 62
1
 10
60.866161
 20
98.092662
 40
1.000000
 50
219.664803
 51
234.881299
  0
ARC
  8
ENTITYA19764
  6
CONTINUOUS
 62
1
 10
61.572497
 20
97.338648
 40
2.000000
 50
85.846562
 51
143.324628
  0
ARC
  8
ENTITYA19764
  6
CONTINUOUS
 62
1
 10
61.831999
 20
98.339989
 40
1.000000
 50
15.000000
 51
96.583241
  0
ARC
  8
ENTITYA19764
  6
CONTINUOUS
 62
1
 10
61.831999
 20
98.339989
 40
1.000000
 50
299.981778
 51
15.000000
  0
LINE
  8
ENTITYA19764
  6
CONTINUOUS
 62
1
 10
62.331723
 20
97.473805
 11
62.164354
 21
97.362882
  0
ARC
  8
ENTITYA19764
  6
CONTINUOUS
 62
1
 10
60.866161
 20
98.092662
 40
1.000000
 50
153.861185
 51
234.881299
  0
ARC
  8
ENTITYA19764
  6
CONTINUOUS
 62
1
 10
60.323985
 20
108.852840
 40
11.798055
 50
273.988266
 51
301.553665
  0
LINE
  8
ENTITYA19764
  6
CONTINUOUS
 62
1
 10
58.516138
 20
97.492132
 11
60.817193
 21
97.110331
  0
LINE
  8
ENTITYA19764
  6
CONTINUOUS
 62
1
 10
62.139109
 20
90.321174
 11
45.062212
 21
90.321174
  0
LINE
  8
ENTITYA19764
  6
CONTINUOUS
 62
1
 10
57.294536
 20
96.311653
 11
45.062212
 21
96.311653
  0
LINE
  8
ENTITYA19764
  6
CONTINUOUS
 62
1
 10
57.899971
 20
116.668187
 11
45.062212
 21
116.668187
  0
LINE
  8
ENTITYA19764
  6
CONTINUOUS
 62
1
 10
66.399971
 20
99.821174
 11
45.062212
 21
99.821174
  0
LINE
  8
ENTITYA19764
  6
CONTINUOUS
 62
1
 10
66.399971
 20
99.821174
 11
70.399971
 21
99.821174
  0
LINE
  8
ENTITYA19764
  6
CONTINUOUS
 62
1
 10
66.399971
 20
114.012241
 11
70.399971
 21
114.012241
  0
LINE
  8
ENTITYA19764
  6
CONTINUOUS
 62
1
 10
45.062212
 20
113.821174
 11
66.399971
 21
113.821174
  0
LINE
  8
ENTITYA19764
  6
CONTINUOUS
 62
1
 10
70.399971
 20
99.821174
 11
66.399971
 21
114.012241
  0
LINE
  8
ENTITYA19764
  6
CONTINUOUS
 62
1
 10
66.399971
 20
99.821174
 11
70.399971
 21
114.012241
  0
LINE
  8
ENTITYA19764
  6
CONTINUOUS
 62
1
 10
66.399971
 20
114.012241
 11
66.399971
 21
99.821174
  0
LINE
  8
ENTITYA19764
  6
CONTINUOUS
 62
1
 10
66.399971
 20
109.821174
 11
45.062212
 21
109.821174
  0
LINE
  8
ENTITYA19764
  6
CONTINUOUS
 62
1
 10
45.062212
 20
103.821174
 11
66.399971
 21
103.821174
  0
LINE
  8
ENTITYA19764
  6
CONTINUOUS
 62
1
 10
45.062212
 20
110.821174
 11
66.399971
 21
110.821174
  0
LINE
  8
ENTITYA19764
  6
CONTINUOUS
 62
1
 10
66.399971
 20
111.821174
 11
45.062212
 21
111.821174
  0
LINE
  8
ENTITYA19764
  6
CONTINUOUS
 62
1
 10
45.062212
 20
112.821174
 11
66.399971
 21
112.821174
  0
LINE
  8
ENTITYA19764
  6
CONTINUOUS
 62
1
 10
66.399971
 20
102.821174
 11
45.062212
 21
102.821174
  0
LINE
  8
ENTITYA19764
  6
CONTINUOUS
 62
1
 10
45.062212
 20
101.821174
 11
66.399971
 21
101.821174
  0
LINE
  8
ENTITYA19764
  6
CONTINUOUS
 62
1
 10
66.399971
 20
100.821174
 11
45.062212
 21
100.821174
  0
LINE
  8
ENTITYA19764
  6
CONTINUOUS
 62
1
 10
56.399971
 20
103.821174
 11
60.399971
 21
103.821174
  0
LINE
  8
ENTITYA19764
  6
CONTINUOUS
 62
1
 10
54.469780
 20
103.821174
 11
54.469780
 21
109.821174
  0
LINE
  8
ENTITYA19764
  6
CONTINUOUS
 62
1
 10
54.469780
 20
109.821174
 11
62.399971
 21
103.821174
  0
LINE
  8
ENTITYA19764
  6
CONTINUOUS
 62
1
 10
54.469780
 20
103.821174
 11
62.399971
 21
109.821174
  0
LINE
  8
ENTITYA19764
  6
CONTINUOUS
 62
1
 10
62.399971
 20
109.821174
 11
62.399971
 21
103.821174
  0
LINE
  8
ENTITYA19764
  6
CONTINUOUS
 62
1
 10
62.399971
 20
109.821174
 11
62.399971
 21
103.821174
  0
LINE
  8
ENTITYA19764
  6
DASHED
 62
1
 10
56.469780
 20
109.821174
 11
56.469780
 21
103.821174
  0
LINE
  8
ENTITYA19764
  6
DASHED
 62
1
 10
52.469780
 20
103.821174
 11
52.469780
 21
109.821174
  0
LINE
  8
ENTITYA19764
  6
CONTINUOUS
 62
1
 10
63.399971
 20
103.821174
 11
63.399971
 21
109.821174
  0
LINE
  8
ENTITYA19764
  6
CONTINUOUS
 62
1
 10
64.399971
 20
109.821174
 11
64.399971
 21
103.821174
  0
LINE
  8
ENTITYA19764
  6
CONTINUOUS
 62
1
 10
65.399971
 20
103.821174
 11
65.399971
 21
109.821174
  0
LINE
  8
ENTITYA19764
  6
CONTINUOUS
 62
1
 10
62.399971
 20
108.821174
 11
66.399971
 21
108.821174
  0
LINE
  8
ENTITYA19764
  6
CONTINUOUS
 62
1
 10
66.399971
 20
107.821174
 11
62.399971
 21
107.821174
  0
LINE
  8
ENTITYA19764
  6
CONTINUOUS
 62
1
 10
62.399971
 20
106.821174
 11
66.399971
 21
106.821174
  0
LINE
  8
ENTITYA19764
  6
CONTINUOUS
 62
1
 10
66.399971
 20
105.821174
 11
62.399971
 21
105.821174
  0
LINE
  8
ENTITYA19764
  6
CONTINUOUS
 62
1
 10
62.399971
 20
104.821174
 11
66.399971
 21
104.821174
  0
TEXT
  8
ENTITYA19764
  6
CONTINUOUS
 62
1
 10
61.559352
 20
114.233859
 40
0.500000
  1
%%d
 50
90.000000
 41
-1.000000
 51
0.000000
  7
STANDARD
  0
TEXT
  8
ENTITYA19764
  6
CONTINUOUS
 62
1
 10
61.184620
 20
114.421225
 40
0.500000
  1
%%d
 50
90.000000
 41
-1.000000
 51
0.000000
  7
STANDARD
  0
TEXT
  8
ENTITYA19764
  6
CONTINUOUS
 62
1
 10
61.109674
 20
115.882677
 40
0.500000
  1
%%d
 50
90.000000
 41
-1.000000
 51
0.000000
  7
STANDARD
  0
TEXT
  8
ENTITYA19764
  6
CONTINUOUS
 62
1
 10
61.559352
 20
115.170687
 40
0.500000
  1
%%d
 50
90.000000
 41
-1.000000
 51
0.000000
  7
STANDARD
  0
TEXT
  8
ENTITYA19764
  6
CONTINUOUS
 62
1
 10
62.608599
 20
115.995096
 40
0.500000
  1
%%d
 50
90.000000
 41
-1.000000
 51
0.000000
  7
STANDARD
  0
LINE
  8
ENTITYA19764
  6
CONTINUOUS
 62
1
 10
103.399971
 20
111.468187
 11
103.399971
 21
111.468187
  0
LINE
  8
ENTITYA19764
  6
CONTINUOUS
 62
1
 10
95.399971
 20
117.868187
 11
95.399971
 21
117.868187
  0
LINE
  8
ENTITYA19764
  6
CONTINUOUS
 62
1
 10
96.999971
 20
116.268187
 11
98.599971
 21
116.268187
  0
ARC
  8
ENTITYA19764
  6
CONTINUOUS
 62
1
 10
96.999971
 20
117.868187
 40
1.600000
 50
180.000000
 51
270.000000
  0
ARC
  8
ENTITYA19764
  6
CONTINUOUS
 62
1
 10
93.399971
 20
117.868187
 40
2.000000
 50
0.000000
 51
90.000000
  0
LINE
  8
ENTITYA19764
  6
CONTINUOUS
 62
1
 10
92.299971
 20
88.068187
 11
92.299971
 21
89.831837
  0
LINE
  8
ENTITYA19764
  6
CONTINUOUS
 62
1
 10
101.257928
 20
92.236614
 11
93.728000
 21
91.422568
  0
LINE
  8
ENTITYA19764
  6
CONTINUOUS
 62
1
 10
112.899971
 20
116.668187
 11
112.899971
 21
119.868187
  0
LINE
  8
ENTITYA19764
  6
CONTINUOUS
 62
1
 10
107.901516
 20
116.043380
 11
112.899971
 21
116.668187
  0
LINE
  8
ENTITYA19764
  6
CONTINUOUS
 62
1
 10
100.199971
 20
121.468187
 11
100.199971
 21
122.668187
  0
LINE
  8
ENTITYA19764
  6
CONTINUOUS
 62
1
 10
97.799971
 20
125.068187
 11
72.799971
 21
125.068187
  0
LINE
  8
ENTITYA19764
  6
CONTINUOUS
 62
1
 10
112.899971
 20
119.868187
 11
101.799971
 21
119.868187
  0
LINE
  8
ENTITYA19764
  6
CONTINUOUS
 62
1
 10
70.399971
 20
122.668187
 11
70.399971
 21
119.868187
  0
ARC
  8
ENTITYA19764
  6
CONTINUOUS
 62
1
 10
101.799971
 20
121.468187
 40
1.600000
 50
180.000000
 51
270.000000
  0
ARC
  8
ENTITYA19764
  6
CONTINUOUS
 62
1
 10
97.799971
 20
122.668187
 40
2.400000
 50
0.000000
 51
90.000000
  0
ARC
  8
ENTITYA19764
  6
CONTINUOUS
 62
1
 10
108.099971
 20
114.455735
 40
1.600000
 50
97.125016
 51
180.000000
  0
ARC
  8
ENTITYA19764
  6
CONTINUOUS
 62
1
 10
93.899971
 20
89.831837
 40
1.600000
 50
96.170175
 51
180.000000
  0
ARC
  8
ENTITYA19764
  6
CONTINUOUS
 62
1
 10
100.999971
 20
94.622711
 40
2.400000
 50
276.170175
 51
0.000000
  0
LINE
  8
ENTITYA19764
  6
CONTINUOUS
 62
1
 10
103.399971
 20
94.622711
 11
103.399971
 21
111.468187
  0
ARC
  8
ENTITYA19764
  6
CONTINUOUS
 62
1
 10
98.599971
 20
111.468187
 40
4.800000
 50
0.000000
 51
90.000000
  0
ARC
  8
ENTITYA19764
  6
CONTINUOUS
 62
1
 10
72.799971
 20
122.668187
 40
2.400000
 50
90.000000
 51
180.000000
  0
LINE
  8
ENTITYA19764
  6
CONTINUOUS
 62
1
 10
97.799971
 20
82.968187
 11
72.799971
 21
82.968187
  0
LINE
  8
ENTITYA19764
  6
CONTINUOUS
 62
1
 10
100.199971
 20
85.368187
 11
100.199971
 21
87.768187
  0
LINE
  8
ENTITYA19764
  6
CONTINUOUS
 62
1
 10
100.199971
 20
87.768187
 11
77.159971
 21
87.768187
  0
LINE
  8
ENTITYA19764
  6
CONTINUOUS
 62
1
 10
77.499971
 20
118.268187
 11
77.579971
 21
118.268187
  0
LINE
  8
ENTITYA19764
  6
CONTINUOUS
 62
1
 10
77.579971
 20
113.468187
 11
79.099971
 21
113.468187
  0
LINE
  8
ENTITYA19764
  6
CONTINUOUS
 62
1
 10
79.099971
 20
113.468187
 11
79.099971
 21
112.068187
  0
LINE
  8
ENTITYA19764
  6
CONTINUOUS
 62
1
 10
78.099971
 20
111.068187
 11
76.759971
 21
111.068187
  0
LINE
  8
ENTITYA19764
  6
CONTINUOUS
 62
1
 10
75.159971
 20
109.468187
 11
75.159971
 21
89.768187
  0
ARC
  8
ENTITYA19764
  6
CONTINUOUS
 62
1
 10
97.799971
 20
85.368187
 40
2.400000
 50
270.000000
 51
0.000000
  0
ARC
  8
ENTITYA19764
  6
CONTINUOUS
 62
1
 10
72.799971
 20
85.368187
 40
2.400000
 50
180.000000
 51
270.000000
  0
ARC
  8
ENTITYA19764
  6
CONTINUOUS
 62
1
 10
77.499971
 20
119.068187
 40
0.800000
 50
270.000000
 51
90.000000
  0
ARC
  8
ENTITYA19764
  6
CONTINUOUS
 62
1
 10
76.759971
 20
109.468187
 40
1.600000
 50
90.000000
 51
180.000000
  0
ARC
  8
ENTITYA19764
  6
CONTINUOUS
 62
1
 10
78.099971
 20
112.068187
 40
1.000000
 50
270.000000
 51
0.000000
  0
LINE
  8
ENTITYA19764
  6
CONTINUOUS
 62
1
 10
93.399971
 20
119.868187
 11
70.399971
 21
119.868187
  0
LINE
  8
ENTITYA19764
  6
CONTINUOUS
 62
1
 10
112.899971
 20
88.068187
 11
92.299971
 21
88.068187
  0
LINE
  8
ENTITYA19764
  6
CONTINUOUS
 62
1
 10
112.899971
 20
88.068187
 11
112.899971
 21
91.268187
  0
LINE
  8
ENTITYA19764
  6
CONTINUOUS
 62
1
 10
107.999120
 20
92.373504
 11
112.899971
 21
91.268187
  0
LINE
  8
ENTITYA19764
  6
CONTINUOUS
 62
1
 10
106.499971
 20
93.970322
 11
106.499971
 21
114.455735
  0
LINE
  8
ENTITYA19764
  6
CONTINUOUS
 62
1
 10
112.899971
 20
116.668187
 11
112.899971
 21
119.868187
  0
LINE
  8
ENTITYA19764
  6
CONTINUOUS
 62
1
 10
107.901516
 20
116.043380
 11
112.899971
 21
116.668187
  0
ARC
  8
ENTITYA19764
  6
CONTINUOUS
 62
1
 10
108.099971
 20
93.970322
 40
1.600000
 50
180.000000
 51
266.386119
  0
LINE
  8
ENTITYA19764
  6
CONTINUOUS
 62
1
 10
75.779971
 20
116.468187
 11
75.779971
 21
115.268187
  0
ARC
  8
ENTITYA19764
  6
CONTINUOUS
 62
1
 10
77.579971
 20
115.268187
 40
1.800000
 50
180.000000
 51
270.000000
  0
ARC
  8
ENTITYA19764
  6
CONTINUOUS
 62
1
 10
77.579971
 20
116.468187
 40
1.800000
 50
90.000000
 51
180.000000
  0
LINE
  8
ENTITYA19764
  6
CONTINUOUS
 62
1
 10
76.565594
 20
115.433677
 11
76.565594
 21
116.201626
  0
LINE
  8
ENTITYA19764
  6
CONTINUOUS
 62
1
 10
84.065594
 20
118.909064
 11
84.065594
 21
118.067651
  0
LINE
  8
ENTITYA19764
  6
CONTINUOUS
 62
1
 10
83.065594
 20
118.067651
 11
83.065594
 21
118.409064
  0
LINE
  8
ENTITYA19764
  6
CONTINUOUS
 62
1
 10
79.465594
 20
115.067651
 11
79.465594
 21
119.371196
  0
ARC
  8
ENTITYA19764
  6
CONTINUOUS
 62
1
 10
78.965594
 20
119.371196
 40
0.500000
 50
0.000000
 51
90.000000
  0
ARC
  8
ENTITYA19764
  6
CONTINUOUS
 62
1
 10
78.965594
 20
119.371196
 40
0.500000
 50
90.000000
 51
180.000000
  0
LINE
  8
ENTITYA19764
  6
CONTINUOUS
 62
1
 10
77.065594
 20
113.567651
 11
79.565594
 21
113.567651
  0
ARC
  8
ENTITYA19764
  6
CONTINUOUS
 62
1
 10
79.565594
 20
118.067651
 40
4.500000
 50
270.000000
 51
0.000000
  0
LINE
  8
ENTITYA19764
  6
CONTINUOUS
 62
1
 10
81.368369
 20
115.067651
 11
79.465594
 21
115.067651
  0
ARC
  8
ENTITYA19764
  6
CONTINUOUS
 62
1
 10
79.565594
 20
118.067651
 40
3.500000
 50
301.002719
 51
0.000000
  0
ARC
  8
ENTITYA19764
  6
CONTINUOUS
 62
1
 10
77.065594
 20
114.567651
 40
1.000000
 50
120.000000
 51
270.000000
  0
LINE
  8
ENTITYA19764
  6
CONTINUOUS
 62
1
 10
78.465594
 20
119.371196
 11
78.465594
 21
118.067651
  0
ARC
  8
ENTITYA19764
  6
CONTINUOUS
 62
1
 10
77.065594
 20
117.067651
 40
1.000000
 50
90.000000
 51
240.000000
  0
LINE
  8
ENTITYA19764
  6
CONTINUOUS
 62
1
 10
81.904469
 20
119.909064
 11
83.065594
 21
119.909064
  0
LINE
  8
ENTITYA19764
  6
CONTINUOUS
 62
1
 10
82.565594
 20
118.909064
 11
81.920984
 21
118.909064
  0
ARC
  8
ENTITYA19764
  6
CONTINUOUS
 62
1
 10
81.920984
 20
118.409064
 40
0.500000
 50
90.000000
 51
156.421822
  0
ARC
  8
ENTITYA19764
  6
CONTINUOUS
 62
1
 10
81.262982
 20
119.176198
 40
0.500000
 50
129.902782
 51
255.661366
  0
LINE
  8
ENTITYA19764
  6
CONTINUOUS
 62
1
 10
81.462727
 20
118.609064
 11
81.139156
 21
118.691773
  0
ARC
  8
ENTITYA19764
  6
CONTINUOUS
 62
1
 10
81.904469
 20
118.409064
 40
1.500000
 50
90.000000
 51
129.902782
  0
ARC
  8
ENTITYA19764
  6
CONTINUOUS
 62
1
 10
82.565594
 20
118.409064
 40
0.500000
 50
0.000000
 51
90.000000
  0
ARC
  8
ENTITYA19764
  6
CONTINUOUS
 62
1
 10
83.065594
 20
118.909064
 40
1.000000
 50
0.000000
 51
90.000000
  0
LINE
  8
ENTITYA19764
  6
CONTINUOUS
 62
1
 10
78.465594
 20
118.067651
 11
77.065594
 21
118.067651
  0
ARC
  8
ENTITYA19764
  6
CONTINUOUS
 62
1
 10
77.159971
 20
89.768187
 40
2.000000
 50
180.000000
 51
270.000000
  0
LINE
  8
ENTITYA19764
  6
CONTINUOUS
 62
1
 10
72.799971
 20
82.968187
 11
45.062212
 21
82.968187
  0
LINE
  8
ENTITYA19764
  6
CONTINUOUS
 62
1
 10
72.799971
 20
125.068187
 11
45.062212
 21
125.068187
  0
LINE
  8
ENTITYA19764
  6
RANDOM
 62
1
 10
45.062212
 20
125.068187
 11
45.062212
 21
82.968187
  0
LINE
  8
ENTITYA19764
  6
CONTINUOUS
 62
1
 10
239.771450
 20
119.868187
 11
220.171450
 21
119.868187
  0
LINE
  8
ENTITYA19764
  6
CONTINUOUS
 62
1
 10
220.171450
 20
119.868187
 11
220.171450
 21
116.668187
  0
LINE
  8
ENTITYA19764
  6
CONTINUOUS
 62
1
 10
231.224347
 20
115.607108
 11
220.171450
 21
116.668187
  0
LINE
  8
ENTITYA19764
  6
CONTINUOUS
 62
1
 10
232.671450
 20
114.014431
 11
232.671450
 21
85.368187
  0
ARC
  8
ENTITYA19764
  6
CONTINUOUS
 62
1
 10
231.071450
 20
114.014431
 40
1.600000
 50
0.000000
 51
84.516410
  0
LINE
  8
ENTITYA19764
  6
CONTINUOUS
 62
1
 10
220.171450
 20
119.868187
 11
213.986197
 21
119.868187
  0
LINE
  8
ENTITYA19764
  6
CONTINUOUS
 62
1
 10
219.971450
 20
116.668187
 11
213.986197
 21
116.668187
  0
LINE
  8
ENTITYA19764
  6
CONTINUOUS
 62
1
 10
265.671450
 20
111.468187
 11
265.671450
 21
111.468187
  0
LINE
  8
ENTITYA19764
  6
CONTINUOUS
 62
1
 10
257.671450
 20
117.868187
 11
257.671450
 21
117.868187
  0
LINE
  8
ENTITYA19764
  6
CONTINUOUS
 62
1
 10
259.271450
 20
116.268187
 11
260.871450
 21
116.268187
  0
ARC
  8
ENTITYA19764
  6
CONTINUOUS
 62
1
 10
259.271450
 20
117.868187
 40
1.600000
 50
180.000000
 51
270.000000
  0
ARC
  8
ENTITYA19764
  6
CONTINUOUS
 62
1
 10
255.671450
 20
117.868187
 40
2.000000
 50
0.000000
 51
90.000000
  0
LINE
  8
ENTITYA19764
  6
CONTINUOUS
 62
1
 10
254.571450
 20
88.068187
 11
254.571450
 21
89.831837
  0
LINE
  8
ENTITYA19764
  6
CONTINUOUS
 62
1
 10
263.529406
 20
92.236614
 11
255.999479
 21
91.422568
  0
LINE
  8
ENTITYA19764
  6
CONTINUOUS
 62
1
 10
275.171450
 20
116.668187
 11
275.171450
 21
119.868187
  0
LINE
  8
ENTITYA19764
  6
CONTINUOUS
 62
1
 10
270.172994
 20
116.043380
 11
275.171450
 21
116.668187
  0
LINE
  8
ENTITYA19764
  6
CONTINUOUS
 62
1
 10
262.471450
 20
121.468187
 11
262.471450
 21
122.668187
  0
LINE
  8
ENTITYA19764
  6
CONTINUOUS
 62
1
 10
260.071450
 20
125.068187
 11
235.071450
 21
125.068187
  0
LINE
  8
ENTITYA19764
  6
CONTINUOUS
 62
1
 10
275.171450
 20
119.868187
 11
264.071450
 21
119.868187
  0
LINE
  8
ENTITYA19764
  6
CONTINUOUS
 62
1
 10
232.671450
 20
122.668187
 11
232.671450
 21
119.868187
  0
ARC
  8
ENTITYA19764
  6
CONTINUOUS
 62
1
 10
264.071450
 20
121.468187
 40
1.600000
 50
180.000000
 51
270.000000
  0
ARC
  8
ENTITYA19764
  6
CONTINUOUS
 62
1
 10
260.071450
 20
122.668187
 40
2.400000
 50
0.000000
 51
90.000000
  0
ARC
  8
ENTITYA19764
  6
CONTINUOUS
 62
1
 10
270.371450
 20
114.455735
 40
1.600000
 50
97.125016
 51
180.000000
  0
ARC
  8
ENTITYA19764
  6
CONTINUOUS
 62
1
 10
256.171450
 20
89.831837
 40
1.600000
 50
96.170175
 51
180.000000
  0
ARC
  8
ENTITYA19764
  6
CONTINUOUS
 62
1
 10
263.271450
 20
94.622711
 40
2.400000
 50
276.170175
 51
0.000000
  0
LINE
  8
ENTITYA19764
  6
CONTINUOUS
 62
1
 10
265.671450
 20
94.622711
 11
265.671450
 21
111.468187
  0
ARC
  8
ENTITYA19764
  6
CONTINUOUS
 62
1
 10
260.871450
 20
111.468187
 40
4.800000
 50
0.000000
 51
90.000000
  0
ARC
  8
ENTITYA19764
  6
CONTINUOUS
 62
1
 10
235.071450
 20
122.668187
 40
2.400000
 50
90.000000
 51
180.000000
  0
LINE
  8
ENTITYA19764
  6
CONTINUOUS
 62
1
 10
260.071450
 20
82.968187
 11
235.071450
 21
82.968187
  0
LINE
  8
ENTITYA19764
  6
CONTINUOUS
 62
1
 10
262.471450
 20
85.368187
 11
262.471450
 21
87.768187
  0
LINE
  8
ENTITYA19764
  6
CONTINUOUS
 62
1
 10
262.471450
 20
87.768187
 11
239.431450
 21
87.768187
  0
LINE
  8
ENTITYA19764
  6
CONTINUOUS
 62
1
 10
239.771450
 20
118.268187
 11
239.851450
 21
118.268187
  0
LINE
  8
ENTITYA19764
  6
CONTINUOUS
 62
1
 10
239.851450
 20
113.468187
 11
241.371450
 21
113.468187
  0
LINE
  8
ENTITYA19764
  6
CONTINUOUS
 62
1
 10
241.371450
 20
113.468187
 11
241.371450
 21
112.068187
  0
LINE
  8
ENTITYA19764
  6
CONTINUOUS
 62
1
 10
240.371450
 20
111.068187
 11
239.031450
 21
111.068187
  0
LINE
  8
ENTITYA19764
  6
CONTINUOUS
 62
1
 10
237.431450
 20
109.468187
 11
237.431450
 21
89.768187
  0
ARC
  8
ENTITYA19764
  6
CONTINUOUS
 62
1
 10
260.071450
 20
85.368187
 40
2.400000
 50
270.000000
 51
0.000000
  0
ARC
  8
ENTITYA19764
  6
CONTINUOUS
 62
1
 10
235.071450
 20
85.368187
 40
2.400000
 50
180.000000
 51
270.000000
  0
ARC
  8
ENTITYA19764
  6
CONTINUOUS
 62
1
 10
239.771450
 20
119.068187
 40
0.800000
 50
270.000000
 51
90.000000
  0
ARC
  8
ENTITYA19764
  6
CONTINUOUS
 62
1
 10
239.031450
 20
109.468187
 40
1.600000
 50
90.000000
 51
180.000000
  0
ARC
  8
ENTITYA19764
  6
CONTINUOUS
 62
1
 10
240.371450
 20
112.068187
 40
1.000000
 50
270.000000
 51
0.000000
  0
LINE
  8
ENTITYA19764
  6
CONTINUOUS
 62
1
 10
255.671450
 20
119.868187
 11
232.671450
 21
119.868187
  0
LINE
  8
ENTITYA19764
  6
CONTINUOUS
 62
1
 10
275.171450
 20
88.068187
 11
254.571450
 21
88.068187
  0
LINE
  8
ENTITYA19764
  6
CONTINUOUS
 62
1
 10
275.171450
 20
88.068187
 11
275.171450
 21
91.268187
  0
LINE
  8
ENTITYA19764
  6
CONTINUOUS
 62
1
 10
270.270598
 20
92.373504
 11
275.171450
 21
91.268187
  0
LINE
  8
ENTITYA19764
  6
CONTINUOUS
 62
1
 10
268.771450
 20
93.970322
 11
268.771450
 21
114.455735
  0
LINE
  8
ENTITYA19764
  6
CONTINUOUS
 62
1
 10
275.171450
 20
116.668187
 11
275.171450
 21
119.868187
  0
LINE
  8
ENTITYA19764
  6
CONTINUOUS
 62
1
 10
270.172994
 20
116.043380
 11
275.171450
 21
116.668187
  0
ARC
  8
ENTITYA19764
  6
CONTINUOUS
 62
1
 10
270.371450
 20
93.970322
 40
1.600000
 50
180.000000
 51
266.386119
  0
LINE
  8
ENTITYA19764
  6
CONTINUOUS
 62
1
 10
238.051450
 20
116.468187
 11
238.051450
 21
115.268187
  0
ARC
  8
ENTITYA19764
  6
CONTINUOUS
 62
1
 10
239.851450
 20
115.268187
 40
1.800000
 50
180.000000
 51
270.000000
  0
ARC
  8
ENTITYA19764
  6
CONTINUOUS
 62
1
 10
239.851450
 20
116.468187
 40
1.800000
 50
90.000000
 51
180.000000
  0
LINE
  8
ENTITYA19764
  6
CONTINUOUS
 62
1
 10
238.837072
 20
115.433677
 11
238.837072
 21
116.201626
  0
LINE
  8
ENTITYA19764
  6
CONTINUOUS
 62
1
 10
246.337072
 20
118.909064
 11
246.337072
 21
118.067651
  0
LINE
  8
ENTITYA19764
  6
CONTINUOUS
 62
1
 10
245.337072
 20
118.067651
 11
245.337072
 21
118.409064
  0
LINE
  8
ENTITYA19764
  6
CONTINUOUS
 62
1
 10
241.737072
 20
115.067651
 11
241.737072
 21
119.371196
  0
ARC
  8
ENTITYA19764
  6
CONTINUOUS
 62
1
 10
241.237072
 20
119.371196
 40
0.500000
 50
0.000000
 51
90.000000
  0
ARC
  8
ENTITYA19764
  6
CONTINUOUS
 62
1
 10
241.237072
 20
119.371196
 40
0.500000
 50
90.000000
 51
180.000000
  0
LINE
  8
ENTITYA19764
  6
CONTINUOUS
 62
1
 10
239.337072
 20
113.567651
 11
241.837072
 21
113.567651
  0
ARC
  8
ENTITYA19764
  6
CONTINUOUS
 62
1
 10
241.837072
 20
118.067651
 40
4.500000
 50
270.000000
 51
0.000000
  0
LINE
  8
ENTITYA19764
  6
CONTINUOUS
 62
1
 10
243.639848
 20
115.067651
 11
241.737072
 21
115.067651
  0
ARC
  8
ENTITYA19764
  6
CONTINUOUS
 62
1
 10
241.837072
 20
118.067651
 40
3.500000
 50
301.002719
 51
0.000000
  0
ARC
  8
ENTITYA19764
  6
CONTINUOUS
 62
1
 10
239.337072
 20
114.567651
 40
1.000000
 50
120.000000
 51
270.000000
  0
LINE
  8
ENTITYA19764
  6
CONTINUOUS
 62
1
 10
240.737072
 20
119.371196
 11
240.737072
 21
118.067651
  0
ARC
  8
ENTITYA19764
  6
CONTINUOUS
 62
1
 10
239.337072
 20
117.067651
 40
1.000000
 50
90.000000
 51
240.000000
  0
LINE
  8
ENTITYA19764
  6
CONTINUOUS
 62
1
 10
244.175948
 20
119.909064
 11
245.337072
 21
119.909064
  0
LINE
  8
ENTITYA19764
  6
CONTINUOUS
 62
1
 10
244.837072
 20
118.909064
 11
244.192463
 21
118.909064
  0
ARC
  8
ENTITYA19764
  6
CONTINUOUS
 62
1
 10
244.192463
 20
118.409064
 40
0.500000
 50
90.000000
 51
156.421822
  0
ARC
  8
ENTITYA19764
  6
CONTINUOUS
 62
1
 10
243.534461
 20
119.176198
 40
0.500000
 50
129.902782
 51
255.661366
  0
LINE
  8
ENTITYA19764
  6
CONTINUOUS
 62
1
 10
243.734205
 20
118.609064
 11
243.410635
 21
118.691773
  0
ARC
  8
ENTITYA19764
  6
CONTINUOUS
 62
1
 10
244.175948
 20
118.409064
 40
1.500000
 50
90.000000
 51
129.902782
  0
ARC
  8
ENTITYA19764
  6
CONTINUOUS
 62
1
 10
244.837072
 20
118.409064
 40
0.500000
 50
0.000000
 51
90.000000
  0
ARC
  8
ENTITYA19764
  6
CONTINUOUS
 62
1
 10
245.337072
 20
118.909064
 40
1.000000
 50
0.000000
 51
90.000000
  0
LINE
  8
ENTITYA19764
  6
CONTINUOUS
 62
1
 10
240.737072
 20
118.067651
 11
239.337072
 21
118.067651
  0
ARC
  8
ENTITYA19764
  6
CONTINUOUS
 62
1
 10
239.431450
 20
89.768187
 40
2.000000
 50
180.000000
 51
270.000000
  0
LINE
  8
ENTITYA19764
  6
CONTINUOUS
 62
1
 10
235.071450
 20
82.968187
 11
213.986197
 21
82.968187
  0
LINE
  8
ENTITYA19764
  6
CONTINUOUS
 62
1
 10
235.071450
 20
125.068187
 11
213.986197
 21
125.068187
  0
LINE
  8
ENTITYA19764
  6
RANDOM
 62
1
 10
213.986197
 20
125.068187
 11
213.986197
 21
82.968187
  0
LINE
  8
ENTITYA19764
  6
CONTINUOUS
 62
1
 10
160.779649
 20
119.868187
 11
141.179649
 21
119.868187
  0
LINE
  8
ENTITYA19764
  6
CONTINUOUS
 62
1
 10
141.179649
 20
119.868187
 11
141.179649
 21
116.668187
  0
LINE
  8
ENTITYA19764
  6
CONTINUOUS
 62
1
 10
152.232546
 20
115.607108
 11
141.179649
 21
116.668187
  0
LINE
  8
ENTITYA19764
  6
CONTINUOUS
 62
1
 10
153.679649
 20
114.014431
 11
153.679649
 21
85.368187
  0
ARC
  8
ENTITYA19764
  6
CONTINUOUS
 62
1
 10
152.079649
 20
114.014431
 40
1.600000
 50
0.000000
 51
84.516410
  0
LINE
  8
ENTITYA19764
  6
CONTINUOUS
 62
1
 10
141.179649
 20
119.868187
 11
132.129988
 21
119.868187
  0
LINE
  8
ENTITYA19764
  6
CONTINUOUS
 62
1
 10
141.179649
 20
116.668187
 11
132.129988
 21
116.668187
  0
LINE
  8
ENTITYA19764
  6
CONTINUOUS
 62
1
 10
186.679649
 20
111.468187
 11
186.679649
 21
111.468187
  0
LINE
  8
ENTITYA19764
  6
CONTINUOUS
 62
1
 10
178.679649
 20
117.868187
 11
178.679649
 21
117.868187
  0
LINE
  8
ENTITYA19764
  6
CONTINUOUS
 62
1
 10
180.279649
 20
116.268187
 11
181.879649
 21
116.268187
  0
ARC
  8
ENTITYA19764
  6
CONTINUOUS
 62
1
 10
180.279649
 20
117.868187
 40
1.600000
 50
180.000000
 51
270.000000
  0
ARC
  8
ENTITYA19764
  6
CONTINUOUS
 62
1
 10
176.679649
 20
117.868187
 40
2.000000
 50
0.000000
 51
90.000000
  0
LINE
  8
ENTITYA19764
  6
CONTINUOUS
 62
1
 10
175.579649
 20
88.068187
 11
175.579649
 21
89.831837
  0
LINE
  8
ENTITYA19764
  6
CONTINUOUS
 62
1
 10
184.537605
 20
92.236614
 11
177.007678
 21
91.422568
  0
LINE
  8
ENTITYA19764
  6
CONTINUOUS
 62
1
 10
196.179649
 20
116.668187
 11
196.179649
 21
119.868187
  0
LINE
  8
ENTITYA19764
  6
CONTINUOUS
 62
1
 10
191.181193
 20
116.043380
 11
196.179649
 21
116.668187
  0
LINE
  8
ENTITYA19764
  6
CONTINUOUS
 62
1
 10
183.479649
 20
121.468187
 11
183.479649
 21
122.668187
  0
LINE
  8
ENTITYA19764
  6
CONTINUOUS
 62
1
 10
181.079649
 20
125.068187
 11
156.079649
 21
125.068187
  0
LINE
  8
ENTITYA19764
  6
CONTINUOUS
 62
1
 10
196.179649
 20
119.868187
 11
185.079649
 21
119.868187
  0
LINE
  8
ENTITYA19764
  6
CONTINUOUS
 62
1
 10
153.679649
 20
122.668187
 11
153.679649
 21
119.868187
  0
ARC
  8
ENTITYA19764
  6
CONTINUOUS
 62
1
 10
185.079649
 20
121.468187
 40
1.600000
 50
180.000000
 51
270.000000
  0
ARC
  8
ENTITYA19764
  6
CONTINUOUS
 62
1
 10
181.079649
 20
122.668187
 40
2.400000
 50
0.000000
 51
90.000000
  0
ARC
  8
ENTITYA19764
  6
CONTINUOUS
 62
1
 10
191.379649
 20
114.455735
 40
1.600000
 50
97.125016
 51
180.000000
  0
ARC
  8
ENTITYA19764
  6
CONTINUOUS
 62
1
 10
177.179649
 20
89.831837
 40
1.600000
 50
96.170175
 51
180.000000
  0
ARC
  8
ENTITYA19764
  6
CONTINUOUS
 62
1
 10
184.279649
 20
94.622711
 40
2.400000
 50
276.170175
 51
0.000000
  0
LINE
  8
ENTITYA19764
  6
CONTINUOUS
 62
1
 10
186.679649
 20
94.622711
 11
186.679649
 21
111.468187
  0
ARC
  8
ENTITYA19764
  6
CONTINUOUS
 62
1
 10
181.879649
 20
111.468187
 40
4.800000
 50
0.000000
 51
90.000000
  0
ARC
  8
ENTITYA19764
  6
CONTINUOUS
 62
1
 10
156.079649
 20
122.668187
 40
2.400000
 50
90.000000
 51
180.000000
  0
LINE
  8
ENTITYA19764
  6
CONTINUOUS
 62
1
 10
181.079649
 20
82.968187
 11
156.079649
 21
82.968187
  0
LINE
  8
ENTITYA19764
  6
CONTINUOUS
 62
1
 10
183.479649
 20
85.368187
 11
183.479649
 21
87.768187
  0
LINE
  8
ENTITYA19764
  6
CONTINUOUS
 62
1
 10
183.479649
 20
87.768187
 11
160.439649
 21
87.768187
  0
LINE
  8
ENTITYA19764
  6
CONTINUOUS
 62
1
 10
160.779649
 20
118.268187
 11
160.859649
 21
118.268187
  0
LINE
  8
ENTITYA19764
  6
CONTINUOUS
 62
1
 10
160.859649
 20
113.468187
 11
162.379649
 21
113.468187
  0
LINE
  8
ENTITYA19764
  6
CONTINUOUS
 62
1
 10
162.379649
 20
113.468187
 11
162.379649
 21
112.068187
  0
LINE
  8
ENTITYA19764
  6
CONTINUOUS
 62
1
 10
161.379649
 20
111.068187
 11
160.039649
 21
111.068187
  0
LINE
  8
ENTITYA19764
  6
CONTINUOUS
 62
1
 10
158.439649
 20
109.468187
 11
158.439649
 21
89.768187
  0
ARC
  8
ENTITYA19764
  6
CONTINUOUS
 62
1
 10
181.079649
 20
85.368187
 40
2.400000
 50
270.000000
 51
0.000000
  0
ARC
  8
ENTITYA19764
  6
CONTINUOUS
 62
1
 10
156.079649
 20
85.368187
 40
2.400000
 50
180.000000
 51
270.000000
  0
ARC
  8
ENTITYA19764
  6
CONTINUOUS
 62
1
 10
160.779649
 20
119.068187
 40
0.800000
 50
270.000000
 51
90.000000
  0
ARC
  8
ENTITYA19764
  6
CONTINUOUS
 62
1
 10
160.039649
 20
109.468187
 40
1.600000
 50
90.000000
 51
180.000000
  0
ARC
  8
ENTITYA19764
  6
CONTINUOUS
 62
1
 10
161.379649
 20
112.068187
 40
1.000000
 50
270.000000
 51
0.000000
  0
LINE
  8
ENTITYA19764
  6
CONTINUOUS
 62
1
 10
176.679649
 20
119.868187
 11
153.679649
 21
119.868187
  0
LINE
  8
ENTITYA19764
  6
CONTINUOUS
 62
1
 10
196.179649
 20
88.068187
 11
175.579649
 21
88.068187
  0
LINE
  8
ENTITYA19764
  6
CONTINUOUS
 62
1
 10
196.179649
 20
88.068187
 11
196.179649
 21
91.268187
  0
LINE
  8
ENTITYA19764
  6
CONTINUOUS
 62
1
 10
191.278797
 20
92.373504
 11
196.179649
 21
91.268187
  0
LINE
  8
ENTITYA19764
  6
CONTINUOUS
 62
1
 10
189.779649
 20
93.970322
 11
189.779649
 21
114.455735
  0
LINE
  8
ENTITYA19764
  6
CONTINUOUS
 62
1
 10
196.179649
 20
116.668187
 11
196.179649
 21
119.868187
  0
LINE
  8
ENTITYA19764
  6
CONTINUOUS
 62
1
 10
191.181193
 20
116.043380
 11
196.179649
 21
116.668187
  0
ARC
  8
ENTITYA19764
  6
CONTINUOUS
 62
1
 10
191.379649
 20
93.970322
 40
1.600000
 50
180.000000
 51
266.386119
  0
LINE
  8
ENTITYA19764
  6
CONTINUOUS
 62
1
 10
159.059649
 20
116.468187
 11
159.059649
 21
115.268187
  0
ARC
  8
ENTITYA19764
  6
CONTINUOUS
 62
1
 10
160.859649
 20
115.268187
 40
1.800000
 50
180.000000
 51
270.000000
  0
ARC
  8
ENTITYA19764
  6
CONTINUOUS
 62
1
 10
160.859649
 20
116.468187
 40
1.800000
 50
90.000000
 51
180.000000
  0
LINE
  8
ENTITYA19764
  6
CONTINUOUS
 62
1
 10
159.845271
 20
115.433677
 11
159.845271
 21
116.201626
  0
LINE
  8
ENTITYA19764
  6
CONTINUOUS
 62
1
 10
167.345271
 20
118.909064
 11
167.345271
 21
118.067651
  0
LINE
  8
ENTITYA19764
  6
CONTINUOUS
 62
1
 10
166.345271
 20
118.067651
 11
166.345271
 21
118.409064
  0
LINE
  8
ENTITYA19764
  6
CONTINUOUS
 62
1
 10
162.745271
 20
115.067651
 11
162.745271
 21
119.371196
  0
ARC
  8
ENTITYA19764
  6
CONTINUOUS
 62
1
 10
162.245271
 20
119.371196
 40
0.500000
 50
0.000000
 51
90.000000
  0
ARC
  8
ENTITYA19764
  6
CONTINUOUS
 62
1
 10
162.245271
 20
119.371196
 40
0.500000
 50
90.000000
 51
180.000000
  0
LINE
  8
ENTITYA19764
  6
CONTINUOUS
 62
1
 10
160.345271
 20
113.567651
 11
162.845271
 21
113.567651
  0
ARC
  8
ENTITYA19764
  6
CONTINUOUS
 62
1
 10
162.845271
 20
118.067651
 40
4.500000
 50
270.000000
 51
0.000000
  0
LINE
  8
ENTITYA19764
  6
CONTINUOUS
 62
1
 10
164.648047
 20
115.067651
 11
162.745271
 21
115.067651
  0
ARC
  8
ENTITYA19764
  6
CONTINUOUS
 62
1
 10
162.845271
 20
118.067651
 40
3.500000
 50
301.002719
 51
0.000000
  0
ARC
  8
ENTITYA19764
  6
CONTINUOUS
 62
1
 10
160.345271
 20
114.567651
 40
1.000000
 50
120.000000
 51
270.000000
  0
LINE
  8
ENTITYA19764
  6
CONTINUOUS
 62
1
 10
161.745271
 20
119.371196
 11
161.745271
 21
118.067651
  0
ARC
  8
ENTITYA19764
  6
CONTINUOUS
 62
1
 10
160.345271
 20
117.067651
 40
1.000000
 50
90.000000
 51
240.000000
  0
LINE
  8
ENTITYA19764
  6
CONTINUOUS
 62
1
 10
165.184146
 20
119.909064
 11
166.345271
 21
119.909064
  0
LINE
  8
ENTITYA19764
  6
CONTINUOUS
 62
1
 10
165.845271
 20
118.909064
 11
165.200661
 21
118.909064
  0
ARC
  8
ENTITYA19764
  6
CONTINUOUS
 62
1
 10
165.200661
 20
118.409064
 40
0.500000
 50
90.000000
 51
156.421822
  0
ARC
  8
ENTITYA19764
  6
CONTINUOUS
 62
1
 10
164.542659
 20
119.176198
 40
0.500000
 50
129.902782
 51
255.661366
  0
LINE
  8
ENTITYA19764
  6
CONTINUOUS
 62
1
 10
164.742404
 20
118.609064
 11
164.418833
 21
118.691773
  0
ARC
  8
ENTITYA19764
  6
CONTINUOUS
 62
1
 10
165.184146
 20
118.409064
 40
1.500000
 50
90.000000
 51
129.902782
  0
ARC
  8
ENTITYA19764
  6
CONTINUOUS
 62
1
 10
165.845271
 20
118.409064
 40
0.500000
 50
0.000000
 51
90.000000
  0
ARC
  8
ENTITYA19764
  6
CONTINUOUS
 62
1
 10
166.345271
 20
118.909064
 40
1.000000
 50
0.000000
 51
90.000000
  0
LINE
  8
ENTITYA19764
  6
CONTINUOUS
 62
1
 10
161.745271
 20
118.067651
 11
160.345271
 21
118.067651
  0
ARC
  8
ENTITYA19764
  6
CONTINUOUS
 62
1
 10
160.439649
 20
89.768187
 40
2.000000
 50
180.000000
 51
270.000000
  0
LINE
  8
ENTITYA19764
  6
CONTINUOUS
 62
1
 10
156.079649
 20
82.968187
 11
132.129988
 21
82.968187
  0
LINE
  8
ENTITYA19764
  6
CONTINUOUS
 62
1
 10
156.079649
 20
125.068187
 11
132.129988
 21
125.068187
  0
LINE
  8
ENTITYA19764
  6
RANDOM
 62
1
 10
132.129988
 20
125.068187
 11
132.129988
 21
82.968187
  0
LINE
  8
ENTITYA19764
  6
CONTINUOUS
 62
1
 10
163.179649
 20
118.221484
 11
163.179649
 21
118.221484
  0
LINE
  8
ENTITYA19764
  6
CONTINUOUS
 62
1
 10
163.179649
 20
119.221484
 11
163.179649
 21
119.221484
  0
LINE
  8
ENTITYA19764
  6
CONTINUOUS
 62
1
 10
163.179649
 20
118.259978
 11
163.179649
 21
118.259978
  0
LINE
  8
ENTITYA19764
  6
CONTINUOUS
 62
1
 10
141.779649
 20
104.118187
 11
151.279649
 21
104.118187
  0
LINE
  8
ENTITYA19764
  6
CONTINUOUS
 62
1
 10
153.179649
 20
94.368187
 11
147.957296
 21
94.368187
  0
LINE
  8
ENTITYA19764
  6
CONTINUOUS
 62
1
 10
139.086901
 20
106.982163
 11
141.260033
 21
103.218187
  0
ARC
  8
ENTITYA19764
  6
CONTINUOUS
 62
1
 10
141.779649
 20
103.518187
 40
0.600000
 50
90.000000
 51
210.000000
  0
LINE
  8
ENTITYA19764
  6
CONTINUOUS
 62
1
 10
151.679649
 20
103.733872
 11
151.679649
 21
103.718187
  0
LINE
  8
ENTITYA19764
  6
CONTINUOUS
 62
1
 10
150.179649
 20
103.368187
 11
150.179649
 21
102.568187
  0
LINE
  8
ENTITYA19764
  6
CONTINUOUS
 62
1
 10
146.979649
 20
103.118187
 11
146.979649
 21
102.868187
  0
LINE
  8
ENTITYA19764
  6
CONTINUOUS
 62
1
 10
150.576095
 20
102.568187
 11
150.179649
 21
102.568187
  0
LINE
  8
ENTITYA19764
  6
CONTINUOUS
 62
1
 10
150.179649
 20
103.368187
 11
148.123986
 21
103.368187
  0
LINE
  8
ENTITYA19764
  6
CONTINUOUS
 62
1
 10
147.907480
 20
103.243187
 11
147.763142
 21
102.993187
  0
LINE
  8
ENTITYA19764
  6
CONTINUOUS
 62
1
 10
146.979649
 20
102.868187
 11
147.546636
 21
102.868187
  0
LINE
  8
ENTITYA19764
  6
CONTINUOUS
 62
1
 10
150.752872
 20
102.641410
 11
151.562491
 21
103.451029
  0
ARC
  8
ENTITYA19764
  6
CONTINUOUS
 62
1
 10
151.279649
 20
103.718187
 40
0.400000
 50
0.000000
 51
90.000000
  0
ARC
  8
ENTITYA19764
  6
CONTINUOUS
 62
1
 10
151.279649
 20
103.733872
 40
0.400000
 50
315.000000
 51
0.000000
  0
ARC
  8
ENTITYA19764
  6
CONTINUOUS
 62
1
 10
150.576095
 20
102.818187
 40
0.250000
 50
270.000000
 51
315.000000
  0
ARC
  8
ENTITYA19764
  6
CONTINUOUS
 62
1
 10
148.123986
 20
103.118187
 40
0.250000
 50
90.000000
 51
150.000000
  0
ARC
  8
ENTITYA19764
  6
CONTINUOUS
 62
1
 10
147.546636
 20
103.118187
 40
0.250000
 50
270.000000
 51
330.000000
  0
LINE
  8
ENTITYA19764
  6
CONTINUOUS
 62
1
 10
146.979649
 20
103.118187
 11
142.905482
 21
103.118187
  0
LINE
  8
ENTITYA19764
  6
CONTINUOUS
 62
1
 10
147.841826
 20
93.818187
 11
147.740790
 21
93.993187
  0
LINE
  8
ENTITYA19764
  6
CONTINUOUS
 62
1
 10
147.091271
 20
95.368187
 11
150.179649
 21
95.368187
  0
ARC
  8
ENTITYA19764
  6
CONTINUOUS
 62
1
 10
142.905482
 20
102.868187
 40
0.250000
 50
90.000000
 51
210.000000
  0
ARC
  8
ENTITYA19764
  6
CONTINUOUS
 62
1
 10
147.408814
 20
93.568187
 40
0.500000
 50
210.000000
 51
270.000000
  0
ARC
  8
ENTITYA19764
  6
CONTINUOUS
 62
1
 10
147.408814
 20
93.568187
 40
0.500000
 50
270.000000
 51
30.000000
  0
LINE
  8
ENTITYA19764
  6
CONTINUOUS
 62
1
 10
146.874765
 20
95.493187
 11
142.688975
 21
102.743187
  0
ARC
  8
ENTITYA19764
  6
CONTINUOUS
 62
1
 10
147.957296
 20
94.118187
 40
0.250000
 50
90.000000
 51
210.000000
  0
ARC
  8
ENTITYA19764
  6
CONTINUOUS
 62
1
 10
147.091271
 20
95.618187
 40
0.250000
 50
210.000000
 51
270.000000
  0
ARC
  8
ENTITYA19764
  6
CONTINUOUS
 62
1
 10
153.179649
 20
94.868187
 40
0.500000
 50
270.000000
 51
0.000000
  0
ARC
  8
ENTITYA19764
  6
CONTINUOUS
 62
1
 10
153.179649
 20
94.868187
 40
0.500000
 50
0.000000
 51
90.000000
  0
LINE
  8
ENTITYA19764
  6
CONTINUOUS
 62
1
 10
150.179649
 20
96.068187
 11
150.179649
 21
95.368187
  0
LINE
  8
ENTITYA19764
  6
CONTINUOUS
 62
1
 10
150.576095
 20
96.068187
 11
150.179649
 21
96.068187
  0
LINE
  8
ENTITYA19764
  6
CONTINUOUS
 62
1
 10
150.752872
 20
95.994963
 11
151.306425
 21
95.441410
  0
LINE
  8
ENTITYA19764
  6
CONTINUOUS
 62
1
 10
151.483202
 20
95.368187
 11
153.179649
 21
95.368187
  0
ARC
  8
ENTITYA19764
  6
CONTINUOUS
 62
1
 10
150.576095
 20
95.818187
 40
0.250000
 50
45.000000
 51
90.000000
  0
ARC
  8
ENTITYA19764
  6
CONTINUOUS
 62
1
 10
151.483202
 20
95.618187
 40
0.250000
 50
225.000000
 51
270.000000
  0
LINE
  8
ENTITYA19764
  6
DASHED
 62
1
 10
148.079649
 20
95.418187
 11
150.179649
 21
95.418187
  0
LINE
  8
ENTITYA19764
  6
DASHED
 62
1
 10
150.179649
 20
103.318187
 11
150.179649
 21
95.418187
  0
LINE
  8
ENTITYA19764
  6
DASHED
 62
1
 10
153.679649
 20
96.168187
 11
150.179649
 21
96.168187
  0
LINE
  8
ENTITYA19764
  6
DASHED
 62
1
 10
157.679649
 20
101.368187
 11
157.679649
 21
97.368187
  0
LINE
  8
ENTITYA19764
  6
DASHED
 62
1
 10
154.879649
 20
96.868187
 11
158.439649
 21
96.868187
  0
LINE
  8
ENTITYA19764
  6
DASHED
 62
1
 10
147.079649
 20
97.150237
 11
147.079649
 21
98.768187
  0
LINE
  8
ENTITYA19764
  6
DASHED
 62
1
 10
148.079649
 20
95.418187
 11
148.079649
 21
98.768187
  0
LINE
  8
ENTITYA19764
  6
DASHED
 62
1
 10
148.079649
 20
95.418187
 11
147.079649
 21
97.150237
  0
LINE
  8
ENTITYA19764
  6
DASHED
 62
1
 10
154.879649
 20
101.868187
 11
154.879649
 21
96.868187
  0
LINE
  8
ENTITYA19764
  6
DASHED
 62
1
 10
154.879649
 20
97.368187
 11
153.679649
 21
97.368187
  0
LINE
  8
ENTITYA19764
  6
DASHED
 62
1
 10
148.079649
 20
103.318187
 11
150.179649
 21
103.318187
  0
LINE
  8
ENTITYA19764
  6
DASHED
 62
1
 10
153.679649
 20
102.568187
 11
150.179649
 21
102.568187
  0
LINE
  8
ENTITYA19764
  6
DASHED
 62
1
 10
154.879649
 20
101.868187
 11
158.439649
 21
101.868187
  0
LINE
  8
ENTITYA19764
  6
DASHED
 62
1
 10
148.079649
 20
103.318187
 11
147.079649
 21
101.586136
  0
LINE
  8
ENTITYA19764
  6
DASHED
 62
1
 10
154.879649
 20
101.368187
 11
153.679649
 21
101.368187
  0
LINE
  8
ENTITYA19764
  6
DASHED
 62
1
 10
148.679649
 20
99.968187
 11
148.679649
 21
98.768187
  0
LINE
  8
ENTITYA19764
  6
DASHED
 62
1
 10
148.679649
 20
98.768187
 11
147.079649
 21
98.768187
  0
LINE
  8
ENTITYA19764
  6
DASHED
 62
1
 10
147.079649
 20
99.968187
 11
148.679649
 21
99.968187
  0
LINE
  8
ENTITYA19764
  6
DASHED
 62
1
 10
147.079649
 20
99.968187
 11
147.079649
 21
101.586136
  0
LINE
  8
ENTITYA19764
  6
DASHED
 62
1
 10
148.079649
 20
99.968187
 11
148.079649
 21
103.318187
  0
LINE
  8
ENTITYA19764
  6
DASHED
 62
1
 10
158.439649
 20
97.368187
 11
154.879649
 21
97.368187
  0
LINE
  8
ENTITYA19764
  6
DASHED
 62
1
 10
158.439649
 20
101.368187
 11
154.879649
 21
101.368187
  0
LINE
  8
ENTITYA19764
  6
DASHED
 62
1
 10
157.179649
 20
96.868187
 11
157.179649
 21
101.868187
  0
LINE
  8
ENTITYA19764
  6
DASHED
 62
1
 10
157.179649
 20
101.868187
 11
157.679649
 21
101.368187
  0
LINE
  8
ENTITYA19764
  6
DASHED
 62
1
 10
157.679649
 20
97.368187
 11
157.179649
 21
96.868187
  0
LINE
  8
ENTITYA19764
  6
DASHED
 62
1
 10
148.079649
 20
103.318187
 11
148.079649
 21
99.968187
  0
LINE
  8
ENTITYA19764
  6
DASHED
 62
1
 10
154.879649
 20
101.868187
 11
153.679649
 21
101.868187
  0
LINE
  8
ENTITYA19764
  6
DASHED
 62
1
 10
154.879649
 20
96.868187
 11
153.679649
 21
96.868187
  0
LINE
  8
ENTITYA19764
  6
CONTINUOUS
 62
1
 10
149.679649
 20
112.982163
 11
149.679649
 21
106.982163
  0
LINE
  8
ENTITYA19764
  6
CONTINUOUS
 62
1
 10
149.679649
 20
109.982163
 11
132.129988
 21
109.982163
  0
LINE
  8
ENTITYA19764
  6
CONTINUOUS
 62
1
 10
132.129988
 20
112.982163
 11
149.679649
 21
112.982163
  0
LINE
  8
ENTITYA19764
  6
CONTINUOUS
 62
1
 10
132.129988
 20
106.982163
 11
149.679649
 21
106.982163
  0
LINE
  8
ENTITYA19764
  6
CONTINUOUS
 62
1
 10
132.129988
 20
108.982163
 11
149.679649
 21
108.982163
  0
LINE
  8
ENTITYA19764
  6
CONTINUOUS
 62
1
 10
149.679649
 20
107.982163
 11
132.129988
 21
107.982163
  0
LINE
  8
ENTITYA19764
  6
CONTINUOUS
 62
1
 10
132.129988
 20
110.982163
 11
149.679649
 21
110.982163
  0
LINE
  8
ENTITYA19764
  6
CONTINUOUS
 62
1
 10
149.679649
 20
111.982163
 11
132.129988
 21
111.982163
  0
LINE
  8
ENTITYA19764
  6
CONTINUOUS
 62
1
 10
149.679649
 20
112.982163
 11
153.679649
 21
112.982163
  0
LINE
  8
ENTITYA19764
  6
CONTINUOUS
 62
1
 10
145.792233
 20
94.368187
 11
132.129988
 21
94.368187
  0
LINE
  8
ENTITYA19764
  6
RANDOM
 62
1
 10
143.409840
 20
112.982163
 11
143.409840
 21
116.419665
  0
LINE
  8
ENTITYA19764
  6
CONTINUOUS
 62
1
 10
142.409840
 20
116.514153
 11
142.409840
 21
112.982163
  0
LINE
  8
ENTITYA19764
  6
CONTINUOUS
 62
1
 10
141.409840
 20
112.982163
 11
141.409840
 21
116.608641
  0
LINE
  8
ENTITYA19764
  6
CONTINUOUS
 62
1
 10
140.409840
 20
115.646074
 11
140.409840
 21
112.982163
  0
LINE
  8
ENTITYA19764
  6
CONTINUOUS
 62
1
 10
139.409840
 20
112.982163
 11
139.409840
 21
113.852294
  0
LINE
  8
ENTITYA19764
  6
CONTINUOUS
 62
1
 10
143.409840
 20
114.621174
 11
139.838476
 21
114.621174
  0
LINE
  8
ENTITYA19764
  6
CONTINUOUS
 62
1
 10
140.395958
 20
115.621174
 11
143.409840
 21
115.621174
  0
TEXT
  8
ENTITYA19764
  6
CONTINUOUS
 62
1
 10
151.009459
 20
115.358053
 40
2.500000
  1
%%d
 50
90.000000
 41
-1.000000
 51
0.000000
  7
STANDARD
  0
TEXT
  8
ENTITYA19764
  6
CONTINUOUS
 62
1
 10
147.486986
 20
115.020795
 40
2.500000
  1
%%d
 50
90.000000
 41
-1.000000
 51
0.000000
  7
STANDARD
  0
TEXT
  8
ENTITYA19764
  6
CONTINUOUS
 62
1
 10
152.658277
 20
115.170687
 40
0.500000
  1
%%d
 50
90.000000
 41
-1.000000
 51
0.000000
  7
STANDARD
  0
TEXT
  8
ENTITYA19764
  6
CONTINUOUS
 62
1
 10
152.620804
 20
114.496171
 40
0.500000
  1
%%d
 50
90.000000
 41
-1.000000
 51
0.000000
  7
STANDARD
  0
TEXT
  8
ENTITYA19764
  6
CONTINUOUS
 62
1
 10
148.273922
 20
114.083967
 40
0.500000
  1
%%d
 50
90.000000
 41
-1.000000
 51
0.000000
  7
STANDARD
  0
TEXT
  8
ENTITYA19764
  6
CONTINUOUS
 62
1
 10
144.639029
 20
114.233859
 40
0.500000
  1
%%d
 50
90.000000
 41
-1.000000
 51
0.000000
  7
STANDARD
  0
TEXT
  8
ENTITYA19764
  6
CONTINUOUS
 62
1
 10
144.264298
 20
114.421225
 40
0.500000
  1
%%d
 50
90.000000
 41
-1.000000
 51
0.000000
  7
STANDARD
  0
TEXT
  8
ENTITYA19764
  6
CONTINUOUS
 62
1
 10
144.189352
 20
115.882677
 40
0.500000
  1
%%d
 50
90.000000
 41
-1.000000
 51
0.000000
  7
STANDARD
  0
TEXT
  8
ENTITYA19764
  6
CONTINUOUS
 62
1
 10
144.639029
 20
115.170687
 40
0.500000
  1
%%d
 50
90.000000
 41
-1.000000
 51
0.000000
  7
STANDARD
  0
TEXT
  8
ENTITYA19764
  6
CONTINUOUS
 62
1
 10
145.688276
 20
115.995096
 40
0.500000
  1
%%d
 50
90.000000
 41
-1.000000
 51
0.000000
  7
STANDARD
  0
TEXT
  8
ENTITYA19764
  6
CONTINUOUS
 62
1
 10
147.374567
 20
115.995096
 40
0.500000
  1
%%d
 50
90.000000
 41
-1.000000
 51
0.000000
  7
STANDARD
  0
TEXT
  8
ENTITYA19764
  6
CONTINUOUS
 62
1
 10
148.985911
 20
115.657838
 40
0.500000
  1
%%d
 50
90.000000
 41
-1.000000
 51
0.000000
  7
STANDARD
  0
TEXT
  8
ENTITYA19764
  6
CONTINUOUS
 62
1
 10
148.611180
 20
114.683537
 40
0.500000
  1
%%d
 50
90.000000
 41
-1.000000
 51
0.000000
  7
STANDARD
  0
TEXT
  8
ENTITYA19764
  6
CONTINUOUS
 62
1
 10
150.971986
 20
115.582892
 40
0.500000
  1
%%d
 50
90.000000
 41
-1.000000
 51
0.000000
  7
STANDARD
  0
TEXT
  8
ENTITYA19764
  6
CONTINUOUS
 62
1
 10
151.983761
 20
115.545419
 40
0.500000
  1
%%d
 50
90.000000
 41
-1.000000
 51
0.000000
  7
STANDARD
  0
TEXT
  8
ENTITYA19764
  6
CONTINUOUS
 62
1
 10
150.934513
 20
114.533644
 40
0.500000
  1
%%d
 50
90.000000
 41
-1.000000
 51
0.000000
  7
STANDARD
  0
LINE
  8
ENTITYA19764
  6
CONTINUOUS
 62
1
 10
140.979649
 20
116.668187
 11
138.924758
 21
112.982163
  0
LINE
  8
ENTITYA19764
  6
CONTINUOUS
 62
1
 10
139.280995
 20
113.621174
 11
143.409840
 21
113.621174
  0
LINE
  8
ENTITYA19764
  6
CONTINUOUS
 62
1
 10
153.679649
 20
106.982163
 11
149.679649
 21
106.982163
  0
LINE
  8
ENTITYA19764
  6
CONTINUOUS
 62
1
 10
153.679649
 20
106.982163
 11
149.679649
 21
112.982163
  0
LINE
  8
ENTITYA19764
  6
CONTINUOUS
 62
1
 10
153.679649
 20
112.982163
 11
149.679649
 21
106.982163
  0
LINE
  8
ENTITYA19764
  6
RANDOM
 62
1
 10
152.909840
 20
115.380007
 11
152.909840
 21
112.982163
  0
LINE
  8
ENTITYA19764
  6
CONTINUOUS
 62
1
 10
141.260033
 20
103.218187
 11
146.975801
 21
93.318187
  0
LINE
  8
ENTITYA19764
  6
RANDOM
 62
1
 10
143.409840
 20
106.982163
 11
143.409840
 21
104.118187
  0
LINE
  8
ENTITYA19764
  6
CONTINUOUS
 62
1
 10
142.409840
 20
104.118187
 11
142.409840
 21
106.982163
  0
LINE
  8
ENTITYA19764
  6
CONTINUOUS
 62
1
 10
141.409840
 20
106.982163
 11
141.409840
 21
103.990671
  0
LINE
  8
ENTITYA19764
  6
CONTINUOUS
 62
1
 10
140.409840
 20
104.690765
 11
140.409840
 21
106.982163
  0
LINE
  8
ENTITYA19764
  6
CONTINUOUS
 62
1
 10
139.409840
 20
106.982163
 11
139.409840
 21
106.422816
  0
LINE
  8
ENTITYA19764
  6
CONTINUOUS
 62
1
 10
143.409840
 20
105.343152
 11
140.033184
 21
105.343152
  0
LINE
  8
ENTITYA19764
  6
CONTINUOUS
 62
1
 10
140.610534
 20
104.343152
 11
143.409840
 21
104.343152
  0
TEXT
  8
ENTITYA19764
  6
CONTINUOUS
 62
1
 10
151.009459
 20
104.606273
 40
2.500000
  1
%%d
 50
90.000000
 41
1.000000
 51
-0.000000
  7
STANDARD
  0
TEXT
  8
ENTITYA19764
  6
CONTINUOUS
 62
1
 10
147.486986
 20
104.943531
 40
2.500000
  1
%%d
 50
90.000000
 41
1.000000
 51
-0.000000
  7
STANDARD
  0
TEXT
  8
ENTITYA19764
  6
CONTINUOUS
 62
1
 10
149.622954
 20
104.044176
 40
2.500000
  1
%%d
 50
90.000000
 41
1.000000
 51
-0.000000
  7
STANDARD
  0
TEXT
  8
ENTITYA19764
  6
CONTINUOUS
 62
1
 10
152.658277
 20
104.793639
 40
0.500000
  1
%%d
 50
90.000000
 41
1.000000
 51
0.000000
  7
STANDARD
  0
TEXT
  8
ENTITYA19764
  6
CONTINUOUS
 62
1
 10
152.620804
 20
105.468155
 40
0.500000
  1
%%d
 50
90.000000
 41
1.000000
 51
0.000000
  7
STANDARD
  0
TEXT
  8
ENTITYA19764
  6
CONTINUOUS
 62
1
 10
148.273922
 20
105.880359
 40
0.500000
  1
%%d
 50
90.000000
 41
1.000000
 51
0.000000
  7
STANDARD
  0
TEXT
  8
ENTITYA19764
  6
CONTINUOUS
 62
1
 10
144.639029
 20
105.730467
 40
0.500000
  1
%%d
 50
90.000000
 41
1.000000
 51
0.000000
  7
STANDARD
  0
TEXT
  8
ENTITYA19764
  6
CONTINUOUS
 62
1
 10
144.264298
 20
105.543101
 40
0.500000
  1
%%d
 50
90.000000
 41
1.000000
 51
0.000000
  7
STANDARD
  0
TEXT
  8
ENTITYA19764
  6
CONTINUOUS
 62
1
 10
144.639029
 20
104.793639
 40
0.500000
  1
%%d
 50
90.000000
 41
1.000000
 51
0.000000
  7
STANDARD
  0
TEXT
  8
ENTITYA19764
  6
CONTINUOUS
 62
1
 10
148.985911
 20
104.306488
 40
0.500000
  1
%%d
 50
90.000000
 41
1.000000
 51
0.000000
  7
STANDARD
  0
TEXT
  8
ENTITYA19764
  6
CONTINUOUS
 62
1
 10
148.611180
 20
105.280789
 40
0.500000
  1
%%d
 50
90.000000
 41
1.000000
 51
0.000000
  7
STANDARD
  0
TEXT
  8
ENTITYA19764
  6
CONTINUOUS
 62
1
 10
150.971986
 20
104.381434
 40
0.500000
  1
%%d
 50
90.000000
 41
1.000000
 51
0.000000
  7
STANDARD
  0
TEXT
  8
ENTITYA19764
  6
CONTINUOUS
 62
1
 10
151.983761
 20
104.418907
 40
0.500000
  1
%%d
 50
90.000000
 41
1.000000
 51
0.000000
  7
STANDARD
  0
TEXT
  8
ENTITYA19764
  6
CONTINUOUS
 62
1
 10
150.934513
 20
105.430682
 40
0.500000
  1
%%d
 50
90.000000
 41
1.000000
 51
0.000000
  7
STANDARD
  0
LINE
  8
ENTITYA19764
  6
CONTINUOUS
 62
1
 10
139.455834
 20
106.343152
 11
143.409840
 21
106.343152
  0
TEXT
  8
ENTITYA19764
  6
CONTINUOUS
 62
1
 10
151.399449
 20
106.486009
 40
0.500000
  1
%%d
 50
90.000000
 41
1.000000
 51
0.000000
  7
STANDARD
  0
TEXT
  8
ENTITYA19764
  6
CONTINUOUS
 62
1
 10
149.351365
 20
106.299820
 40
0.500000
  1
%%d
 50
90.000000
 41
1.000000
 51
0.000000
  7
STANDARD
  0
TEXT
  8
ENTITYA19764
  6
CONTINUOUS
 62
1
 10
151.920779
 20
113.375018
 40
0.500000
  1
%%d
 50
90.000000
 41
1.000000
 51
0.000000
  7
STANDARD
  0
TEXT
  8
ENTITYA19764
  6
CONTINUOUS
 62
1
 10
150.356788
 20
113.300542
 40
0.500000
  1
%%d
 50
90.000000
 41
1.000000
 51
0.000000
  7
STANDARD
  0
TEXT
  8
ENTITYA19764
  6
CONTINUOUS
 62
1
 10
146.595762
 20
113.375018
 40
0.500000
  1
%%d
 50
90.000000
 41
1.000000
 51
0.000000
  7
STANDARD
  0
TEXT
  8
ENTITYA19764
  6
CONTINUOUS
 62
1
 10
145.404150
 20
113.226066
 40
0.500000
  1
%%d
 50
90.000000
 41
1.000000
 51
0.000000
  7
STANDARD
  0
TEXT
  8
ENTITYA19764
  6
CONTINUOUS
 62
1
 10
145.106246
 20
113.151590
 40
0.500000
  1
%%d
 50
90.000000
 41
1.000000
 51
0.000000
  7
STANDARD
  0
LINE
  8
ENTITYA19764
  6
CONTINUOUS
 62
1
 10
141.260033
 20
103.218187
 11
132.410373
 21
103.218187
  0
LINE
  8
ENTITYA19764
  6
CONTINUOUS
 62
1
 10
145.792233
 20
94.368187
 11
140.682683
 21
103.218187
  0
LINE
  8
ENTITYA19764
  6
CONTINUOUS
 62
1
 10
220.171450
 20
116.668187
 11
213.986197
 21
116.668187
  0
LINE
  8
ENTITYA19764
  6
CONTINUOUS
 62
1
 10
228.671450
 20
99.821174
 11
213.986197
 21
99.821174
  0
LINE
  8
ENTITYA19764
  6
CONTINUOUS
 62
1
 10
228.671450
 20
99.821174
 11
232.671450
 21
99.821174
  0
LINE
  8
ENTITYA19764
  6
CONTINUOUS
 62
1
 10
228.671450
 20
114.012241
 11
232.671450
 21
114.012241
  0
LINE
  8
ENTITYA19764
  6
CONTINUOUS
 62
1
 10
213.986197
 20
113.821174
 11
228.671450
 21
113.821174
  0
LINE
  8
ENTITYA19764
  6
CONTINUOUS
 62
1
 10
232.671450
 20
99.821174
 11
228.671450
 21
114.012241
  0
LINE
  8
ENTITYA19764
  6
CONTINUOUS
 62
1
 10
228.671450
 20
99.821174
 11
232.671450
 21
114.012241
  0
LINE
  8
ENTITYA19764
  6
CONTINUOUS
 62
1
 10
228.671450
 20
114.012241
 11
228.671450
 21
99.821174
  0
LINE
  8
ENTITYA19764
  6
CONTINUOUS
 62
1
 10
228.671450
 20
109.821174
 11
213.986197
 21
109.821174
  0
LINE
  8
ENTITYA19764
  6
CONTINUOUS
 62
1
 10
213.986197
 20
103.821174
 11
228.671450
 21
103.821174
  0
LINE
  8
ENTITYA19764
  6
CONTINUOUS
 62
1
 10
213.986197
 20
110.821174
 11
228.671450
 21
110.821174
  0
LINE
  8
ENTITYA19764
  6
CONTINUOUS
 62
1
 10
228.671450
 20
111.821174
 11
213.986197
 21
111.821174
  0
LINE
  8
ENTITYA19764
  6
CONTINUOUS
 62
1
 10
213.986197
 20
112.821174
 11
228.671450
 21
112.821174
  0
LINE
  8
ENTITYA19764
  6
CONTINUOUS
 62
1
 10
228.671450
 20
102.821174
 11
213.986197
 21
102.821174
  0
LINE
  8
ENTITYA19764
  6
CONTINUOUS
 62
1
 10
213.986197
 20
101.821174
 11
228.671450
 21
101.821174
  0
LINE
  8
ENTITYA19764
  6
CONTINUOUS
 62
1
 10
228.671450
 20
100.821174
 11
213.986197
 21
100.821174
  0
LINE
  8
ENTITYA19764
  6
CONTINUOUS
 62
1
 10
218.671450
 20
103.821174
 11
222.671450
 21
103.821174
  0
LINE
  8
ENTITYA19764
  6
CONTINUOUS
 62
1
 10
216.741259
 20
103.821174
 11
216.741259
 21
109.821174
  0
LINE
  8
ENTITYA19764
  6
CONTINUOUS
 62
1
 10
216.741259
 20
109.821174
 11
224.671450
 21
103.821174
  0
LINE
  8
ENTITYA19764
  6
CONTINUOUS
 62
1
 10
216.741259
 20
103.821174
 11
224.671450
 21
109.821174
  0
LINE
  8
ENTITYA19764
  6
CONTINUOUS
 62
1
 10
224.671450
 20
109.821174
 11
224.671450
 21
103.821174
  0
LINE
  8
ENTITYA19764
  6
CONTINUOUS
 62
1
 10
224.671450
 20
109.821174
 11
224.671450
 21
103.821174
  0
LINE
  8
ENTITYA19764
  6
DASHED
 62
1
 10
218.741259
 20
109.821174
 11
218.741259
 21
103.821174
  0
LINE
  8
ENTITYA19764
  6
DASHED
 62
1
 10
214.741259
 20
103.821174
 11
214.741259
 21
109.821174
  0
LINE
  8
ENTITYA19764
  6
CONTINUOUS
 62
1
 10
225.671450
 20
103.821174
 11
225.671450
 21
109.821174
  0
LINE
  8
ENTITYA19764
  6
CONTINUOUS
 62
1
 10
226.671450
 20
109.821174
 11
226.671450
 21
103.821174
  0
LINE
  8
ENTITYA19764
  6
CONTINUOUS
 62
1
 10
224.671450
 20
108.821174
 11
228.671450
 21
108.821174
  0
LINE
  8
ENTITYA19764
  6
CONTINUOUS
 62
1
 10
228.671450
 20
107.821174
 11
224.671450
 21
107.821174
  0
LINE
  8
ENTITYA19764
  6
CONTINUOUS
 62
1
 10
224.671450
 20
106.821174
 11
228.671450
 21
106.821174
  0
LINE
  8
ENTITYA19764
  6
CONTINUOUS
 62
1
 10
228.671450
 20
105.821174
 11
224.671450
 21
105.821174
  0
LINE
  8
ENTITYA19764
  6
CONTINUOUS
 62
1
 10
224.671450
 20
104.821174
 11
228.671450
 21
104.821174
  0
LINE
  8
ENTITYA19764
  6
CONTINUOUS
 62
1
 10
227.671450
 20
109.821174
 11
227.671450
 21
103.821174
  0
LINE
  8
ENTITYA19764
  6
CONTINUOUS
 62
1
 10
213.986197
 20
96.968187
 11
232.671450
 21
96.968187
  0
LINE
  8
ENTITYA19764
  6
CONTINUOUS
 62
1
 10
232.671450
 20
90.968187
 11
213.986197
 21
90.968187
  0
LINE
  8
ENTITYA19764
  6
CONTINUOUS
 62
1
 10
220.671450
 20
90.968187
 11
220.671450
 21
96.968187
  0
LINE
  8
ENTITYA19764
  6
DASHED
 62
1
 10
221.671451
 20
91.968187
 11
237.431450
 21
91.968187
  0
LINE
  8
ENTITYA19764
  6
DASHED
 62
1
 10
237.431450
 20
95.968186
 11
221.671451
 21
95.968186
  0
LINE
  8
ENTITYA19764
  6
DASHED
 62
1
 10
237.431450
 20
92.368187
 11
221.671451
 21
92.368187
  0
LINE
  8
ENTITYA19764
  6
DASHED
 62
1
 10
221.671451
 20
95.568186
 11
237.431450
 21
95.568186
  0
LINE
  8
ENTITYA19764
  6
DASHED
 62
1
 10
235.354042
 20
91.968187
 11
235.354042
 21
95.968186
  0
LINE
  8
ENTITYA19764
  6
DASHED
 62
1
 10
220.671450
 20
96.968187
 11
221.671451
 21
95.968186
  0
LINE
  8
ENTITYA19764
  6
DASHED
 62
1
 10
220.671450
 20
90.968187
 11
221.671451
 21
91.968187
  0
LINE
  8
ENTITYA19764
  6
DASHED
 62
1
 10
221.671451
 20
95.968186
 11
221.671451
 21
91.968187
  0
LINE
  8
ENTITYA19764
  6
RANDOM
 62
1
 10
222.601641
 20
99.821174
 11
222.601641
 21
96.968187
  0
LINE
  8
ENTITYA19764
  6
CONTINUOUS
 62
1
 10
221.601641
 20
96.968187
 11
221.601641
 21
99.821174
  0
LINE
  8
ENTITYA19764
  6
CONTINUOUS
 62
1
 10
220.601641
 20
99.821174
 11
220.601641
 21
97.033707
  0
LINE
  8
ENTITYA19764
  6
CONTINUOUS
 62
1
 10
219.601641
 20
97.986847
 11
219.601641
 21
99.821174
  0
LINE
  8
ENTITYA19764
  6
CONTINUOUS
 62
1
 10
218.601641
 20
99.821174
 11
218.601641
 21
98.939036
  0
LINE
  8
ENTITYA19764
  6
CONTINUOUS
 62
1
 10
222.601641
 20
99.021174
 11
218.515379
 21
99.021174
  0
LINE
  8
ENTITYA19764
  6
CONTINUOUS
 62
1
 10
219.565590
 20
98.021174
 11
222.601641
 21
98.021174
  0
LINE
  8
ENTITYA19764
  6
CONTINUOUS
 62
1
 10
217.675209
 20
99.821174
 11
220.671450
 21
96.968187
  0
LINE
  8
ENTITYA19764
  6
RANDOM
 62
1
 10
57.899971
 20
113.821174
 11
57.899971
 21
116.668187
  0
LINE
  8
ENTITYA19764
  6
RANDOM
 62
1
 10
66.899971
 20
115.804187
 11
66.899971
 21
114.012241
  0
TEXT
  8
ENTITYA19764
  6
CONTINUOUS
 62
1
 10
66.781717
 20
114.540661
 40
0.500000
  1
%%d
 50
90.000000
 41
-1.000000
 51
0.000000
  7
STANDARD
  0
TEXT
  8
ENTITYA19764
  6
CONTINUOUS
 62
1
 10
65.895531
 20
115.480555
 40
0.500000
  1
%%d
 50
90.000000
 41
-1.000000
 51
0.000000
  7
STANDARD
  0
TEXT
  8
ENTITYA19764
  6
CONTINUOUS
 62
1
 10
66.701154
 20
115.561117
 40
0.500000
  1
%%d
 50
90.000000
 41
-1.000000
 51
0.000000
  7
STANDARD
  0
TEXT
  8
ENTITYA19764
  6
CONTINUOUS
 62
1
 10
59.047731
 20
114.379536
 40
0.500000
  1
%%d
 50
90.000000
 41
-1.000000
 51
0.000000
  7
STANDARD
  0
TEXT
  8
ENTITYA19764
  6
CONTINUOUS
 62
1
 10
58.940314
 20
116.447303
 40
0.500000
  1
%%d
 50
90.000000
 41
-1.000000
 51
0.000000
  7
STANDARD
  0
TEXT
  8
ENTITYA19764
  6
CONTINUOUS
 62
1
 10
59.987625
 20
115.212014
 40
0.500000
  1
%%d
 50
90.000000
 41
-1.000000
 51
0.000000
  7
STANDARD
  0
TEXT
  8
ENTITYA19764
  6
CONTINUOUS
 62
1
 10
63.156411
 20
114.352682
 40
0.500000
  1
%%d
 50
90.000000
 41
-1.000000
 51
0.000000
  7
STANDARD
  0
TEXT
  8
ENTITYA19764
  6
CONTINUOUS
 62
1
 10
63.612931
 20
115.238868
 40
0.500000
  1
%%d
 50
90.000000
 41
-1.000000
 51
0.000000
  7
STANDARD
  0
TEXT
  8
ENTITYA19764
  6
CONTINUOUS
 62
1
 10
64.767658
 20
114.889764
 40
0.500000
  1
%%d
 50
90.000000
 41
-1.000000
 51
0.000000
  7
STANDARD
  0
TEXT
  8
ENTITYA19764
  6
CONTINUOUS
 62
1
 10
65.143615
 20
114.674932
 40
0.500000
  1
%%d
 50
90.000000
 41
-1.000000
 51
0.000000
  7
STANDARD
  0
TEXT
  8
ENTITYA19764
  6
CONTINUOUS
 62
1
 10
64.284284
 20
115.802804
 40
0.500000
  1
%%d
 50
90.000000
 41
-1.000000
 51
0.000000
  7
STANDARD
  0
TEXT
  8
ENTITYA19764
  6
CONTINUOUS
 62
1
 10
65.976093
 20
114.352682
 40
0.500000
  1
%%d
 50
90.000000
 41
-1.000000
 51
0.000000
  7
STANDARD
  0
ARC
  8
ENTITYA19764
  6
CONTINUOUS
 62
1
 10
66.840180
 20
93.896845
 40
5.940662
 50
53.185612
 51
94.249569
  0
LINE
  8
ENTITYA19764
  6
CONTINUOUS
 62
1
 10
70.399971
 20
98.821174
 11
70.163197
 21
98.821174
  0
LINE
  8
ENTITYA19764
  6
CONTINUOUS
 62
1
 10
70.399971
 20
100.821174
 11
66.399971
 21
100.821174
  0
LINE
  8
ENTITYA19764
  6
CONTINUOUS
 62
1
 10
66.399971
 20
101.821174
 11
70.399971
 21
101.821174
  0
LINE
  8
ENTITYA19764
  6
CONTINUOUS
 62
1
 10
70.399971
 20
102.821174
 11
66.399971
 21
102.821174
  0
LINE
  8
ENTITYA19764
  6
CONTINUOUS
 62
1
 10
66.399971
 20
103.821174
 11
70.399971
 21
103.821174
  0
LINE
  8
ENTITYA19764
  6
RANDOM
 62
1
 10
70.399971
 20
104.821174
 11
66.399971
 21
104.821174
  0
LINE
  8
ENTITYA19764
  6
CONTINUOUS
 62
1
 10
67.399971
 20
99.821174
 11
67.399971
 21
104.821174
  0
LINE
  8
ENTITYA19764
  6
CONTINUOUS
 62
1
 10
68.399971
 20
104.821174
 11
68.399971
 21
99.629079
  0
LINE
  8
ENTITYA19764
  6
CONTINUOUS
 62
1
 10
69.399971
 20
99.257715
 11
69.399971
 21
104.821174
  0
LINE
  8
ENTITYA19764
  6
CONTINUOUS
 62
1
 10
228.671450
 20
99.821174
 11
232.671450
 21
99.821174
  0
ARC
  8
ENTITYA19764
  6
CONTINUOUS
 62
1
 10
229.111659
 20
93.896845
 40
5.940662
 50
53.185612
 51
94.249569
  0
LINE
  8
ENTITYA19764
  6
CONTINUOUS
 62
1
 10
232.671450
 20
98.821174
 11
232.434676
 21
98.821174
  0
LINE
  8
ENTITYA19764
  6
CONTINUOUS
 62
1
 10
232.671450
 20
100.821174
 11
228.671450
 21
100.821174
  0
LINE
  8
ENTITYA19764
  6
CONTINUOUS
 62
1
 10
228.671450
 20
101.821174
 11
232.671450
 21
101.821174
  0
LINE
  8
ENTITYA19764
  6
CONTINUOUS
 62
1
 10
232.671450
 20
102.821174
 11
228.671450
 21
102.821174
  0
LINE
  8
ENTITYA19764
  6
CONTINUOUS
 62
1
 10
228.671450
 20
103.821174
 11
232.671450
 21
103.821174
  0
LINE
  8
ENTITYA19764
  6
RANDOM
 62
1
 10
232.671450
 20
104.821174
 11
228.671450
 21
104.821174
  0
LINE
  8
ENTITYA19764
  6
CONTINUOUS
 62
1
 10
229.671450
 20
99.821174
 11
229.671450
 21
104.821174
  0
LINE
  8
ENTITYA19764
  6
CONTINUOUS
 62
1
 10
230.671450
 20
104.821174
 11
230.671450
 21
99.629079
  0
LINE
  8
ENTITYA19764
  6
CONTINUOUS
 62
1
 10
231.671450
 20
99.257715
 11
231.671450
 21
104.821174
  0
LINE
  8
ENTITYA19764
  6
RANDOM
 62
1
 10
231.601641
 20
96.968187
 11
231.601641
 21
99.290494
  0
TEXT
  8
ENTITYA19764
  6
CONTINUOUS
 62
1
 10
224.270915
 20
97.829794
 40
0.500000
  1
%%d
 50
90.000000
 41
-1.000000
 51
0.000000
  7
STANDARD
  0
TEXT
  8
ENTITYA19764
  6
CONTINUOUS
 62
1
 10
225.543332
 20
99.275723
 40
0.500000
  1
%%d
 50
90.000000
 41
-1.000000
 51
0.000000
  7
STANDARD
  0
TEXT
  8
ENTITYA19764
  6
CONTINUOUS
 62
1
 10
227.741144
 20
98.466003
 40
0.500000
  1
%%d
 50
90.000000
 41
-1.000000
 51
0.000000
  7
STANDARD
  0
TEXT
  8
ENTITYA19764
  6
CONTINUOUS
 62
1
 10
229.534095
 20
98.003306
 40
0.500000
  1
%%d
 50
90.000000
 41
-1.000000
 51
0.000000
  7
STANDARD
  0
TEXT
  8
ENTITYA19764
  6
CONTINUOUS
 62
1
 10
230.633001
 20
98.928700
 40
0.500000
  1
%%d
 50
90.000000
 41
-1.000000
 51
0.000000
  7
STANDARD
  0
TEXT
  8
ENTITYA19764
  6
CONTINUOUS
 62
1
 10
227.162772
 20
98.292491
 40
2.000000
  1
%%d
 50
90.000000
 41
-1.000000
 51
0.000000
  7
STANDARD
  0
TEXT
  8
ENTITYA19764
  6
CONTINUOUS
 62
1
 10
228.840049
 20
99.622746
 40
2.000000
  1
%%d
 50
90.000000
 41
-1.000000
 51
0.000000
  7
STANDARD
  0
TEXT
  8
ENTITYA19764
  6
CONTINUOUS
 62
1
 10
232.541627
 20
98.466003
 40
2.000000
  1
%%d
 50
90.000000
 41
-1.000000
 51
0.000000
  7
STANDARD
  0
TEXT
  8
ENTITYA19764
  6
CONTINUOUS
 62
1
 10
223.830830
 20
114.233859
 40
0.500000
  1
%%d
 50
90.000000
 41
-1.000000
 51
0.000000
  7
STANDARD
  0
TEXT
  8
ENTITYA19764
  6
CONTINUOUS
 62
1
 10
223.456099
 20
114.421225
 40
0.500000
  1
%%d
 50
90.000000
 41
-1.000000
 51
0.000000
  7
STANDARD
  0
TEXT
  8
ENTITYA19764
  6
CONTINUOUS
 62
1
 10
223.381153
 20
115.882677
 40
0.500000
  1
%%d
 50
90.000000
 41
-1.000000
 51
0.000000
  7
STANDARD
  0
TEXT
  8
ENTITYA19764
  6
CONTINUOUS
 62
1
 10
223.830830
 20
115.170687
 40
0.500000
  1
%%d
 50
90.000000
 41
-1.000000
 51
0.000000
  7
STANDARD
  0
TEXT
  8
ENTITYA19764
  6
CONTINUOUS
 62
1
 10
224.880078
 20
115.995096
 40
0.500000
  1
%%d
 50
90.000000
 41
-1.000000
 51
0.000000
  7
STANDARD
  0
LINE
  8
ENTITYA19764
  6
RANDOM
 62
1
 10
220.171450
 20
113.821174
 11
220.171450
 21
116.668187
  0
LINE
  8
ENTITYA19764
  6
RANDOM
 62
1
 10
229.171450
 20
115.804187
 11
229.171450
 21
114.012241
  0
TEXT
  8
ENTITYA19764
  6
CONTINUOUS
 62
1
 10
229.053195
 20
114.540661
 40
0.500000
  1
%%d
 50
90.000000
 41
-1.000000
 51
0.000000
  7
STANDARD
  0
TEXT
  8
ENTITYA19764
  6
CONTINUOUS
 62
1
 10
228.167009
 20
115.480555
 40
0.500000
  1
%%d
 50
90.000000
 41
-1.000000
 51
0.000000
  7
STANDARD
  0
TEXT
  8
ENTITYA19764
  6
CONTINUOUS
 62
1
 10
228.972633
 20
115.561117
 40
0.500000
  1
%%d
 50
90.000000
 41
-1.000000
 51
0.000000
  7
STANDARD
  0
TEXT
  8
ENTITYA19764
  6
CONTINUOUS
 62
1
 10
221.319209
 20
114.379536
 40
0.500000
  1
%%d
 50
90.000000
 41
-1.000000
 51
0.000000
  7
STANDARD
  0
TEXT
  8
ENTITYA19764
  6
CONTINUOUS
 62
1
 10
221.211793
 20
116.447303
 40
0.500000
  1
%%d
 50
90.000000
 41
-1.000000
 51
0.000000
  7
STANDARD
  0
TEXT
  8
ENTITYA19764
  6
CONTINUOUS
 62
1
 10
222.259104
 20
115.212014
 40
0.500000
  1
%%d
 50
90.000000
 41
-1.000000
 51
0.000000
  7
STANDARD
  0
TEXT
  8
ENTITYA19764
  6
CONTINUOUS
 62
1
 10
225.427889
 20
114.352682
 40
0.500000
  1
%%d
 50
90.000000
 41
-1.000000
 51
0.000000
  7
STANDARD
  0
TEXT
  8
ENTITYA19764
  6
CONTINUOUS
 62
1
 10
225.884409
 20
115.238868
 40
0.500000
  1
%%d
 50
90.000000
 41
-1.000000
 51
0.000000
  7
STANDARD
  0
TEXT
  8
ENTITYA19764
  6
CONTINUOUS
 62
1
 10
227.039137
 20
114.889764
 40
0.500000
  1
%%d
 50
90.000000
 41
-1.000000
 51
0.000000
  7
STANDARD
  0
TEXT
  8
ENTITYA19764
  6
CONTINUOUS
 62
1
 10
227.415094
 20
114.674932
 40
0.500000
  1
%%d
 50
90.000000
 41
-1.000000
 51
0.000000
  7
STANDARD
  0
TEXT
  8
ENTITYA19764
  6
CONTINUOUS
 62
1
 10
226.555762
 20
115.802804
 40
0.500000
  1
%%d
 50
90.000000
 41
-1.000000
 51
0.000000
  7
STANDARD
  0
TEXT
  8
ENTITYA19764
  6
CONTINUOUS
 62
1
 10
228.247572
 20
114.352682
 40
0.500000
  1
%%d
 50
90.000000
 41
-1.000000
 51
0.000000
  7
STANDARD
  0
ARC
  8
ENTITYA19764
  6
CONTINUOUS
 62
1
 10
150.120880
 20
103.081041
 40
3.925995
 50
24.978988
 51
96.452944
  0
LINE
  8
ENTITYA19764
  6
CONTINUOUS
 62
1
 10
149.679649
 20
107.982163
 11
153.679649
 21
107.982163
  0
LINE
  8
ENTITYA19764
  6
CONTINUOUS
 62
1
 10
153.679649
 20
108.982163
 11
149.679649
 21
108.982163
  0
LINE
  8
ENTITYA19764
  6
CONTINUOUS
 62
1
 10
149.679649
 20
109.982163
 11
153.679649
 21
109.982163
  0
LINE
  8
ENTITYA19764
  6
RANDOM
 62
1
 10
153.679649
 20
110.982163
 11
149.679649
 21
110.982163
  0
LINE
  8
ENTITYA19764
  6
CONTINUOUS
 62
1
 10
152.766051
 20
105.982163
 11
153.679649
 21
105.982163
  0
LINE
  8
ENTITYA19764
  6
CONTINUOUS
 62
1
 10
152.679649
 20
106.058648
 11
152.679649
 21
110.982163
  0
LINE
  8
ENTITYA19764
  6
CONTINUOUS
 62
1
 10
151.679649
 20
110.982163
 11
151.679649
 21
106.684328
  0
LINE
  8
ENTITYA19764
  6
CONTINUOUS
 62
1
 10
150.679649
 20
106.967069
 11
150.679649
 21
110.982163
  0
LINE
  8
ENTITYA19764
  6
RANDOM
 62
1
 10
152.409840
 20
104.118187
 11
152.409840
 21
106.270728
  0
LINE
  8
ENTITYA19764
  6
RANDOM
 62
1
 10
152.409840
 20
104.118187
 11
151.279649
 21
104.118187
  0
TEXT
  8
ENTITYA19764
  6
CONTINUOUS
 62
1
 10
48.554290
 20
132.056859
 40
3.000000
  1
SPACER BAR
 50
90.000000
 41
1.000000
 51
0.000000
  7
STANDARD
  0
TEXT
  8
ENTITYA19764
  6
CONTINUOUS
 62
1
 10
54.554290
 20
132.056859
 40
3.000000
  1
(BLACK)
 50
90.000000
 41
1.000000
 51
0.000000
  7
STANDARD
  0
TEXT
  8
ENTITYA19764
  6
CONTINUOUS
 62
1
 10
104.806629
 20
132.056859
 40
3.000000
  1
SETTING 
 50
90.000000
 41
1.000000
 51
0.000000
  7
STANDARD
  0
TEXT
  8
ENTITYA19764
  6
CONTINUOUS
 62
1
 10
110.806629
 20
132.056859
 40
3.000000
  1
BLOCKS
 50
90.000000
 41
1.000000
 51
0.000000
  7
STANDARD
  0
TEXT
  8
ENTITYA19764
  6
CONTINUOUS
 62
1
 10
53.927524
 20
10.151028
 40
3.000000
  1
11339 VISION STRIP
 50
90.000000
 41
1.000000
 51
0.000000
  7
STANDARD
  0
TEXT
  8
ENTITYA19764
  6
CONTINUOUS
 62
1
 10
59.927524
 20
10.151028
 40
3.000000
  1
(CODE WHITE)       
 50
90.000000
 41
1.000000
 51
0.000000
  7
STANDARD
  0
TEXT
  8
ENTITYA19764
  6
CONTINUOUS
 62
1
 10
79.625044
 20
10.151028
 40
3.000000
  1
11931 BEAD
 50
90.000000
 41
1.000000
 51
0.000000
  7
STANDARD
  0
TEXT
  8
ENTITYA19764
  6
CONTINUOUS
 62
1
 10
91.988321
 20
10.151028
 40
3.000000
  1
74.0188.50 BEAD STUD
 50
90.000000
 41
1.000000
 51
0.000000
  7
STANDARD
  0
TEXT
  8
ENTITYA19764
  6
CONTINUOUS
 62
1
 10
66.253263
 20
132.056859
 40
3.000000
  1
99.4232.99 3.5mm x 12mm
 50
90.000000
 41
1.000000
 51
0.000000
  7
STANDARD
  0
TEXT
  8
ENTITYA19764
  6
CONTINUOUS
 62
1
 10
72.253263
 20
132.056859
 40
3.000000
  1
TREMLOK 500 MASTIC TAPE
 50
90.000000
 41
1.000000
 51
0.000000
  7
STANDARD
  0
TEXT
  8
ENTITYA19764
  6
CONTINUOUS
 62
1
 10
88.279057
 20
132.056859
 40
3.000000
  1
SILICONE HEEL BEAD
 50
90.000000
 41
1.000000
 51
0.000000
  7
STANDARD
  0
LINE
  8
ENTITYA19764
  6
CONTINUOUS
 62
1
 10
101.069119
 20
130.044086
 11
70.399971
 21
108.707786
  0
LINE
  8
ENTITYA19764
  6
CONTINUOUS
 62
1
 10
73.558958
 20
110.296307
 11
72.987813
 21
111.117283
  0
LINE
  8
ENTITYA19764
  6
CONTINUOUS
 62
1
 10
72.987813
 20
111.117283
 11
70.399971
 21
108.707786
  0
LINE
  8
ENTITYA19764
  6
CONTINUOUS
 62
1
 10
70.399971
 20
108.707786
 11
73.558958
 21
110.296307
  0
LINE
  8
ENTITYA19764
  6
CONTINUOUS
 62
1
 10
85.436612
 20
130.339039
 11
68.399971
 21
114.012241
  0
LINE
  8
ENTITYA19764
  6
CONTINUOUS
 62
1
 10
71.273150
 20
116.073106
 11
70.581181
 21
116.795162
  0
LINE
  8
ENTITYA19764
  6
CONTINUOUS
 62
1
 10
70.581181
 20
116.795162
 11
68.399971
 21
114.012241
  0
LINE
  8
ENTITYA19764
  6
CONTINUOUS
 62
1
 10
68.399971
 20
114.012241
 11
71.273150
 21
116.073106
  0
LINE
  8
ENTITYA19764
  6
CONTINUOUS
 62
1
 10
66.264668
 20
129.454180
 11
62.388593
 21
116.237279
  0
LINE
  8
ENTITYA19764
  6
CONTINUOUS
 62
1
 10
63.853435
 20
119.455333
 11
62.893786
 21
119.736767
  0
LINE
  8
ENTITYA19764
  6
CONTINUOUS
 62
1
 10
62.893786
 20
119.736767
 11
62.388593
 21
116.237279
  0
LINE
  8
ENTITYA19764
  6
CONTINUOUS
 62
1
 10
62.388593
 20
116.237279
 11
63.853435
 21
119.455333
  0
LINE
  8
ENTITYA19764
  6
CONTINUOUS
 62
1
 10
50.337208
 20
130.633992
 11
54.469780
 21
109.821174
  0
LINE
  8
ENTITYA19764
  6
CONTINUOUS
 62
1
 10
54.278555
 20
113.351561
 11
53.297696
 21
113.156803
  0
LINE
  8
ENTITYA19764
  6
CONTINUOUS
 62
1
 10
53.297696
 20
113.156803
 11
54.469780
 21
109.821174
  0
LINE
  8
ENTITYA19764
  6
CONTINUOUS
 62
1
 10
54.469780
 20
109.821174
 11
54.278555
 21
113.351561
  0
LINE
  8
ENTITYA19764
  6
CONTINUOUS
 62
1
 10
53.840259
 20
63.498801
 11
56.306093
 21
98.020476
  0
LINE
  8
ENTITYA19764
  6
CONTINUOUS
 62
1
 10
55.557899
 20
94.564555
 11
56.555485
 21
94.493298
  0
LINE
  8
ENTITYA19764
  6
CONTINUOUS
 62
1
 10
56.555485
 20
94.493298
 11
56.306093
 21
98.020476
  0
LINE
  8
ENTITYA19764
  6
CONTINUOUS
 62
1
 10
56.306093
 20
98.020476
 11
55.557899
 21
94.564555
  0
LINE
  8
ENTITYA19764
  6
CONTINUOUS
 62
1
 10
79.156154
 20
40.319962
 11
66.029986
 21
90.321174
  0
LINE
  8
ENTITYA19764
  6
CONTINUOUS
 62
1
 10
66.435099
 20
86.808654
 11
67.402400
 21
87.062586
  0
LINE
  8
ENTITYA19764
  6
CONTINUOUS
 62
1
 10
67.402400
 20
87.062586
 11
66.029986
 21
90.321174
  0
LINE
  8
ENTITYA19764
  6
CONTINUOUS
 62
1
 10
66.029986
 20
90.321174
 11
66.435099
 21
86.808654
  0
LINE
  8
ENTITYA19764
  6
CONTINUOUS
 62
1
 10
88.690712
 20
69.581192
 11
69.621596
 21
93.088808
  0
LINE
  8
ENTITYA19764
  6
CONTINUOUS
 62
1
 10
71.438217
 20
90.055675
 11
72.214830
 21
90.685655
  0
LINE
  8
ENTITYA19764
  6
CONTINUOUS
 62
1
 10
72.214830
 20
90.685655
 11
69.621596
 21
93.088808
  0
LINE
  8
ENTITYA19764
  6
CONTINUOUS
 62
1
 10
69.621596
 20
93.088808
 11
71.438217
 21
90.055675
  0
TEXT
  8
ENTITYA19764
  6
CONTINUOUS
 62
1
 10
136.574032
 20
132.122907
 40
3.000000
  1
LOW MODULUS
 50
90.000000
 41
1.000000
 51
0.000000
  7
STANDARD
  0
TEXT
  8
ENTITYA19764
  6
CONTINUOUS
 62
1
 10
142.574032
 20
132.122907
 40
3.000000
  1
SILICONE CAPPING
 50
90.000000
 41
1.000000
 51
0.000000
  7
STANDARD
  0
TEXT
  8
ENTITYA19764
  6
CONTINUOUS
 62
1
 10
148.574032
 20
132.122907
 40
3.000000
  1
(BLACK)
 50
90.000000
 41
1.000000
 51
0.000000
  7
STANDARD
  0
TEXT
  8
ENTITYA19764
  6
CONTINUOUS
 62
1
 10
160.381411
 20
132.122907
 40
3.000000
  1
FOAM TAPE 
 50
90.000000
 41
1.000000
 51
0.000000
  7
STANDARD
  0
TEXT
  8
ENTITYA19764
  6
CONTINUOUS
 62
1
 10
166.381411
 20
132.122907
 40
3.000000
  1
TYPE VARIES
 50
90.000000
 41
1.000000
 51
0.000000
  7
STANDARD
  0
TEXT
  8
ENTITYA19764
  6
CONTINUOUS
 62
1
 10
172.381411
 20
132.122907
 40
3.000000
  1
ACCORDING TO
 50
90.000000
 41
1.000000
 51
0.000000
  7
STANDARD
  0
TEXT
  8
ENTITYA19764
  6
CONTINUOUS
 62
1
 10
178.381411
 20
132.122907
 40
3.000000
  1
GLASS THICKNESS
 50
90.000000
 41
1.000000
 51
0.000000
  7
STANDARD
  0
TEXT
  8
ENTITYA19764
  6
CONTINUOUS
 62
1
 10
136.574032
 20
10.207045
 40
3.000000
  1
11482 BEAD (WIDTHS)
 50
90.000000
 41
1.000000
 51
0.000000
  7
STANDARD
  0
TEXT
  8
ENTITYA19764
  6
CONTINUOUS
 62
1
 10
142.574032
 20
10.207045
 40
3.000000
  1
11146 BEAD (HEIGHTS)
 50
90.000000
 41
1.000000
 51
0.000000
  7
STANDARD
  0
TEXT
  8
ENTITYA19764
  6
CONTINUOUS
 62
1
 10
157.910384
 20
10.207045
 40
3.000000
  1
74.0198.50 BEAD STUD
 50
90.000000
 41
1.000000
 51
0.000000
  7
STANDARD
  0
LINE
  8
ENTITYA19764
  6
CONTINUOUS
 62
1
 10
137.819990
 20
130.998871
 11
142.409840
 21
116.514153
  0
LINE
  8
ENTITYA19764
  6
CONTINUOUS
 62
1
 10
141.829200
 20
120.001867
 11
140.875865
 21
119.699779
  0
LINE
  8
ENTITYA19764
  6
CONTINUOUS
 62
1
 10
140.875865
 20
119.699779
 11
142.409840
 21
116.514153
  0
LINE
  8
ENTITYA19764
  6
CONTINUOUS
 62
1
 10
142.409840
 20
116.514153
 11
141.829200
 21
120.001867
  0
LINE
  8
ENTITYA19764
  6
CONTINUOUS
 62
1
 10
137.819990
 20
130.998871
 11
141.753729
 21
105.485720
  0
LINE
  8
ENTITYA19764
  6
CONTINUOUS
 62
1
 10
141.714545
 20
109.021352
 11
140.726135
 21
108.868955
  0
LINE
  8
ENTITYA19764
  6
CONTINUOUS
 62
1
 10
140.726135
 20
108.868955
 11
141.753729
 21
105.485720
  0
LINE
  8
ENTITYA19764
  6
CONTINUOUS
 62
1
 10
141.753729
 20
105.485720
 11
141.714545
 21
109.021352
  0
LINE
  8
ENTITYA19764
  6
CONTINUOUS
 62
1
 10
158.850365
 20
130.847573
 11
147.743838
 21
116.038024
  0
LINE
  8
ENTITYA19764
  6
CONTINUOUS
 62
1
 10
150.243776
 20
118.538100
 11
149.443758
 21
119.138079
  0
LINE
  8
ENTITYA19764
  6
CONTINUOUS
 62
1
 10
149.443758
 20
119.138079
 11
147.743838
 21
116.038024
  0
LINE
  8
ENTITYA19764
  6
CONTINUOUS
 62
1
 10
147.743838
 20
116.038024
 11
150.243776
 21
118.538100
  0
LINE
  8
ENTITYA19764
  6
CONTINUOUS
 62
1
 10
158.850365
 20
130.847573
 11
147.956933
 21
106.982163
  0
LINE
  8
ENTITYA19764
  6
CONTINUOUS
 62
1
 10
149.865194
 20
109.958632
 11
148.955453
 21
110.373886
  0
LINE
  8
ENTITYA19764
  6
CONTINUOUS
 62
1
 10
148.955453
 20
110.373886
 11
147.956933
 21
106.982163
  0
LINE
  8
ENTITYA19764
  6
CONTINUOUS
 62
1
 10
147.956933
 20
106.982163
 11
149.865194
 21
109.958632
  0
TEXT
  8
ENTITYA19764
  6
CONTINUOUS
 62
1
 10
174.584028
 20
10.207045
 40
3.000000
  1
SILICONE HEEL BEAD &
 50
90.000000
 41
1.000000
 51
0.000000
  7
STANDARD
  0
TEXT
  8
ENTITYA19764
  6
CONTINUOUS
 62
1
 10
180.584028
 20
10.207045
 40
3.000000
  1
SETTING BLOCKS
 50
90.000000
 41
1.000000
 51
0.000000
  7
STANDARD
  0
LINE
  8
ENTITYA19764
  6
CONTINUOUS
 62
1
 10
140.864741
 20
69.249416
 11
144.117917
 21
98.268187
  0
LINE
  8
ENTITYA19764
  6
CONTINUOUS
 62
1
 10
143.231051
 20
94.845489
 11
144.224881
 21
94.734075
  0
LINE
  8
ENTITYA19764
  6
CONTINUOUS
 62
1
 10
144.224881
 20
94.734075
 11
144.117917
 21
98.268187
  0
LINE
  8
ENTITYA19764
  6
CONTINUOUS
 62
1
 10
144.117917
 20
98.268187
 11
143.231051
 21
94.845489
  0
LINE
  8
ENTITYA19764
  6
CONTINUOUS
 62
1
 10
155.220177
 20
70.501578
 11
151.601393
 21
98.979829
  0
LINE
  8
ENTITYA19764
  6
CONTINUOUS
 62
1
 10
151.546585
 20
95.444688
 11
152.538617
 21
95.570747
  0
LINE
  8
ENTITYA19764
  6
CONTINUOUS
 62
1
 10
152.538617
 20
95.570747
 11
151.601393
 21
98.979829
  0
LINE
  8
ENTITYA19764
  6
CONTINUOUS
 62
1
 10
151.601393
 20
98.979829
 11
151.546585
 21
95.444688
  0
LINE
  8
ENTITYA19764
  6
CONTINUOUS
 62
1
 10
171.898047
 20
64.208042
 11
153.679649
 21
104.738933
  0
LINE
  8
ENTITYA19764
  6
CONTINUOUS
 62
1
 10
154.658541
 20
101.341592
 11
155.570641
 21
101.751575
  0
LINE
  8
ENTITYA19764
  6
CONTINUOUS
 62
1
 10
155.570641
 20
101.751575
 11
153.679649
 21
104.738933
  0
LINE
  8
ENTITYA19764
  6
CONTINUOUS
 62
1
 10
153.679649
 20
104.738933
 11
154.658541
 21
101.341592
  0
TEXT
  8
ENTITYA19764
  6
CONTINUOUS
 62
1
 10
267.318744
 20
132.663213
 40
3.000000
  1
SETTING 
 50
90.000000
 41
1.000000
 51
0.000000
  7
STANDARD
  0
TEXT
  8
ENTITYA19764
  6
CONTINUOUS
 62
1
 10
273.318744
 20
132.663213
 40
3.000000
  1
BLOCKS
 50
90.000000
 41
1.000000
 51
0.000000
  7
STANDARD
  0
TEXT
  8
ENTITYA19764
  6
CONTINUOUS
 62
1
 10
236.206418
 20
10.128167
 40
3.000000
  1
12mm x 6mm SOLID
 50
90.000000
 41
1.000000
 51
0.000000
  7
STANDARD
  0
TEXT
  8
ENTITYA19764
  6
CONTINUOUS
 62
1
 10
242.206418
 20
10.128167
 40
3.000000
  1
ALUMINIUM BEAD
 50
90.000000
 41
1.000000
 51
0.000000
  7
STANDARD
  0
TEXT
  8
ENTITYA19764
  6
CONTINUOUS
 62
1
 10
248.206418
 20
10.128167
 40
3.000000
  1
& STEEL BEAD SCREW
 50
90.000000
 41
1.000000
 51
0.000000
  7
STANDARD
  0
LINE
  8
ENTITYA19764
  6
CONTINUOUS
 62
1
 10
263.879952
 20
131.852428
 11
232.671450
 21
107.827512
  0
LINE
  8
ENTITYA19764
  6
CONTINUOUS
 62
1
 10
235.750010
 20
109.566417
 11
235.139974
 21
110.358858
  0
LINE
  8
ENTITYA19764
  6
CONTINUOUS
 62
1
 10
235.139974
 20
110.358858
 11
232.671450
 21
107.827512
  0
LINE
  8
ENTITYA19764
  6
CONTINUOUS
 62
1
 10
232.671450
 20
107.827512
 11
235.750010
 21
109.566417
  0
TEXT
  8
ENTITYA19764
  6
CONTINUOUS
 62
1
 10
260.896820
 20
10.207045
 40
3.000000
  1
SILICONE HEEL BEAD
 50
90.000000
 41
1.000000
 51
0.000000
  7
STANDARD
  0
LINE
  8
ENTITYA19764
  6
CONTINUOUS
 62
1
 10
257.454406
 20
63.869591
 11
231.824421
 21
100.945976
  0
LINE
  8
ENTITYA19764
  6
CONTINUOUS
 62
1
 10
233.403453
 20
97.782387
 11
234.226097
 21
98.351060
  0
LINE
  8
ENTITYA19764
  6
CONTINUOUS
 62
1
 10
234.226097
 20
98.351060
 11
231.824421
 21
100.945976
  0
LINE
  8
ENTITYA19764
  6
CONTINUOUS
 62
1
 10
231.824421
 20
100.945976
 11
233.403453
 21
97.782387
  0
LINE
  8
ENTITYA19764
  6
CONTINUOUS
 62
1
 10
236.054613
 20
58.644060
 11
228.091899
 21
90.968187
  0
LINE
  8
ENTITYA19764
  6
CONTINUOUS
 62
1
 10
228.443609
 20
87.449809
 11
229.414686
 21
87.689023
  0
LINE
  8
ENTITYA19764
  6
CONTINUOUS
 62
1
 10
229.414686
 20
87.689023
 11
228.091899
 21
90.968187
  0
LINE
  8
ENTITYA19764
  6
CONTINUOUS
 62
1
 10
228.091899
 20
90.968187
 11
228.443609
 21
87.449809
  0
TEXT
  8
ENTITYA19764
  6
CONTINUOUS
 62
1
 10
223.364038
 20
132.056859
 40
3.000000
  1
SPACER BAR
 50
90.000000
 41
1.000000
 51
0.000000
  7
STANDARD
  0
TEXT
  8
ENTITYA19764
  6
CONTINUOUS
 62
1
 10
229.364038
 20
132.056859
 40
3.000000
  1
(BLACK)
 50
90.000000
 41
1.000000
 51
0.000000
  7
STANDARD
  0
LINE
  8
ENTITYA19764
  6
CONTINUOUS
 62
1
 10
242.524318
 20
130.102567
 11
227.753678
 21
115.940293
  0
LINE
  8
ENTITYA19764
  6
CONTINUOUS
 62
1
 10
230.626353
 20
118.001881
 11
229.934201
 21
118.723766
  0
LINE
  8
ENTITYA19764
  6
CONTINUOUS
 62
1
 10
229.934201
 20
118.723766
 11
227.753678
 21
115.940293
  0
LINE
  8
ENTITYA19764
  6
CONTINUOUS
 62
1
 10
227.753678
 20
115.940293
 11
230.626353
 21
118.001881
  0
LINE
  8
ENTITYA19764
  6
CONTINUOUS
 62
1
 10
221.871029
 20
130.102567
 11
218.741259
 21
109.821174
  0
LINE
  8
ENTITYA19764
  6
CONTINUOUS
 62
1
 10
219.769210
 20
113.204000
 11
218.780901
 21
113.356514
  0
LINE
  8
ENTITYA19764
  6
CONTINUOUS
 62
1
 10
218.780901
 20
113.356514
 11
218.741259
 21
109.821174
  0
LINE
  8
ENTITYA19764
  6
CONTINUOUS
 62
1
 10
218.741259
 20
109.821174
 11
219.769210
 21
113.204000
  0
TEXT
  8
ENTITYA19764
  6
CONTINUOUS
 62
1
 10
198.734717
 20
10.128167
 40
3.000000
  1
LOW MODULUS
 50
90.000000
 41
1.000000
 51
0.000000
  7
STANDARD
  0
TEXT
  8
ENTITYA19764
  6
CONTINUOUS
 62
1
 10
204.734717
 20
10.128167
 40
3.000000
  1
SILICONE CAPPING
 50
90.000000
 41
1.000000
 51
0.000000
  7
STANDARD
  0
TEXT
  8
ENTITYA19764
  6
CONTINUOUS
 62
1
 10
210.734717
 20
10.128167
 40
3.000000
  1
(BLACK)
 50
90.000000
 41
1.000000
 51
0.000000
  7
STANDARD
  0
TEXT
  8
ENTITYA19764
  6
CONTINUOUS
 62
1
 10
218.684613
 20
10.128167
 40
3.000000
  1
99.2031.99 3mm x 9mm
 50
90.000000
 41
1.000000
 51
0.000000
  7
STANDARD
  0
TEXT
  8
ENTITYA19764
  6
CONTINUOUS
 62
1
 10
224.684613
 20
10.128167
 40
3.000000
  1
NORTON V570 FOAM TAPE            
 50
90.000000
 41
1.000000
 51
0.000000
  7
STANDARD
  0
LINE
  8
ENTITYA19764
  6
CONTINUOUS
 62
1
 10
221.698484
 20
73.381175
 11
224.421371
 21
98.515516
  0
LINE
  8
ENTITYA19764
  6
CONTINUOUS
 62
1
 10
223.547227
 20
95.089380
 11
224.541511
 21
94.981664
  0
LINE
  8
ENTITYA19764
  6
CONTINUOUS
 62
1
 10
224.541511
 20
94.981664
 11
224.421371
 21
98.515516
  0
LINE
  8
ENTITYA19764
  6
CONTINUOUS
 62
1
 10
224.421371
 20
98.515516
 11
223.547227
 21
95.089380
  0
LINE
  8
ENTITYA19764
  6
CONTINUOUS
 62
1
 10
205.361162
 20
58.091117
 11
219.601641
 21
97.986847
  0
LINE
  8
ENTITYA19764
  6
CONTINUOUS
 62
1
 10
217.954117
 20
94.858565
 11
218.895936
 21
94.522390
  0
LINE
  8
ENTITYA19764
  6
CONTINUOUS
 62
1
 10
218.895936
 20
94.522390
 11
219.601641
 21
97.986847
  0
LINE
  8
ENTITYA19764
  6
CONTINUOUS
 62
1
 10
219.601641
 20
97.986847
 11
217.954117
 21
94.858565
  0
TEXT
  8
ENTITYA19764
  6
CONTINUOUS
 62
1
 10
239.401643
 20
132.056859
 40
3.000000
  1
99.4232.99 
 50
90.000000
 41
1.000000
 51
0.000000
  7
STANDARD
  0
TEXT
  8
ENTITYA19764
  6
CONTINUOUS
 62
1
 10
245.401643
 20
132.056859
 40
3.000000
  1
3.5mm x 12mm
 50
90.000000
 41
1.000000
 51
0.000000
  7
STANDARD
  0
TEXT
  8
ENTITYA19764
  6
CONTINUOUS
 62
1
 10
251.401643
 20
132.056859
 40
3.000000
  1
TREMLOK 500
 50
90.000000
 41
1.000000
 51
0.000000
  7
STANDARD
  0
TEXT
  8
ENTITYA19764
  6
CONTINUOUS
 62
1
 10
257.401643
 20
132.056859
 40
3.000000
  1
MASTIC TAPE
 50
90.000000
 41
1.000000
 51
0.000000
  7
STANDARD
  0
TEXT
  8
ENTITYA19764
  6
CONTINUOUS
 62
1
 10
100.462089
 20
26.968084
 40
2.500000
  1
14mm DOUBLE GLASS
 50
90.000000
 41
1.000000
 51
0.000000
  7
STANDARD
  0
LINE
  8
ENTITYA19764
  6
CONTINUOUS
 62
1
 10
101.712089
 20
68.999334
 11
101.712089
 21
26.499334
  0
TEXT
  8
ENTITYA19764
  6
CONTINUOUS
 62
1
 10
105.462089
 20
29.468084
 40
2.500000
  1
GLAZE OUT SHOWN
 50
90.000000
 41
1.000000
 51
0.000000
  7
STANDARD
  0
LINE
  8
ENTITYA19764
  6
CONTINUOUS
 62
1
 10
106.712089
 20
66.499334
 11
106.712089
 21
28.999334
  0
TEXT
  8
ENTITYA19764
  6
CONTINUOUS
 62
1
 10
110.462089
 20
15.718084
 40
2.500000
  1
SEE D1 FOR GLAZE IN DETAIL
 50
90.000000
 41
1.000000
 51
0.000000
  7
STANDARD
  0
LINE
  8
ENTITYA19764
  6
CONTINUOUS
 62
1
 10
111.712089
 20
80.249334
 11
111.712089
 21
15.249334
  0
TEXT
  8
ENTITYA19764
  6
CONTINUOUS
 62
1
 10
268.942870
 20
19.642833
 40
2.500000
  1
14mm DOUBLE GLASS
 50
90.000000
 41
1.000000
 51
0.000000
  7
STANDARD
  0
LINE
  8
ENTITYA19764
  6
CONTINUOUS
 62
1
 10
270.192870
 20
61.674083
 11
270.192870
 21
19.174083
  0
TEXT
  8
ENTITYA19764
  6
CONTINUOUS
 62
1
 10
273.942870
 20
22.142833
 40
2.500000
  1
WITH SOLID BEAD
 50
90.000000
 41
1.000000
 51
0.000000
  7
STANDARD
  0
LINE
  8
ENTITYA19764
  6
CONTINUOUS
 62
1
 10
275.192870
 20
59.174083
 11
275.192870
 21
21.674083
  0
TEXT
  8
ENTITYA19764
  6
CONTINUOUS
 62
1
 10
278.942870
 20
22.142833
 40
2.500000
  1
GLAZE OUT SHOWN
 50
90.000000
 41
1.000000
 51
0.000000
  7
STANDARD
  0
LINE
  8
ENTITYA19764
  6
CONTINUOUS
 62
1
 10
280.192870
 20
59.174083
 11
280.192870
 21
21.674083
  0
TEXT
  8
ENTITYA19764
  6
CONTINUOUS
 62
1
 10
283.942870
 20
8.392833
 40
2.500000
  1
SEE D1 FOR GLAZE IN DETAIL
 50
90.000000
 41
1.000000
 51
0.000000
  7
STANDARD
  0
LINE
  8
ENTITYA19764
  6
CONTINUOUS
 62
1
 10
285.192870
 20
72.924083
 11
285.192870
 21
7.924083
  0
TEXT
  8
ENTITYA19764
  6
CONTINUOUS
 62
1
 10
187.318641
 20
142.602409
 40
2.500000
  1
SINGLE GLASS
 50
90.000000
 41
1.000000
 51
0.000000
  7
STANDARD
  0
LINE
  8
ENTITYA19764
  6
CONTINUOUS
 62
1
 10
188.568641
 20
172.133659
 11
188.568641
 21
142.133659
  0
TEXT
  8
ENTITYA19764
  6
CONTINUOUS
 62
1
 10
192.318641
 20
138.852409
 40
2.500000
  1
GLAZE OUT SHOWN
 50
90.000000
 41
1.000000
 51
0.000000
  7
STANDARD
  0
LINE
  8
ENTITYA19764
  6
CONTINUOUS
 62
1
 10
193.568641
 20
175.883659
 11
193.568641
 21
138.383659
  0
TEXT
  8
ENTITYA19764
  6
CONTINUOUS
 62
1
 10
197.318641
 20
125.102409
 40
2.500000
  1
SEE D1 FOR GLAZE IN DETAIL
 50
90.000000
 41
1.000000
 51
0.000000
  7
STANDARD
  0
LINE
  8
ENTITYA19764
  6
CONTINUOUS
 62
1
 10
198.568641
 20
189.633659
 11
198.568641
 21
124.633659
  0
ENDSEC
  0
EOF
