  0
SECTION
  2
HEADER
  9
$LIMMIN
 10
0.000000
 20
0.000000
  9
$LIMMAX
 10
297.301779
 20
210.224104
  9
$EXTMIN
 10
0.000000
 20
0.000000
  9
$EXTMAX
 10
297.301779
 20
210.224104
  9
$ANGBASE
 50
0.0
  9
$ANGDIR
 70
0
  9
$DIMRND
 40
0.000010
  9
$DIMSE1
 70
0
  9
$DIMSE2
 70
0
  9
$DIMTXT
 40
3.500000
  9
$LTSCALE
 40
1.000000
  9
$LUPREC
 70
3
  9
$AUPREC
 70
3
  9
$PDMODE
 70
2
  9
$PDSIZE
 40
1.486509
  0
ENDSEC
  0
SECTION
  2
TABLES
  0
TABLE
  2
VPORT
  70
1
  0
VPORT
  2
*ACTIVE
 70
0
  10
0.0
 20
0.0
 11
1.0
 21
1.0
 12
594.0
 22
420.0
 13
0.0
 23
0.0
 14
10.0
 24
10.0
 15
10.0
 25
10.0
 16
0.0
 26
0.0
 36
1.0
 17
594.0
 27
420.0
 37
100.0
 40
1000.0
 41
1.0
 42
50.0
 43
0.0
 44
0.0
 50
0.0
 51
0.0
 71
0
 72
2000
 73
1
 74
3
 75
0
 76
0
 77
0
 78
1
  0
ENDTAB
  0
TABLE
  2
LTYPE
 70
4
  0
LTYPE
  2
CONTINUOUS
 70
0
  3
Solid line
 72
65
 73
0
 40
0.0
  0
LTYPE
  2
DASHED
 70
0
  3
Dashed line
 72
65
 73
2
 40
6.000000
 49
3.000000
 49
-3.000000
  0
LTYPE
  2
CENTER
 70
0
  3
Chain line
 72
65
 73
4
 40
24.000000
 49
15.000000
 49
-3.000000
 49
3.000000
 49
-3.000000
  0
LTYPE
  2
RANDOM
 70
0
  3
Random line
 72
65
 73
4
 40
22.500000
 49
6.000000
 49
-3.000000
 49
4.500000
 49
-9.000000
  0
ENDTAB
  0
TABLE
  2
STYLE
 70
9
  0
STYLE
  2
STANDARD
 40
0
 41
1.0
 50
0.0
 71
0
 42
0
  3
simplex
  4

 70
0
  0
ENDTAB
  0
TABLE
  2
LAYER
 70
2
  0
LAYER
  2
0
 70
0
 62
7
  6
CONTINUOUS
  0
LAYER
  2
ENTITYA19764
 62
1
  6
CONTINUOUS
 70
0
  0
ENDTAB
  0
ENDSEC
  0
SECTION
  2
BLOCKS
  0
ENDSEC
  0
SECTION
  2
ENTITIES
  0
LINE
  8
ENTITYA19764
  6
CONTINUOUS
 62
1
 10
0.000000
 20
0.000000
 11
297.000000
 21
0.000000
  0
LINE
  8
ENTITYA19764
  6
CONTINUOUS
 62
1
 10
297.000000
 20
0.000000
 11
297.000000
 21
210.000000
  0
LINE
  8
ENTITYA19764
  6
CONTINUOUS
 62
1
 10
297.000000
 20
210.000000
 11
0.000000
 21
210.000000
  0
LINE
  8
ENTITYA19764
  6
CONTINUOUS
 62
1
 10
0.000000
 20
210.000000
 11
0.000000
 21
0.000000
  0
CIRCLE
  8
ENTITYA19764
  6
CONTINUOUS
 62
1
 10
292.314963
 20
5.150956
 40
2.537993
  0
TEXT
  8
ENTITYA19764
  6
CONTINUOUS
 62
1
 10
293.314963
 20
4.588456
 40
2.000000
  1
C
 50
90.000000
 41
0.900000
 51
0.000000
  7
STANDARD
  0
TEXT
  8
ENTITYA19764
  6
CONTINUOUS
 62
1
 10
293.314963
 20
9.420802
 40
2.000000
  1
CRITTALL WINDOWS LTD. 2005
 50
90.000000
 41
0.900000
 51
0.000000
  7
STANDARD
  0
LINE
  8
ENTITYA19764
  6
CONTINUOUS
 62
1
 10
21.230951
 20
173.144222
 11
27.002201
 21
173.144222
  0
LINE
  8
ENTITYA19764
  6
CONTINUOUS
 62
1
 10
21.230951
 20
187.957097
 11
27.002201
 21
187.957097
  0
LINE
  8
ENTITYA19764
  6
CONTINUOUS
 62
1
 10
27.002201
 20
189.111347
 11
22.490133
 21
189.111347
  0
LINE
  8
ENTITYA19764
  6
CONTINUOUS
 62
1
 10
27.002201
 20
171.989972
 11
22.490133
 21
171.989972
  0
LINE
  8
ENTITYA19764
  6
CONTINUOUS
 62
1
 10
16.036826
 20
183.195815
 11
16.036826
 21
177.905503
  0
LINE
  8
ENTITYA19764
  6
CONTINUOUS
 62
1
 10
17.191076
 20
176.847440
 11
17.191076
 21
179.973534
  0
LINE
  8
ENTITYA19764
  6
CONTINUOUS
 62
1
 10
17.191076
 20
181.127784
 11
17.191076
 21
184.253878
  0
LINE
  8
ENTITYA19764
  6
CONTINUOUS
 62
1
 10
16.036826
 20
177.905503
 11
13.151201
 21
180.550659
  0
LINE
  8
ENTITYA19764
  6
CONTINUOUS
 62
1
 10
27.002201
 20
167.853909
 11
22.490133
 21
171.989972
  0
LINE
  8
ENTITYA19764
  6
CONTINUOUS
 62
1
 10
20.076701
 20
174.202284
 11
17.191076
 21
176.847440
  0
LINE
  8
ENTITYA19764
  6
CONTINUOUS
 62
1
 10
22.490133
 20
189.111347
 11
27.002201
 21
193.247409
  0
LINE
  8
ENTITYA19764
  6
CONTINUOUS
 62
1
 10
13.151201
 20
180.550659
 11
16.036826
 21
183.195815
  0
LINE
  8
ENTITYA19764
  6
CONTINUOUS
 62
1
 10
17.191076
 20
184.253878
 11
20.076701
 21
186.899034
  0
LINE
  8
ENTITYA19764
  6
CONTINUOUS
 62
1
 10
27.002201
 20
171.989972
 11
27.002201
 21
167.853909
  0
LINE
  8
ENTITYA19764
  6
CONTINUOUS
 62
1
 10
27.002201
 20
179.973534
 11
27.002201
 21
173.144222
  0
LINE
  8
ENTITYA19764
  6
CONTINUOUS
 62
1
 10
27.002201
 20
193.247409
 11
27.002201
 21
189.111347
  0
LINE
  8
ENTITYA19764
  6
CONTINUOUS
 62
1
 10
27.002201
 20
187.957097
 11
27.002201
 21
181.127784
  0
LINE
  8
ENTITYA19764
  6
CONTINUOUS
 62
1
 10
27.002201
 20
179.973534
 11
21.230951
 21
179.973534
  0
LINE
  8
ENTITYA19764
  6
CONTINUOUS
 62
1
 10
20.076701
 20
179.973534
 11
17.191076
 21
179.973534
  0
LINE
  8
ENTITYA19764
  6
CONTINUOUS
 62
1
 10
27.002201
 20
181.127784
 11
21.230951
 21
181.127784
  0
LINE
  8
ENTITYA19764
  6
CONTINUOUS
 62
1
 10
20.076701
 20
181.127784
 11
17.191076
 21
181.127784
  0
LINE
  8
ENTITYA19764
  6
CONTINUOUS
 62
1
 10
20.076701
 20
186.899034
 11
20.076701
 21
181.127784
  0
LINE
  8
ENTITYA19764
  6
CONTINUOUS
 62
1
 10
20.076701
 20
179.973534
 11
20.076701
 21
174.202284
  0
LINE
  8
ENTITYA19764
  6
CONTINUOUS
 62
1
 10
21.230951
 20
173.144222
 11
21.230951
 21
179.973534
  0
LINE
  8
ENTITYA19764
  6
CONTINUOUS
 62
1
 10
21.230951
 20
181.127784
 11
21.230951
 21
187.957097
  0
LINE
  8
ENTITYA19764
  6
CONTINUOUS
 62
1
 10
15.805976
 20
178.117115
 11
15.805976
 21
182.984203
  0
LINE
  8
ENTITYA19764
  6
CONTINUOUS
 62
1
 10
15.575126
 20
182.772590
 11
15.575126
 21
178.328728
  0
LINE
  8
ENTITYA19764
  6
CONTINUOUS
 62
1
 10
15.344276
 20
178.540340
 11
15.344276
 21
182.560978
  0
LINE
  8
ENTITYA19764
  6
CONTINUOUS
 62
1
 10
15.113426
 20
182.349365
 11
15.113426
 21
178.751953
  0
LINE
  8
ENTITYA19764
  6
CONTINUOUS
 62
1
 10
14.882576
 20
178.963565
 11
14.882576
 21
182.137753
  0
LINE
  8
ENTITYA19764
  6
CONTINUOUS
 62
1
 10
14.651726
 20
181.926140
 11
14.651726
 21
179.175178
  0
LINE
  8
ENTITYA19764
  6
CONTINUOUS
 62
1
 10
14.420876
 20
179.386790
 11
14.420876
 21
181.714528
  0
LINE
  8
ENTITYA19764
  6
CONTINUOUS
 62
1
 10
14.190026
 20
181.502915
 11
14.190026
 21
179.598403
  0
LINE
  8
ENTITYA19764
  6
CONTINUOUS
 62
1
 10
13.959176
 20
179.810015
 11
13.959176
 21
181.291303
  0
LINE
  8
ENTITYA19764
  6
CONTINUOUS
 62
1
 10
13.728326
 20
181.079690
 11
13.728326
 21
180.021628
  0
LINE
  8
ENTITYA19764
  6
CONTINUOUS
 62
1
 10
13.497476
 20
180.233240
 11
13.497476
 21
180.868078
  0
LINE
  8
ENTITYA19764
  6
CONTINUOUS
 62
1
 10
13.266626
 20
180.656465
 11
13.266626
 21
180.444853
  0
LINE
  8
ENTITYA19764
  6
CONTINUOUS
 62
1
 10
26.540501
 20
173.144222
 11
26.540501
 21
179.973534
  0
LINE
  8
ENTITYA19764
  6
CONTINUOUS
 62
1
 10
26.078801
 20
179.973534
 11
26.078801
 21
173.144222
  0
LINE
  8
ENTITYA19764
  6
CONTINUOUS
 62
1
 10
25.617101
 20
173.144222
 11
25.617101
 21
179.973534
  0
LINE
  8
ENTITYA19764
  6
CONTINUOUS
 62
1
 10
25.155401
 20
179.973534
 11
25.155401
 21
173.144222
  0
LINE
  8
ENTITYA19764
  6
CONTINUOUS
 62
1
 10
24.693701
 20
173.144222
 11
24.693701
 21
179.973534
  0
LINE
  8
ENTITYA19764
  6
CONTINUOUS
 62
1
 10
24.232001
 20
179.973534
 11
24.232001
 21
173.144222
  0
LINE
  8
ENTITYA19764
  6
CONTINUOUS
 62
1
 10
23.770301
 20
173.144222
 11
23.770301
 21
179.973534
  0
LINE
  8
ENTITYA19764
  6
CONTINUOUS
 62
1
 10
23.308601
 20
179.973534
 11
23.308601
 21
173.144222
  0
LINE
  8
ENTITYA19764
  6
CONTINUOUS
 62
1
 10
22.846901
 20
173.144222
 11
22.846901
 21
179.973534
  0
LINE
  8
ENTITYA19764
  6
CONTINUOUS
 62
1
 10
22.385201
 20
179.973534
 11
22.385201
 21
173.144222
  0
LINE
  8
ENTITYA19764
  6
CONTINUOUS
 62
1
 10
21.923501
 20
173.144222
 11
21.923501
 21
179.973534
  0
LINE
  8
ENTITYA19764
  6
CONTINUOUS
 62
1
 10
21.461801
 20
179.973534
 11
21.461801
 21
173.144222
  0
LINE
  8
ENTITYA19764
  6
CONTINUOUS
 62
1
 10
26.540501
 20
181.127784
 11
26.540501
 21
187.957097
  0
LINE
  8
ENTITYA19764
  6
CONTINUOUS
 62
1
 10
26.078801
 20
187.957097
 11
26.078801
 21
181.127784
  0
LINE
  8
ENTITYA19764
  6
CONTINUOUS
 62
1
 10
25.617101
 20
181.127784
 11
25.617101
 21
187.957097
  0
LINE
  8
ENTITYA19764
  6
CONTINUOUS
 62
1
 10
25.155401
 20
187.957097
 11
25.155401
 21
181.127784
  0
LINE
  8
ENTITYA19764
  6
CONTINUOUS
 62
1
 10
25.155401
 20
187.957097
 11
25.155401
 21
181.127784
  0
LINE
  8
ENTITYA19764
  6
CONTINUOUS
 62
1
 10
24.693701
 20
181.127784
 11
24.693701
 21
187.957097
  0
LINE
  8
ENTITYA19764
  6
CONTINUOUS
 62
1
 10
24.232001
 20
187.957097
 11
24.232001
 21
181.127784
  0
LINE
  8
ENTITYA19764
  6
CONTINUOUS
 62
1
 10
23.770301
 20
181.127784
 11
23.770301
 21
187.957097
  0
LINE
  8
ENTITYA19764
  6
CONTINUOUS
 62
1
 10
23.308601
 20
187.957097
 11
23.308601
 21
181.127784
  0
LINE
  8
ENTITYA19764
  6
CONTINUOUS
 62
1
 10
22.846901
 20
181.127784
 11
22.846901
 21
187.957097
  0
LINE
  8
ENTITYA19764
  6
CONTINUOUS
 62
1
 10
22.385201
 20
187.957097
 11
22.385201
 21
181.127784
  0
LINE
  8
ENTITYA19764
  6
CONTINUOUS
 62
1
 10
21.923501
 20
181.127784
 11
21.923501
 21
187.957097
  0
LINE
  8
ENTITYA19764
  6
CONTINUOUS
 62
1
 10
21.461801
 20
187.957097
 11
21.461801
 21
181.127784
  0
LINE
  8
ENTITYA19764
  6
CONTINUOUS
 62
1
 10
19.615001
 20
181.127784
 11
19.615001
 21
186.475809
  0
LINE
  8
ENTITYA19764
  6
CONTINUOUS
 62
1
 10
19.153301
 20
186.052584
 11
19.153301
 21
181.127784
  0
LINE
  8
ENTITYA19764
  6
CONTINUOUS
 62
1
 10
18.691601
 20
181.127784
 11
18.691601
 21
185.629359
  0
LINE
  8
ENTITYA19764
  6
CONTINUOUS
 62
1
 10
18.229901
 20
185.206134
 11
18.229901
 21
181.127784
  0
LINE
  8
ENTITYA19764
  6
CONTINUOUS
 62
1
 10
17.768201
 20
181.127784
 11
17.768201
 21
184.782909
  0
LINE
  8
ENTITYA19764
  6
CONTINUOUS
 62
1
 10
17.306501
 20
184.359684
 11
17.306501
 21
181.127784
  0
LINE
  8
ENTITYA19764
  6
CONTINUOUS
 62
1
 10
19.615001
 20
174.625509
 11
19.615001
 21
179.973534
  0
LINE
  8
ENTITYA19764
  6
CONTINUOUS
 62
1
 10
19.153301
 20
179.973534
 11
19.153301
 21
175.048734
  0
LINE
  8
ENTITYA19764
  6
CONTINUOUS
 62
1
 10
18.691601
 20
175.471959
 11
18.691601
 21
179.973534
  0
LINE
  8
ENTITYA19764
  6
CONTINUOUS
 62
1
 10
18.229901
 20
179.973534
 11
18.229901
 21
175.895184
  0
LINE
  8
ENTITYA19764
  6
CONTINUOUS
 62
1
 10
17.768201
 20
176.318409
 11
17.768201
 21
179.973534
  0
LINE
  8
ENTITYA19764
  6
CONTINUOUS
 62
1
 10
17.306501
 20
179.973534
 11
17.306501
 21
176.741634
  0
LINE
  8
ENTITYA19764
  6
CONTINUOUS
 62
1
 10
26.540501
 20
168.277134
 11
26.540501
 21
171.989972
  0
LINE
  8
ENTITYA19764
  6
CONTINUOUS
 62
1
 10
26.078801
 20
171.989972
 11
26.078801
 21
168.700359
  0
LINE
  8
ENTITYA19764
  6
CONTINUOUS
 62
1
 10
25.617101
 20
169.123584
 11
25.617101
 21
171.989972
  0
LINE
  8
ENTITYA19764
  6
CONTINUOUS
 62
1
 10
25.155401
 20
171.989972
 11
25.155401
 21
169.546809
  0
LINE
  8
ENTITYA19764
  6
CONTINUOUS
 62
1
 10
24.693701
 20
169.970034
 11
24.693701
 21
171.989972
  0
LINE
  8
ENTITYA19764
  6
CONTINUOUS
 62
1
 10
24.232001
 20
171.989972
 11
24.232001
 21
170.393259
  0
LINE
  8
ENTITYA19764
  6
CONTINUOUS
 62
1
 10
23.770301
 20
170.816484
 11
23.770301
 21
171.989972
  0
LINE
  8
ENTITYA19764
  6
CONTINUOUS
 62
1
 10
23.308601
 20
171.989972
 11
23.308601
 21
171.239709
  0
LINE
  8
ENTITYA19764
  6
CONTINUOUS
 62
1
 10
22.846901
 20
171.662934
 11
22.846901
 21
171.989972
  0
LINE
  8
ENTITYA19764
  6
CONTINUOUS
 62
1
 10
26.540501
 20
189.111347
 11
26.540501
 21
192.824184
  0
LINE
  8
ENTITYA19764
  6
CONTINUOUS
 62
1
 10
26.078801
 20
192.400959
 11
26.078801
 21
189.111347
  0
LINE
  8
ENTITYA19764
  6
CONTINUOUS
 62
1
 10
25.617101
 20
189.111347
 11
25.617101
 21
191.977734
  0
LINE
  8
ENTITYA19764
  6
CONTINUOUS
 62
1
 10
25.155401
 20
191.554509
 11
25.155401
 21
189.111347
  0
LINE
  8
ENTITYA19764
  6
CONTINUOUS
 62
1
 10
24.693701
 20
189.111347
 11
24.693701
 21
191.131284
  0
LINE
  8
ENTITYA19764
  6
CONTINUOUS
 62
1
 10
24.232001
 20
190.708059
 11
24.232001
 21
189.111347
  0
LINE
  8
ENTITYA19764
  6
CONTINUOUS
 62
1
 10
23.770301
 20
189.111347
 11
23.770301
 21
190.284834
  0
LINE
  8
ENTITYA19764
  6
CONTINUOUS
 62
1
 10
23.308601
 20
189.861609
 11
23.308601
 21
189.111347
  0
LINE
  8
ENTITYA19764
  6
CONTINUOUS
 62
1
 10
22.846901
 20
189.111347
 11
22.846901
 21
189.438384
  0
LINE
  8
ENTITYA19764
  6
CONTINUOUS
 62
1
 10
26.771351
 20
173.144222
 11
26.771351
 21
179.973534
  0
LINE
  8
ENTITYA19764
  6
CONTINUOUS
 62
1
 10
26.309651
 20
179.973534
 11
26.309651
 21
173.144222
  0
LINE
  8
ENTITYA19764
  6
CONTINUOUS
 62
1
 10
25.847951
 20
179.973534
 11
25.847951
 21
173.144222
  0
LINE
  8
ENTITYA19764
  6
CONTINUOUS
 62
1
 10
25.386251
 20
173.144222
 11
25.386251
 21
179.973534
  0
LINE
  8
ENTITYA19764
  6
CONTINUOUS
 62
1
 10
23.077751
 20
173.144222
 11
23.077751
 21
179.973534
  0
LINE
  8
ENTITYA19764
  6
CONTINUOUS
 62
1
 10
22.616051
 20
179.973534
 11
22.616051
 21
173.144222
  0
LINE
  8
ENTITYA19764
  6
CONTINUOUS
 62
1
 10
22.154351
 20
173.144222
 11
22.154351
 21
179.973534
  0
LINE
  8
ENTITYA19764
  6
CONTINUOUS
 62
1
 10
21.692651
 20
179.973534
 11
21.692651
 21
173.144222
  0
LINE
  8
ENTITYA19764
  6
CONTINUOUS
 62
1
 10
23.539451
 20
179.973534
 11
23.539451
 21
173.144222
  0
LINE
  8
ENTITYA19764
  6
CONTINUOUS
 62
1
 10
24.001151
 20
173.144222
 11
24.001151
 21
179.973534
  0
LINE
  8
ENTITYA19764
  6
CONTINUOUS
 62
1
 10
24.462851
 20
179.973534
 11
24.462851
 21
173.144222
  0
LINE
  8
ENTITYA19764
  6
CONTINUOUS
 62
1
 10
24.924551
 20
173.144222
 11
24.924551
 21
179.973534
  0
LINE
  8
ENTITYA19764
  6
CONTINUOUS
 62
1
 10
26.771351
 20
181.127784
 11
26.771351
 21
187.957097
  0
LINE
  8
ENTITYA19764
  6
CONTINUOUS
 62
1
 10
26.309651
 20
187.957097
 11
26.309651
 21
181.127784
  0
LINE
  8
ENTITYA19764
  6
CONTINUOUS
 62
1
 10
21.692651
 20
181.127784
 11
21.692651
 21
187.957097
  0
LINE
  8
ENTITYA19764
  6
CONTINUOUS
 62
1
 10
22.154351
 20
187.957097
 11
22.154351
 21
181.127784
  0
LINE
  8
ENTITYA19764
  6
CONTINUOUS
 62
1
 10
22.616051
 20
187.957097
 11
22.616051
 21
181.127784
  0
LINE
  8
ENTITYA19764
  6
CONTINUOUS
 62
1
 10
23.077751
 20
181.127784
 11
23.077751
 21
187.957097
  0
LINE
  8
ENTITYA19764
  6
CONTINUOUS
 62
1
 10
23.539451
 20
181.127784
 11
23.539451
 21
187.957097
  0
LINE
  8
ENTITYA19764
  6
CONTINUOUS
 62
1
 10
24.001151
 20
181.127784
 11
24.001151
 21
187.957097
  0
LINE
  8
ENTITYA19764
  6
CONTINUOUS
 62
1
 10
24.462851
 20
181.127784
 11
24.462851
 21
187.957097
  0
LINE
  8
ENTITYA19764
  6
CONTINUOUS
 62
1
 10
24.924551
 20
187.957097
 11
24.924551
 21
181.127784
  0
LINE
  8
ENTITYA19764
  6
CONTINUOUS
 62
1
 10
25.386251
 20
187.957097
 11
25.386251
 21
181.127784
  0
LINE
  8
ENTITYA19764
  6
CONTINUOUS
 62
1
 10
25.847951
 20
181.127784
 11
25.847951
 21
187.957097
  0
LINE
  8
ENTITYA19764
  6
CONTINUOUS
 62
1
 10
26.771351
 20
189.111347
 11
26.771351
 21
193.035797
  0
LINE
  8
ENTITYA19764
  6
CONTINUOUS
 62
1
 10
26.309651
 20
192.612572
 11
26.309651
 21
189.111347
  0
LINE
  8
ENTITYA19764
  6
CONTINUOUS
 62
1
 10
25.847951
 20
189.111347
 11
25.847951
 21
192.189347
  0
LINE
  8
ENTITYA19764
  6
CONTINUOUS
 62
1
 10
25.386251
 20
191.766122
 11
25.386251
 21
189.111347
  0
LINE
  8
ENTITYA19764
  6
CONTINUOUS
 62
1
 10
24.924551
 20
189.111347
 11
24.924551
 21
191.342897
  0
LINE
  8
ENTITYA19764
  6
CONTINUOUS
 62
1
 10
24.462851
 20
190.919672
 11
24.462851
 21
189.111347
  0
LINE
  8
ENTITYA19764
  6
CONTINUOUS
 62
1
 10
24.001151
 20
190.496447
 11
24.001151
 21
189.111347
  0
LINE
  8
ENTITYA19764
  6
CONTINUOUS
 62
1
 10
23.539451
 20
190.073222
 11
23.539451
 21
189.111347
  0
LINE
  8
ENTITYA19764
  6
CONTINUOUS
 62
1
 10
23.077751
 20
189.111347
 11
23.077751
 21
189.649997
  0
LINE
  8
ENTITYA19764
  6
CONTINUOUS
 62
1
 10
22.616051
 20
189.226772
 11
22.616051
 21
189.111347
  0
LINE
  8
ENTITYA19764
  6
CONTINUOUS
 62
1
 10
26.771351
 20
168.065522
 11
26.771351
 21
171.989972
  0
LINE
  8
ENTITYA19764
  6
CONTINUOUS
 62
1
 10
26.309651
 20
171.989972
 11
26.309651
 21
168.488747
  0
LINE
  8
ENTITYA19764
  6
CONTINUOUS
 62
1
 10
25.847951
 20
168.911972
 11
25.847951
 21
171.989972
  0
LINE
  8
ENTITYA19764
  6
CONTINUOUS
 62
1
 10
25.386251
 20
171.989972
 11
25.386251
 21
169.335197
  0
LINE
  8
ENTITYA19764
  6
CONTINUOUS
 62
1
 10
24.924551
 20
169.758422
 11
24.924551
 21
171.989972
  0
LINE
  8
ENTITYA19764
  6
CONTINUOUS
 62
1
 10
24.462851
 20
171.989972
 11
24.462851
 21
170.181647
  0
LINE
  8
ENTITYA19764
  6
CONTINUOUS
 62
1
 10
24.001151
 20
170.604872
 11
24.001151
 21
171.989972
  0
LINE
  8
ENTITYA19764
  6
CONTINUOUS
 62
1
 10
23.539451
 20
171.989972
 11
23.539451
 21
171.028097
  0
LINE
  8
ENTITYA19764
  6
CONTINUOUS
 62
1
 10
23.077751
 20
171.451322
 11
23.077751
 21
171.989972
  0
LINE
  8
ENTITYA19764
  6
CONTINUOUS
 62
1
 10
22.616051
 20
171.989972
 11
22.616051
 21
171.874547
  0
LINE
  8
ENTITYA19764
  6
CONTINUOUS
 62
1
 10
19.845851
 20
181.127784
 11
19.845851
 21
186.687422
  0
LINE
  8
ENTITYA19764
  6
CONTINUOUS
 62
1
 10
19.384151
 20
186.264197
 11
19.384151
 21
181.127784
  0
LINE
  8
ENTITYA19764
  6
CONTINUOUS
 62
1
 10
18.922451
 20
181.127784
 11
18.922451
 21
185.840972
  0
LINE
  8
ENTITYA19764
  6
CONTINUOUS
 62
1
 10
18.460751
 20
185.417747
 11
18.460751
 21
181.127784
  0
LINE
  8
ENTITYA19764
  6
CONTINUOUS
 62
1
 10
17.999051
 20
181.127784
 11
17.999051
 21
184.994522
  0
LINE
  8
ENTITYA19764
  6
CONTINUOUS
 62
1
 10
17.537351
 20
184.571297
 11
17.537351
 21
181.127784
  0
LINE
  8
ENTITYA19764
  6
CONTINUOUS
 62
1
 10
17.537351
 20
179.973534
 11
17.537351
 21
176.530022
  0
LINE
  8
ENTITYA19764
  6
CONTINUOUS
 62
1
 10
17.999051
 20
176.106797
 11
17.999051
 21
179.973534
  0
LINE
  8
ENTITYA19764
  6
CONTINUOUS
 62
1
 10
18.460751
 20
179.973534
 11
18.460751
 21
175.683572
  0
LINE
  8
ENTITYA19764
  6
CONTINUOUS
 62
1
 10
18.922451
 20
175.260347
 11
18.922451
 21
179.973534
  0
LINE
  8
ENTITYA19764
  6
CONTINUOUS
 62
1
 10
19.384151
 20
179.973534
 11
19.384151
 21
174.837122
  0
LINE
  8
ENTITYA19764
  6
CONTINUOUS
 62
1
 10
19.845851
 20
174.413897
 11
19.845851
 21
179.973534
  0
LINE
  8
ENTITYA19764
  6
CONTINUOUS
 62
1
 10
39.314201
 20
199.457590
 11
39.314201
 21
161.643698
  0
LINE
  8
ENTITYA19764
  6
CONTINUOUS
 62
1
 10
29.310701
 20
161.643698
 11
29.310701
 21
199.457590
  0
LINE
  8
ENTITYA19764
  6
CONTINUOUS
 62
1
 10
29.400701
 20
199.457590
 11
29.400701
 21
161.643698
  0
LINE
  8
ENTITYA19764
  6
CONTINUOUS
 62
1
 10
39.404201
 20
161.643698
 11
39.404201
 21
199.457590
  0
ARC
  8
ENTITYA19764
  6
CONTINUOUS
 62
1
 10
32.349256
 20
164.250945
 40
1.226409
 50
101.065051
 51
132.065051
  0
ARC
  8
ENTITYA19764
  6
CONTINUOUS
 62
1
 10
32.475046
 20
164.321257
 40
1.266304
 50
138.434949
 51
168.434949
  0
ARC
  8
ENTITYA19764
  6
CONTINUOUS
 62
1
 10
33.862080
 20
164.135412
 40
2.664166
 50
170.500000
 51
189.499999
  0
ARC
  8
ENTITYA19764
  6
CONTINUOUS
 62
1
 10
33.200607
 20
163.609854
 40
1.968029
 50
177.500000
 51
272.499999
  0
LINE
  8
ENTITYA19764
  6
CONTINUOUS
 62
1
 10
33.286451
 20
161.643698
 11
35.045308
 21
161.643698
  0
ARC
  8
ENTITYA19764
  6
CONTINUOUS
 62
1
 10
34.902426
 20
165.003773
 40
3.363111
 50
272.434949
 51
304.434949
  0
ARC
  8
ENTITYA19764
  6
CONTINUOUS
 62
1
 10
35.946657
 20
163.391595
 40
1.443835
 50
306.434949
 51
0.434948
  0
LINE
  8
ENTITYA19764
  6
CONTINUOUS
 62
1
 10
37.390451
 20
163.402555
 11
37.390451
 21
163.988841
  0
ARC
  8
ENTITYA19764
  6
CONTINUOUS
 62
1
 10
35.975821
 20
164.059022
 40
1.416370
 50
357.159808
 51
80.159810
  0
LINE
  8
ENTITYA19764
  6
CONTINUOUS
 62
1
 10
37.390451
 20
166.920269
 11
31.234451
 21
166.920269
  0
LINE
  8
ENTITYA19764
  6
CONTINUOUS
 62
1
 10
31.234451
 20
166.920269
 11
31.234451
 21
169.558555
  0
ARC
  8
ENTITYA19764
  6
CONTINUOUS
 62
1
 10
32.407022
 20
169.558555
 40
1.172571
 50
90.000000
 51
180.000000
  0
ARC
  8
ENTITYA19764
  6
CONTINUOUS
 62
1
 10
32.407022
 20
169.265412
 40
1.465714
 50
0.000001
 51
90.000000
  0
LINE
  8
ENTITYA19764
  6
CONTINUOUS
 62
1
 10
33.872736
 20
169.265412
 11
33.872736
 21
166.920269
  0
LINE
  8
ENTITYA19764
  6
CONTINUOUS
 62
1
 10
33.872736
 20
168.679126
 11
37.390451
 21
170.731126
  0
LINE
  8
ENTITYA19764
  6
CONTINUOUS
 62
1
 10
37.390451
 20
172.196841
 11
31.234451
 21
172.196841
  0
LINE
  8
ENTITYA19764
  6
CONTINUOUS
 62
1
 10
31.234451
 20
175.714555
 11
37.390451
 21
175.714555
  0
LINE
  8
ENTITYA19764
  6
CONTINUOUS
 62
1
 10
31.234451
 20
173.662555
 11
31.234451
 21
183.336269
  0
LINE
  8
ENTITYA19764
  6
CONTINUOUS
 62
1
 10
31.234451
 20
181.284269
 11
37.390451
 21
181.284269
  0
LINE
  8
ENTITYA19764
  6
CONTINUOUS
 62
1
 10
37.390451
 20
184.801984
 11
31.234451
 21
187.147126
  0
LINE
  8
ENTITYA19764
  6
CONTINUOUS
 62
1
 10
31.234451
 20
187.147126
 11
37.390451
 21
189.492269
  0
LINE
  8
ENTITYA19764
  6
CONTINUOUS
 62
1
 10
35.338451
 20
185.583698
 11
35.338451
 21
188.710555
  0
LINE
  8
ENTITYA19764
  6
CONTINUOUS
 62
1
 10
37.390451
 20
190.957984
 11
31.234451
 21
190.957984
  0
LINE
  8
ENTITYA19764
  6
CONTINUOUS
 62
1
 10
37.390451
 20
190.957984
 11
37.390451
 21
194.475698
  0
LINE
  8
ENTITYA19764
  6
CONTINUOUS
 62
1
 10
37.390451
 20
195.941412
 11
31.234451
 21
195.941412
  0
LINE
  8
ENTITYA19764
  6
CONTINUOUS
 62
1
 10
37.390451
 20
195.941412
 11
37.390451
 21
199.459126
  0
LINE
  8
ENTITYA19764
  6
CONTINUOUS
 62
1
 10
267.396594
 20
191.739155
 11
265.521594
 21
191.739155
  0
ARC
  8
ENTITYA19764
  6
CONTINUOUS
 62
1
 10
261.147317
 20
191.418037
 40
4.386048
 50
4.198591
 51
42.198592
  0
ARC
  8
ENTITYA19764
  6
CONTINUOUS
 62
1
 10
261.214393
 20
190.426044
 40
5.063114
 50
51.059965
 51
90.059967
  0
ARC
  8
ENTITYA19764
  6
CONTINUOUS
 62
1
 10
261.101330
 20
191.214025
 40
4.276488
 50
88.556045
 51
132.556044
  0
ARC
  8
ENTITYA19764
  6
CONTINUOUS
 62
1
 10
259.795267
 20
192.931661
 40
2.137285
 50
137.914383
 51
213.914386
  0
ARC
  8
ENTITYA19764
  6
CONTINUOUS
 62
1
 10
260.690291
 20
194.061984
 40
3.538004
 50
221.036243
 51
257.036244
  0
LINE
  8
ENTITYA19764
  6
CONTINUOUS
 62
1
 10
259.896594
 20
190.614155
 11
263.271594
 21
189.676655
  0
ARC
  8
ENTITYA19764
  6
CONTINUOUS
 62
1
 10
262.338553
 20
184.972034
 40
4.796251
 50
30.782407
 51
78.782407
  0
ARC
  8
ENTITYA19764
  6
CONTINUOUS
 62
1
 10
262.889004
 20
185.889914
 40
3.886787
 50
325.289408
 51
23.289407
  0
ARC
  8
ENTITYA19764
  6
CONTINUOUS
 62
1
 10
262.151938
 20
186.853467
 40
5.055095
 50
272.065052
 51
321.065051
  0
ARC
  8
ENTITYA19764
  6
CONTINUOUS
 62
1
 10
261.501553
 20
188.359467
 40
6.610448
 50
238.235225
 51
277.235226
  0
ARC
  8
ENTITYA19764
  6
CONTINUOUS
 62
1
 10
260.505843
 20
186.321326
 40
4.359294
 50
180.258542
 51
235.258541
  0
LINE
  8
ENTITYA19764
  6
CONTINUOUS
 62
1
 10
256.146594
 20
186.301655
 11
258.021594
 21
186.301655
  0
ARC
  8
ENTITYA19764
  6
CONTINUOUS
 62
1
 10
261.265167
 20
186.685927
 40
3.266256
 50
186.756437
 51
233.756439
  0
ARC
  8
ENTITYA19764
  6
CONTINUOUS
 62
1
 10
261.711205
 20
189.037712
 40
5.523714
 50
244.510447
 51
290.510447
  0
ARC
  8
ENTITYA19764
  6
CONTINUOUS
 62
1
 10
262.688744
 20
185.749331
 40
2.114560
 50
296.934949
 51
9.934947
  0
ARC
  8
ENTITYA19764
  6
CONTINUOUS
 62
1
 10
262.866695
 20
185.709257
 40
1.947455
 50
12.000000
 51
78.000002
  0
LINE
  8
ENTITYA19764
  6
CONTINUOUS
 62
1
 10
263.271594
 20
187.614155
 11
258.209094
 21
189.114155
  0
ARC
  8
ENTITYA19764
  6
CONTINUOUS
 62
1
 10
259.635115
 20
192.812541
 40
3.963785
 50
192.914382
 51
248.914383
  0
ARC
  8
ENTITYA19764
  6
CONTINUOUS
 62
1
 10
260.053830
 20
192.686743
 40
4.349170
 50
133.065052
 51
190.065051
  0
ARC
  8
ENTITYA19764
  6
CONTINUOUS
 62
1
 10
260.901814
 20
191.003999
 40
6.180300
 50
87.150123
 51
128.150124
  0
ARC
  8
ENTITYA19764
  6
CONTINUOUS
 62
1
 10
261.540327
 20
189.914073
 40
7.270132
 50
63.611341
 51
92.611342
  0
ARC
  8
ENTITYA19764
  6
CONTINUOUS
 62
1
 10
262.183439
 20
191.898539
 40
5.215591
 50
358.248827
 51
60.248826
  0
LINE
  8
ENTITYA19764
  6
CONTINUOUS
 62
1
 10
246.584094
 20
196.989155
 11
248.646594
 21
196.989155
  0
LINE
  8
ENTITYA19764
  6
CONTINUOUS
 62
1
 10
248.646594
 20
196.989155
 11
248.646594
 21
183.676655
  0
LINE
  8
ENTITYA19764
  6
CONTINUOUS
 62
1
 10
248.646594
 20
183.676655
 11
253.709094
 21
183.676655
  0
LINE
  8
ENTITYA19764
  6
CONTINUOUS
 62
1
 10
253.709094
 20
183.676655
 11
253.709094
 21
181.989155
  0
LINE
  8
ENTITYA19764
  6
CONTINUOUS
 62
1
 10
253.709094
 20
181.989155
 11
241.709094
 21
181.989155
  0
LINE
  8
ENTITYA19764
  6
CONTINUOUS
 62
1
 10
241.709094
 20
181.989155
 11
241.709094
 21
183.676655
  0
LINE
  8
ENTITYA19764
  6
CONTINUOUS
 62
1
 10
241.709094
 20
183.676655
 11
246.584094
 21
183.676655
  0
LINE
  8
ENTITYA19764
  6
CONTINUOUS
 62
1
 10
246.584094
 20
183.676655
 11
246.584094
 21
196.989155
  0
LINE
  8
ENTITYA19764
  6
CONTINUOUS
 62
1
 10
239.084094
 20
181.989155
 11
228.396594
 21
181.989155
  0
LINE
  8
ENTITYA19764
  6
CONTINUOUS
 62
1
 10
228.396594
 20
181.989155
 11
228.396594
 21
183.676655
  0
LINE
  8
ENTITYA19764
  6
CONTINUOUS
 62
1
 10
228.396594
 20
183.676655
 11
237.021594
 21
183.676655
  0
LINE
  8
ENTITYA19764
  6
CONTINUOUS
 62
1
 10
237.021594
 20
183.676655
 11
237.021594
 21
188.364155
  0
LINE
  8
ENTITYA19764
  6
CONTINUOUS
 62
1
 10
237.021594
 20
188.364155
 11
228.959094
 21
188.364155
  0
LINE
  8
ENTITYA19764
  6
CONTINUOUS
 62
1
 10
228.959094
 20
188.364155
 11
228.959094
 21
190.051655
  0
LINE
  8
ENTITYA19764
  6
CONTINUOUS
 62
1
 10
228.959094
 20
190.051655
 11
237.021594
 21
190.051655
  0
LINE
  8
ENTITYA19764
  6
CONTINUOUS
 62
1
 10
237.021594
 20
190.051655
 11
237.021594
 21
195.301655
  0
LINE
  8
ENTITYA19764
  6
CONTINUOUS
 62
1
 10
237.021594
 20
195.301655
 11
227.834094
 21
195.301655
  0
LINE
  8
ENTITYA19764
  6
CONTINUOUS
 62
1
 10
227.834094
 20
195.301655
 11
227.834094
 21
196.989155
  0
LINE
  8
ENTITYA19764
  6
CONTINUOUS
 62
1
 10
227.834094
 20
196.989155
 11
239.084094
 21
196.989155
  0
LINE
  8
ENTITYA19764
  6
CONTINUOUS
 62
1
 10
239.084094
 20
196.989155
 11
239.084094
 21
181.989155
  0
LINE
  8
ENTITYA19764
  6
CONTINUOUS
 62
1
 10
224.646594
 20
181.989155
 11
213.959094
 21
181.989155
  0
LINE
  8
ENTITYA19764
  6
CONTINUOUS
 62
1
 10
213.959094
 20
181.989155
 11
213.959094
 21
183.676655
  0
LINE
  8
ENTITYA19764
  6
CONTINUOUS
 62
1
 10
213.959094
 20
183.676655
 11
222.584094
 21
183.676655
  0
LINE
  8
ENTITYA19764
  6
CONTINUOUS
 62
1
 10
222.584094
 20
183.676655
 11
222.584094
 21
188.364155
  0
LINE
  8
ENTITYA19764
  6
CONTINUOUS
 62
1
 10
222.584094
 20
188.364155
 11
214.521594
 21
188.364155
  0
LINE
  8
ENTITYA19764
  6
CONTINUOUS
 62
1
 10
214.521594
 20
188.364155
 11
214.521594
 21
190.051655
  0
LINE
  8
ENTITYA19764
  6
CONTINUOUS
 62
1
 10
214.521594
 20
190.051655
 11
222.584094
 21
190.051655
  0
LINE
  8
ENTITYA19764
  6
CONTINUOUS
 62
1
 10
222.584094
 20
190.051655
 11
222.584094
 21
195.301655
  0
LINE
  8
ENTITYA19764
  6
CONTINUOUS
 62
1
 10
222.584094
 20
195.301655
 11
213.396594
 21
195.301655
  0
LINE
  8
ENTITYA19764
  6
CONTINUOUS
 62
1
 10
213.396594
 20
195.301655
 11
213.396594
 21
196.989155
  0
LINE
  8
ENTITYA19764
  6
CONTINUOUS
 62
1
 10
213.396594
 20
196.989155
 11
224.646594
 21
196.989155
  0
LINE
  8
ENTITYA19764
  6
CONTINUOUS
 62
1
 10
224.646594
 20
196.989155
 11
224.646594
 21
181.989155
  0
LINE
  8
ENTITYA19764
  6
CONTINUOUS
 62
1
 10
210.209094
 20
181.989155
 11
208.146594
 21
181.989155
  0
LINE
  8
ENTITYA19764
  6
CONTINUOUS
 62
1
 10
208.146594
 20
181.989155
 11
208.146594
 21
195.301655
  0
LINE
  8
ENTITYA19764
  6
CONTINUOUS
 62
1
 10
208.146594
 20
195.301655
 11
201.021594
 21
195.301655
  0
LINE
  8
ENTITYA19764
  6
CONTINUOUS
 62
1
 10
201.021594
 20
195.301655
 11
201.021594
 21
196.989155
  0
LINE
  8
ENTITYA19764
  6
CONTINUOUS
 62
1
 10
201.021594
 20
196.989155
 11
210.209094
 21
196.989155
  0
LINE
  8
ENTITYA19764
  6
CONTINUOUS
 62
1
 10
210.209094
 20
196.989155
 11
210.209094
 21
181.989155
  0
TEXT
  8
ENTITYA19764
  6
CONTINUOUS
 62
1
 10
19.929699
 20
18.447557
 40
6.000000
  1
Corporate W20 
 50
90.000000
 41
1.000000
 51
0.000000
  7
STANDARD
  0
TEXT
  8
ENTITYA19764
  6
CONTINUOUS
 62
1
 10
31.929699
 20
18.447557
 40
6.000000
  1
Fixed Light Glazing
 50
90.000000
 41
1.000000
 51
0.000000
  7
STANDARD
  0
TEXT
  8
ENTITYA19764
  6
CONTINUOUS
 62
1
 10
284.910143
 20
182.410419
 40
10.000000
  1
D1
 50
90.000000
 41
1.000000
 51
0.000000
  7
STANDARD
  0
LINE
  8
ENTITYA19764
  6
CONTINUOUS
 62
1
 10
104.889896
 20
98.536856
 11
104.889896
 21
98.536856
  0
LINE
  8
ENTITYA19764
  6
CONTINUOUS
 62
1
 10
114.389896
 20
103.736856
 11
114.389896
 21
106.936856
  0
LINE
  8
ENTITYA19764
  6
CONTINUOUS
 62
1
 10
109.391441
 20
103.112049
 11
114.389896
 21
103.736856
  0
ARC
  8
ENTITYA19764
  6
CONTINUOUS
 62
1
 10
109.589896
 20
101.524405
 40
1.600000
 50
97.125016
 51
180.000000
  0
LINE
  8
ENTITYA19764
  6
CONTINUOUS
 62
1
 10
104.889896
 20
81.691381
 11
104.889896
 21
98.536856
  0
LINE
  8
ENTITYA19764
  6
CONTINUOUS
 62
1
 10
92.389896
 20
75.136856
 11
92.389896
 21
78.436856
  0
LINE
  8
ENTITYA19764
  6
CONTINUOUS
 62
1
 10
103.442793
 20
79.497934
 11
92.389896
 21
78.436856
  0
LINE
  8
ENTITYA19764
  6
CONTINUOUS
 62
1
 10
104.889896
 20
81.090612
 11
104.889896
 21
106.936856
  0
ARC
  8
ENTITYA19764
  6
CONTINUOUS
 62
1
 10
103.289896
 20
81.090612
 40
1.600000
 50
275.483590
 51
0.000000
  0
LINE
  8
ENTITYA19764
  6
CONTINUOUS
 62
1
 10
114.389896
 20
75.136856
 11
46.792774
 21
75.136856
  0
LINE
  8
ENTITYA19764
  6
CONTINUOUS
 62
1
 10
114.389896
 20
75.136856
 11
114.389896
 21
78.336856
  0
LINE
  8
ENTITYA19764
  6
CONTINUOUS
 62
1
 10
107.989896
 20
81.038992
 11
107.989896
 21
101.524405
  0
LINE
  8
ENTITYA19764
  6
CONTINUOUS
 62
1
 10
114.389896
 20
103.736856
 11
114.389896
 21
106.936856
  0
LINE
  8
ENTITYA19764
  6
CONTINUOUS
 62
1
 10
109.391441
 20
103.112049
 11
114.389896
 21
103.736856
  0
ARC
  8
ENTITYA19764
  6
CONTINUOUS
 62
1
 10
109.589896
 20
81.038992
 40
1.600000
 50
180.000000
 51
257.508981
  0
LINE
  8
ENTITYA19764
  6
RANDOM
 62
1
 10
46.792774
 20
75.136856
 11
46.792774
 21
106.936856
  0
LINE
  8
ENTITYA19764
  6
DASHED
 62
1
 10
103.189896
 20
98.536856
 11
103.189896
 21
103.936856
  0
LINE
  8
ENTITYA19764
  6
DASHED
 62
1
 10
105.989896
 20
98.736856
 11
105.989896
 21
103.736856
  0
LINE
  8
ENTITYA19764
  6
DASHED
 62
1
 10
108.789896
 20
103.111856
 11
108.789896
 21
99.361856
  0
LINE
  8
ENTITYA19764
  6
DASHED
 62
1
 10
100.389896
 20
103.686856
 11
101.189896
 21
103.686856
  0
LINE
  8
ENTITYA19764
  6
DASHED
 62
1
 10
100.389896
 20
98.786856
 11
101.189896
 21
98.786856
  0
LINE
  8
ENTITYA19764
  6
DASHED
 62
1
 10
100.389896
 20
103.686856
 11
99.189896
 21
102.486856
  0
LINE
  8
ENTITYA19764
  6
DASHED
 62
1
 10
100.389896
 20
98.786856
 11
99.189896
 21
99.986856
  0
LINE
  8
ENTITYA19764
  6
DASHED
 62
1
 10
103.189896
 20
102.986856
 11
101.189896
 21
102.986856
  0
LINE
  8
ENTITYA19764
  6
DASHED
 62
1
 10
103.189896
 20
99.486856
 11
101.189896
 21
99.486856
  0
LINE
  8
ENTITYA19764
  6
DASHED
 62
1
 10
104.889896
 20
103.936856
 11
103.189896
 21
103.936856
  0
LINE
  8
ENTITYA19764
  6
DASHED
 62
1
 10
104.889896
 20
98.536856
 11
103.189896
 21
98.536856
  0
LINE
  8
ENTITYA19764
  6
DASHED
 62
1
 10
100.789896
 20
100.636856
 11
100.789896
 21
101.836856
  0
LINE
  8
ENTITYA19764
  6
DASHED
 62
1
 10
100.789896
 20
101.836856
 11
99.189896
 21
101.836856
  0
LINE
  8
ENTITYA19764
  6
DASHED
 62
1
 10
100.789896
 20
100.636856
 11
99.189896
 21
100.636856
  0
LINE
  8
ENTITYA19764
  6
DASHED
 62
1
 10
99.189896
 20
102.486856
 11
99.189896
 21
101.836856
  0
LINE
  8
ENTITYA19764
  6
DASHED
 62
1
 10
99.189896
 20
100.636856
 11
99.189896
 21
99.986856
  0
LINE
  8
ENTITYA19764
  6
DASHED
 62
1
 10
100.389896
 20
98.786856
 11
100.389896
 21
100.636856
  0
LINE
  8
ENTITYA19764
  6
DASHED
 62
1
 10
100.389896
 20
101.836856
 11
100.389896
 21
103.686856
  0
LINE
  8
ENTITYA19764
  6
DASHED
 62
1
 10
108.164896
 20
103.736856
 11
104.889896
 21
103.736856
  0
LINE
  8
ENTITYA19764
  6
DASHED
 62
1
 10
108.164896
 20
98.736856
 11
104.889896
 21
98.736856
  0
LINE
  8
ENTITYA19764
  6
DASHED
 62
1
 10
105.989896
 20
103.111856
 11
108.789896
 21
103.111856
  0
LINE
  8
ENTITYA19764
  6
DASHED
 62
1
 10
105.989896
 20
99.361856
 11
108.789896
 21
99.361856
  0
LINE
  8
ENTITYA19764
  6
DASHED
 62
1
 10
105.989896
 20
99.361856
 11
104.889896
 21
99.361856
  0
LINE
  8
ENTITYA19764
  6
DASHED
 62
1
 10
105.989896
 20
103.111856
 11
104.889896
 21
103.111856
  0
LINE
  8
ENTITYA19764
  6
DASHED
 62
1
 10
108.164896
 20
98.736856
 11
108.164896
 21
103.736856
  0
LINE
  8
ENTITYA19764
  6
DASHED
 62
1
 10
108.789896
 20
103.111856
 11
108.164896
 21
103.736856
  0
LINE
  8
ENTITYA19764
  6
DASHED
 62
1
 10
108.789896
 20
99.361856
 11
108.164896
 21
98.736856
  0
LINE
  8
ENTITYA19764
  6
DASHED
 62
1
 10
101.189896
 20
98.786856
 11
101.189896
 21
103.686856
  0
LINE
  8
ENTITYA19764
  6
CONTINUOUS
 62
1
 10
96.629034
 20
104.783869
 11
104.410787
 21
104.783869
  0
LINE
  8
ENTITYA19764
  6
CONTINUOUS
 62
1
 10
102.326236
 20
98.083869
 11
93.338138
 21
98.083869
  0
LINE
  8
ENTITYA19764
  6
CONTINUOUS
 62
1
 10
102.960787
 20
103.783869
 11
96.975444
 21
103.783869
  0
LINE
  8
ENTITYA19764
  6
CONTINUOUS
 62
1
 10
94.435103
 20
99.083869
 11
100.060787
 21
99.083869
  0
LINE
  8
ENTITYA19764
  6
CONTINUOUS
 62
1
 10
102.960787
 20
103.783869
 11
102.960787
 21
104.083869
  0
LINE
  8
ENTITYA19764
  6
CONTINUOUS
 62
1
 10
102.960787
 20
104.083869
 11
104.410787
 21
104.083869
  0
LINE
  8
ENTITYA19764
  6
CONTINUOUS
 62
1
 10
101.260787
 20
98.783869
 11
101.260787
 21
99.333869
  0
LINE
  8
ENTITYA19764
  6
CONTINUOUS
 62
1
 10
100.360787
 20
98.783869
 11
101.260787
 21
98.783869
  0
LINE
  8
ENTITYA19764
  6
CONTINUOUS
 62
1
 10
100.360787
 20
98.783869
 11
100.060787
 21
99.083869
  0
LINE
  8
ENTITYA19764
  6
CONTINUOUS
 62
1
 10
101.260787
 20
99.333869
 11
101.660787
 21
99.333869
  0
LINE
  8
ENTITYA19764
  6
CONTINUOUS
 62
1
 10
101.660787
 20
99.333869
 11
102.519073
 21
98.613682
  0
ARC
  8
ENTITYA19764
  6
CONTINUOUS
 62
1
 10
102.326236
 20
98.383869
 40
0.300000
 50
270.000000
 51
50.000000
  0
ARC
  8
ENTITYA19764
  6
CONTINUOUS
 62
1
 10
104.410787
 20
104.433869
 40
0.350000
 50
0.000000
 51
90.000000
  0
ARC
  8
ENTITYA19764
  6
CONTINUOUS
 62
1
 10
104.410787
 20
104.433869
 40
0.350000
 50
270.000000
 51
0.000000
  0
LINE
  8
ENTITYA19764
  6
CONTINUOUS
 62
1
 10
92.327775
 20
98.333869
 11
95.763009
 21
104.283869
  0
LINE
  8
ENTITYA19764
  6
CONTINUOUS
 62
1
 10
96.455829
 20
103.483869
 11
94.175296
 21
99.533869
  0
ARC
  8
ENTITYA19764
  6
CONTINUOUS
 62
1
 10
96.629034
 20
103.783869
 40
1.000000
 50
90.000000
 51
150.000000
  0
ARC
  8
ENTITYA19764
  6
CONTINUOUS
 62
1
 10
96.975444
 20
103.183869
 40
0.600000
 50
90.000000
 51
150.000000
  0
ARC
  8
ENTITYA19764
  6
CONTINUOUS
 62
1
 10
94.435103
 20
99.383869
 40
0.300000
 50
150.000000
 51
270.000000
  0
LINE
  8
ENTITYA19764
  6
CONTINUOUS
 62
1
 10
92.760787
 20
97.583869
 11
92.838138
 21
97.583869
  0
ARC
  8
ENTITYA19764
  6
CONTINUOUS
 62
1
 10
92.760787
 20
98.083869
 40
0.500000
 50
150.000000
 51
270.000000
  0
ARC
  8
ENTITYA19764
  6
CONTINUOUS
 62
1
 10
92.838138
 20
98.083869
 40
0.500000
 50
270.000000
 51
0.000000
  0
ARC
  8
ENTITYA19764
  6
CONTINUOUS
 62
1
 10
91.784461
 20
98.293390
 40
0.500000
 50
347.627574
 51
134.705568
  0
ARC
  8
ENTITYA19764
  6
CONTINUOUS
 62
1
 10
95.066737
 20
93.313801
 40
6.455057
 50
124.261499
 51
162.229946
  0
ARC
  8
ENTITYA19764
  6
CONTINUOUS
 62
1
 10
100.436030
 20
94.911089
 40
1.500000
 50
14.389938
 51
68.417277
  0
ARC
  8
ENTITYA19764
  6
CONTINUOUS
 62
1
 10
95.634490
 20
96.021687
 40
2.000000
 50
59.343182
 51
115.267056
  0
ARC
  8
ENTITYA19764
  6
CONTINUOUS
 62
1
 10
96.062422
 20
97.766395
 40
2.000000
 50
216.675372
 51
274.153438
  0
ARC
  8
ENTITYA19764
  6
CONTINUOUS
 62
1
 10
96.321924
 20
96.765054
 40
1.000000
 50
263.416759
 51
345.000000
  0
ARC
  8
ENTITYA19764
  6
CONTINUOUS
 62
1
 10
96.321924
 20
96.765054
 40
1.000000
 50
345.000000
 51
60.018222
  0
LINE
  8
ENTITYA19764
  6
CONTINUOUS
 62
1
 10
96.821648
 20
97.631238
 11
96.654279
 21
97.742160
  0
ARC
  8
ENTITYA19764
  6
CONTINUOUS
 62
1
 10
95.356086
 20
97.012381
 40
1.000000
 50
125.118701
 51
206.138815
  0
ARC
  8
ENTITYA19764
  6
CONTINUOUS
 62
1
 10
95.634490
 20
96.021687
 40
2.000000
 50
59.343182
 51
115.267056
  0
ARC
  8
ENTITYA19764
  6
CONTINUOUS
 62
1
 10
95.356086
 20
97.012381
 40
1.000000
 50
125.118701
 51
140.335197
  0
ARC
  8
ENTITYA19764
  6
CONTINUOUS
 62
1
 10
96.062422
 20
97.766395
 40
2.000000
 50
216.675372
 51
274.153438
  0
ARC
  8
ENTITYA19764
  6
CONTINUOUS
 62
1
 10
96.321924
 20
96.765054
 40
1.000000
 50
263.416759
 51
345.000000
  0
ARC
  8
ENTITYA19764
  6
CONTINUOUS
 62
1
 10
96.321924
 20
96.765054
 40
1.000000
 50
345.000000
 51
60.018222
  0
LINE
  8
ENTITYA19764
  6
CONTINUOUS
 62
1
 10
96.821648
 20
97.631238
 11
96.654279
 21
97.742160
  0
ARC
  8
ENTITYA19764
  6
CONTINUOUS
 62
1
 10
95.356086
 20
97.012381
 40
1.000000
 50
125.118701
 51
206.138815
  0
ARC
  8
ENTITYA19764
  6
CONTINUOUS
 62
1
 10
94.813910
 20
86.252203
 40
11.798055
 50
58.446335
 51
86.011734
  0
LINE
  8
ENTITYA19764
  6
CONTINUOUS
 62
1
 10
93.006063
 20
97.612911
 11
95.307117
 21
97.994712
  0
LINE
  8
ENTITYA19764
  6
CONTINUOUS
 62
1
 10
96.629034
 20
104.783869
 11
46.792774
 21
104.783869
  0
LINE
  8
ENTITYA19764
  6
CONTINUOUS
 62
1
 10
91.784461
 20
98.793390
 11
46.792774
 21
98.793390
  0
LINE
  8
ENTITYA19764
  6
CONTINUOUS
 62
1
 10
92.189896
 20
78.436856
 11
46.792774
 21
78.436856
  0
LINE
  8
ENTITYA19764
  6
CONTINUOUS
 62
1
 10
100.889896
 20
95.283869
 11
46.792774
 21
95.283869
  0
LINE
  8
ENTITYA19764
  6
CONTINUOUS
 62
1
 10
100.889896
 20
95.283869
 11
104.889896
 21
95.283869
  0
LINE
  8
ENTITYA19764
  6
CONTINUOUS
 62
1
 10
100.889896
 20
81.092802
 11
104.889896
 21
81.092802
  0
LINE
  8
ENTITYA19764
  6
CONTINUOUS
 62
1
 10
46.792774
 20
81.283869
 11
100.889896
 21
81.283869
  0
LINE
  8
ENTITYA19764
  6
CONTINUOUS
 62
1
 10
104.889896
 20
95.283869
 11
100.889896
 21
81.092802
  0
LINE
  8
ENTITYA19764
  6
CONTINUOUS
 62
1
 10
100.889896
 20
95.283869
 11
104.889896
 21
81.092802
  0
LINE
  8
ENTITYA19764
  6
CONTINUOUS
 62
1
 10
100.889896
 20
81.092802
 11
100.889896
 21
95.283869
  0
LINE
  8
ENTITYA19764
  6
CONTINUOUS
 62
1
 10
100.889896
 20
85.283869
 11
46.792774
 21
85.283869
  0
LINE
  8
ENTITYA19764
  6
CONTINUOUS
 62
1
 10
46.792774
 20
91.283869
 11
100.889896
 21
91.283869
  0
LINE
  8
ENTITYA19764
  6
CONTINUOUS
 62
1
 10
46.792774
 20
84.283869
 11
100.889896
 21
84.283869
  0
LINE
  8
ENTITYA19764
  6
CONTINUOUS
 62
1
 10
100.889896
 20
83.283869
 11
46.792774
 21
83.283869
  0
LINE
  8
ENTITYA19764
  6
CONTINUOUS
 62
1
 10
46.792774
 20
82.283869
 11
100.889896
 21
82.283869
  0
LINE
  8
ENTITYA19764
  6
CONTINUOUS
 62
1
 10
100.889896
 20
92.283869
 11
46.792774
 21
92.283869
  0
LINE
  8
ENTITYA19764
  6
CONTINUOUS
 62
1
 10
46.792774
 20
93.283869
 11
100.889896
 21
93.283869
  0
LINE
  8
ENTITYA19764
  6
CONTINUOUS
 62
1
 10
100.889896
 20
94.283869
 11
46.792774
 21
94.283869
  0
LINE
  8
ENTITYA19764
  6
CONTINUOUS
 62
1
 10
90.889896
 20
91.283869
 11
94.889896
 21
91.283869
  0
LINE
  8
ENTITYA19764
  6
CONTINUOUS
 62
1
 10
88.959705
 20
91.283869
 11
88.959705
 21
85.283869
  0
LINE
  8
ENTITYA19764
  6
CONTINUOUS
 62
1
 10
88.959705
 20
85.283869
 11
96.889896
 21
91.283869
  0
LINE
  8
ENTITYA19764
  6
CONTINUOUS
 62
1
 10
88.959705
 20
91.283869
 11
96.889896
 21
85.283869
  0
LINE
  8
ENTITYA19764
  6
CONTINUOUS
 62
1
 10
96.889896
 20
85.283869
 11
96.889896
 21
91.283869
  0
LINE
  8
ENTITYA19764
  6
CONTINUOUS
 62
1
 10
96.889896
 20
85.283869
 11
96.889896
 21
91.283869
  0
LINE
  8
ENTITYA19764
  6
DASHED
 62
1
 10
90.959705
 20
85.283869
 11
90.959705
 21
91.283869
  0
LINE
  8
ENTITYA19764
  6
DASHED
 62
1
 10
86.959705
 20
91.283869
 11
86.959705
 21
85.283869
  0
LINE
  8
ENTITYA19764
  6
CONTINUOUS
 62
1
 10
97.889896
 20
91.283869
 11
97.889896
 21
85.283869
  0
LINE
  8
ENTITYA19764
  6
CONTINUOUS
 62
1
 10
98.889896
 20
85.283869
 11
98.889896
 21
91.283869
  0
LINE
  8
ENTITYA19764
  6
CONTINUOUS
 62
1
 10
96.889896
 20
86.283869
 11
100.889896
 21
86.283869
  0
LINE
  8
ENTITYA19764
  6
CONTINUOUS
 62
1
 10
100.889896
 20
87.283869
 11
96.889896
 21
87.283869
  0
LINE
  8
ENTITYA19764
  6
CONTINUOUS
 62
1
 10
96.889896
 20
88.283869
 11
100.889896
 21
88.283869
  0
LINE
  8
ENTITYA19764
  6
CONTINUOUS
 62
1
 10
100.889896
 20
89.283869
 11
96.889896
 21
89.283869
  0
LINE
  8
ENTITYA19764
  6
CONTINUOUS
 62
1
 10
96.889896
 20
90.283869
 11
100.889896
 21
90.283869
  0
LINE
  8
ENTITYA19764
  6
RANDOM
 62
1
 10
94.820087
 20
81.283869
 11
94.820087
 21
78.685378
  0
LINE
  8
ENTITYA19764
  6
CONTINUOUS
 62
1
 10
93.820087
 20
78.590890
 11
93.820087
 21
81.283869
  0
LINE
  8
ENTITYA19764
  6
CONTINUOUS
 62
1
 10
92.820087
 20
81.283869
 11
92.820087
 21
78.496402
  0
LINE
  8
ENTITYA19764
  6
CONTINUOUS
 62
1
 10
91.820087
 20
78.895367
 11
91.820087
 21
81.283869
  0
LINE
  8
ENTITYA19764
  6
CONTINUOUS
 62
1
 10
90.820087
 20
81.283869
 11
90.820087
 21
80.135225
  0
LINE
  8
ENTITYA19764
  6
CONTINUOUS
 62
1
 10
94.820087
 20
80.483869
 11
90.538891
 21
80.483869
  0
LINE
  8
ENTITYA19764
  6
CONTINUOUS
 62
1
 10
91.345435
 20
79.483869
 11
94.820087
 21
79.483869
  0
LINE
  8
ENTITYA19764
  6
CONTINUOUS
 62
1
 10
92.687446
 20
78.483869
 11
92.151978
 21
78.483869
  0
ARC
  8
ENTITYA19764
  6
CONTINUOUS
 62
1
 10
103.167947
 20
80.327235
 40
1.000000
 50
312.738347
 51
49.957445
  0
LINE
  8
ENTITYA19764
  6
CONTINUOUS
 62
1
 10
92.189896
 20
78.436856
 11
89.893655
 21
81.283869
  0
TEXT
  8
ENTITYA19764
  6
CONTINUOUS
 62
1
 10
102.419707
 20
79.746990
 40
2.500000
  1
%%d
 50
90.000000
 41
1.000000
 51
0.000000
  7
STANDARD
  0
TEXT
  8
ENTITYA19764
  6
CONTINUOUS
 62
1
 10
98.897234
 20
80.084248
 40
2.500000
  1
%%d
 50
90.000000
 41
1.000000
 51
0.000000
  7
STANDARD
  0
TEXT
  8
ENTITYA19764
  6
CONTINUOUS
 62
1
 10
101.033202
 20
79.184893
 40
2.500000
  1
%%d
 50
90.000000
 41
1.000000
 51
0.000000
  7
STANDARD
  0
TEXT
  8
ENTITYA19764
  6
CONTINUOUS
 62
1
 10
105.567449
 20
78.772689
 40
5.000000
  1
%%d
 50
90.000000
 41
1.000000
 51
-0.000000
  7
STANDARD
  0
TEXT
  8
ENTITYA19764
  6
CONTINUOUS
 62
1
 10
104.068524
 20
79.934355
 40
0.500000
  1
%%d
 50
90.000000
 41
1.000000
 51
0.000000
  7
STANDARD
  0
TEXT
  8
ENTITYA19764
  6
CONTINUOUS
 62
1
 10
104.031051
 20
80.608872
 40
0.500000
  1
%%d
 50
90.000000
 41
1.000000
 51
0.000000
  7
STANDARD
  0
TEXT
  8
ENTITYA19764
  6
CONTINUOUS
 62
1
 10
99.684169
 20
81.021076
 40
0.500000
  1
%%d
 50
90.000000
 41
1.000000
 51
0.000000
  7
STANDARD
  0
TEXT
  8
ENTITYA19764
  6
CONTINUOUS
 62
1
 10
96.049277
 20
80.871183
 40
0.500000
  1
%%d
 50
90.000000
 41
1.000000
 51
0.000000
  7
STANDARD
  0
TEXT
  8
ENTITYA19764
  6
CONTINUOUS
 62
1
 10
95.674545
 20
80.683818
 40
0.500000
  1
%%d
 50
90.000000
 41
1.000000
 51
0.000000
  7
STANDARD
  0
TEXT
  8
ENTITYA19764
  6
CONTINUOUS
 62
1
 10
95.599599
 20
79.222366
 40
0.500000
  1
%%d
 50
90.000000
 41
1.000000
 51
0.000000
  7
STANDARD
  0
TEXT
  8
ENTITYA19764
  6
CONTINUOUS
 62
1
 10
96.049277
 20
79.934355
 40
0.500000
  1
%%d
 50
90.000000
 41
1.000000
 51
0.000000
  7
STANDARD
  0
TEXT
  8
ENTITYA19764
  6
CONTINUOUS
 62
1
 10
97.098524
 20
79.109947
 40
0.500000
  1
%%d
 50
90.000000
 41
1.000000
 51
0.000000
  7
STANDARD
  0
TEXT
  8
ENTITYA19764
  6
CONTINUOUS
 62
1
 10
98.784814
 20
79.109947
 40
0.500000
  1
%%d
 50
90.000000
 41
1.000000
 51
0.000000
  7
STANDARD
  0
TEXT
  8
ENTITYA19764
  6
CONTINUOUS
 62
1
 10
100.396159
 20
79.447205
 40
0.500000
  1
%%d
 50
90.000000
 41
1.000000
 51
0.000000
  7
STANDARD
  0
TEXT
  8
ENTITYA19764
  6
CONTINUOUS
 62
1
 10
100.021427
 20
80.421506
 40
0.500000
  1
%%d
 50
90.000000
 41
1.000000
 51
0.000000
  7
STANDARD
  0
TEXT
  8
ENTITYA19764
  6
CONTINUOUS
 62
1
 10
102.382234
 20
79.522151
 40
0.500000
  1
%%d
 50
90.000000
 41
1.000000
 51
0.000000
  7
STANDARD
  0
TEXT
  8
ENTITYA19764
  6
CONTINUOUS
 62
1
 10
103.394008
 20
79.559624
 40
0.500000
  1
%%d
 50
90.000000
 41
1.000000
 51
0.000000
  7
STANDARD
  0
TEXT
  8
ENTITYA19764
  6
CONTINUOUS
 62
1
 10
102.344761
 20
80.571398
 40
0.500000
  1
%%d
 50
90.000000
 41
1.000000
 51
0.000000
  7
STANDARD
  0
LINE
  8
ENTITYA19764
  6
CONTINUOUS
 62
1
 10
104.889896
 20
106.936856
 11
46.792774
 21
106.936856
  0
LINE
  8
ENTITYA19764
  6
CONTINUOUS
 62
1
 10
114.389896
 20
106.936856
 11
104.889896
 21
106.936856
  0
LINE
  8
ENTITYA19764
  6
CONTINUOUS
 62
1
 10
99.889896
 20
85.283869
 11
99.889896
 21
91.283869
  0
LINE
  8
ENTITYA19764
  6
CONTINUOUS
 62
1
 10
114.389896
 20
78.336856
 11
109.243838
 21
79.476864
  0
TEXT
  8
ENTITYA19764
  6
CONTINUOUS
 62
1
 10
55.658086
 20
117.070649
 40
3.000000
  1
11339 VISION STRIP
 50
90.000000
 41
1.000000
 51
0.000000
  7
STANDARD
  0
TEXT
  8
ENTITYA19764
  6
CONTINUOUS
 62
1
 10
61.658086
 20
117.070649
 40
3.000000
  1
(CODE WHITE)       
 50
90.000000
 41
1.000000
 51
0.000000
  7
STANDARD
  0
TEXT
  8
ENTITYA19764
  6
CONTINUOUS
 62
1
 10
81.355606
 20
117.070649
 40
3.000000
  1
11931 BEAD
 50
90.000000
 41
1.000000
 51
0.000000
  7
STANDARD
  0
TEXT
  8
ENTITYA19764
  6
CONTINUOUS
 62
1
 10
93.718883
 20
117.070649
 40
3.000000
  1
74.0188.50 BEAD STUD
 50
90.000000
 41
1.000000
 51
0.000000
  7
STANDARD
  0
TEXT
  8
ENTITYA19764
  6
CONTINUOUS
 62
1
 10
66.157788
 20
10.260617
 40
3.000000
  1
LOW MODULUS
 50
90.000000
 41
1.000000
 51
0.000000
  7
STANDARD
  0
TEXT
  8
ENTITYA19764
  6
CONTINUOUS
 62
1
 10
72.157788
 20
10.260617
 40
3.000000
  1
SILICONE CAPPING
 50
90.000000
 41
1.000000
 51
0.000000
  7
STANDARD
  0
TEXT
  8
ENTITYA19764
  6
CONTINUOUS
 62
1
 10
78.157788
 20
10.260617
 40
3.000000
  1
(BLACK)
 50
90.000000
 41
1.000000
 51
0.000000
  7
STANDARD
  0
TEXT
  8
ENTITYA19764
  6
CONTINUOUS
 62
1
 10
86.107684
 20
10.260617
 40
3.000000
  1
99.2031.99 3mm x 9mm
 50
90.000000
 41
1.000000
 51
0.000000
  7
STANDARD
  0
TEXT
  8
ENTITYA19764
  6
CONTINUOUS
 62
1
 10
92.107684
 20
10.260617
 40
3.000000
  1
NORTON V570 FOAM TAPE            
 50
90.000000
 41
1.000000
 51
0.000000
  7
STANDARD
  0
TEXT
  8
ENTITYA19764
  6
CONTINUOUS
 62
1
 10
50.284852
 20
10.260617
 40
3.000000
  1
SPACER BAR
 50
90.000000
 41
1.000000
 51
0.000000
  7
STANDARD
  0
TEXT
  8
ENTITYA19764
  6
CONTINUOUS
 62
1
 10
56.284852
 20
10.260617
 40
3.000000
  1
(BLACK)
 50
90.000000
 41
1.000000
 51
0.000000
  7
STANDARD
  0
TEXT
  8
ENTITYA19764
  6
CONTINUOUS
 62
1
 10
106.537191
 20
10.260617
 40
3.000000
  1
SETTING 
 50
90.000000
 41
1.000000
 51
0.000000
  7
STANDARD
  0
TEXT
  8
ENTITYA19764
  6
CONTINUOUS
 62
1
 10
112.537191
 20
10.260617
 40
3.000000
  1
BLOCKS
 50
90.000000
 41
1.000000
 51
0.000000
  7
STANDARD
  0
LINE
  8
ENTITYA19764
  6
CONTINUOUS
 62
1
 10
93.720361
 20
116.283431
 11
104.240012
 21
101.977603
  0
LINE
  8
ENTITYA19764
  6
CONTINUOUS
 62
1
 10
102.569350
 20
105.093578
 11
101.763704
 21
104.501154
  0
LINE
  8
ENTITYA19764
  6
CONTINUOUS
 62
1
 10
101.763704
 20
104.501154
 11
104.240012
 21
101.977603
  0
LINE
  8
ENTITYA19764
  6
CONTINUOUS
 62
1
 10
104.240012
 20
101.977603
 11
102.569350
 21
105.093578
  0
LINE
  8
ENTITYA19764
  6
CONTINUOUS
 62
1
 10
82.394627
 20
116.476753
 11
94.045392
 21
101.308869
  0
LINE
  8
ENTITYA19764
  6
CONTINUOUS
 62
1
 10
92.309792
 20
104.389252
 11
91.516709
 21
103.780068
  0
LINE
  8
ENTITYA19764
  6
CONTINUOUS
 62
1
 10
91.516709
 20
103.780068
 11
94.045392
 21
101.308869
  0
LINE
  8
ENTITYA19764
  6
CONTINUOUS
 62
1
 10
94.045392
 20
101.308869
 11
92.309792
 21
104.389252
  0
LINE
  8
ENTITYA19764
  6
CONTINUOUS
 62
1
 10
62.869106
 20
116.863397
 11
89.490599
 21
96.565637
  0
LINE
  8
ENTITYA19764
  6
CONTINUOUS
 62
1
 10
87.010319
 20
99.085548
 11
86.403956
 21
98.290274
  0
LINE
  8
ENTITYA19764
  6
CONTINUOUS
 62
1
 10
86.403956
 20
98.290274
 11
89.490599
 21
96.565637
  0
LINE
  8
ENTITYA19764
  6
CONTINUOUS
 62
1
 10
89.490599
 20
96.565637
 11
87.010319
 21
99.085548
  0
LINE
  8
ENTITYA19764
  6
CONTINUOUS
 62
1
 10
51.113225
 20
40.307888
 11
88.959705
 21
88.283869
  0
LINE
  8
ENTITYA19764
  6
CONTINUOUS
 62
1
 10
86.399216
 20
85.845441
 11
87.184395
 21
85.226041
  0
LINE
  8
ENTITYA19764
  6
CONTINUOUS
 62
1
 10
87.184395
 20
85.226041
 11
88.959705
 21
88.283869
  0
LINE
  8
ENTITYA19764
  6
CONTINUOUS
 62
1
 10
88.959705
 20
88.283869
 11
86.399216
 21
85.845441
  0
LINE
  8
ENTITYA19764
  6
CONTINUOUS
 62
1
 10
72.535206
 20
58.673478
 11
90.820087
 21
80.135225
  0
LINE
  8
ENTITYA19764
  6
CONTINUOUS
 62
1
 10
88.169534
 20
77.795182
 11
88.930768
 21
77.146629
  0
LINE
  8
ENTITYA19764
  6
CONTINUOUS
 62
1
 10
88.930768
 20
77.146629
 11
90.820087
 21
80.135225
  0
LINE
  8
ENTITYA19764
  6
CONTINUOUS
 62
1
 10
90.820087
 20
80.135225
 11
88.169534
 21
77.795182
  0
LINE
  8
ENTITYA19764
  6
CONTINUOUS
 62
1
 10
93.220659
 20
72.979305
 11
99.020318
 21
79.938896
  0
LINE
  8
ENTITYA19764
  6
CONTINUOUS
 62
1
 10
96.395547
 20
77.570201
 11
97.163773
 21
76.930012
  0
LINE
  8
ENTITYA19764
  6
CONTINUOUS
 62
1
 10
97.163773
 20
76.930012
 11
99.020318
 21
79.938896
  0
LINE
  8
ENTITYA19764
  6
CONTINUOUS
 62
1
 10
99.020318
 20
79.938896
 11
96.395547
 21
77.570201
  0
LINE
  8
ENTITYA19764
  6
CONTINUOUS
 62
1
 10
106.753198
 20
31.221755
 11
103.273402
 21
82.645404
  0
LINE
  8
ENTITYA19764
  6
CONTINUOUS
 62
1
 10
103.010810
 20
79.119226
 11
104.008644
 21
79.186747
  0
LINE
  8
ENTITYA19764
  6
CONTINUOUS
 62
1
 10
104.008644
 20
79.186747
 11
103.273402
 21
82.645404
  0
LINE
  8
ENTITYA19764
  6
CONTINUOUS
 62
1
 10
103.273402
 20
82.645404
 11
103.010810
 21
79.119226
  0
LINE
  8
ENTITYA19764
  6
CONTINUOUS
 62
1
 10
197.910210
 20
75.136856
 11
133.860550
 21
75.136856
  0
LINE
  8
ENTITYA19764
  6
CONTINUOUS
 62
1
 10
175.710210
 20
75.136856
 11
175.710210
 21
78.336856
  0
LINE
  8
ENTITYA19764
  6
CONTINUOUS
 62
1
 10
186.960721
 20
79.399897
 11
175.710210
 21
78.336856
  0
LINE
  8
ENTITYA19764
  6
CONTINUOUS
 62
1
 10
133.860550
 20
106.936856
 11
197.910210
 21
106.936856
  0
LINE
  8
ENTITYA19764
  6
CONTINUOUS
 62
1
 10
197.910210
 20
106.936856
 11
197.910210
 21
103.736856
  0
LINE
  8
ENTITYA19764
  6
CONTINUOUS
 62
1
 10
193.008654
 20
103.114436
 11
197.910210
 21
103.736856
  0
ARC
  8
ENTITYA19764
  6
CONTINUOUS
 62
1
 10
189.210210
 20
106.136856
 40
0.800000
 50
90.000000
 51
180.000000
  0
ARC
  8
ENTITYA19764
  6
CONTINUOUS
 62
1
 10
193.210210
 20
101.527182
 40
1.600000
 50
97.236922
 51
180.000000
  0
ARC
  8
ENTITYA19764
  6
CONTINUOUS
 62
1
 10
186.810210
 20
80.992802
 40
1.600000
 50
275.397749
 51
0.000000
  0
ARC
  8
ENTITYA19764
  6
CONTINUOUS
 62
1
 10
193.210210
 20
80.670905
 40
1.600000
 50
180.000000
 51
267.588970
  0
LINE
  8
ENTITYA19764
  6
CONTINUOUS
 62
1
 10
188.410210
 20
80.992802
 11
188.410210
 21
106.136856
  0
LINE
  8
ENTITYA19764
  6
CONTINUOUS
 62
1
 10
197.910210
 20
76.783559
 11
197.910210
 21
76.783559
  0
LINE
  8
ENTITYA19764
  6
CONTINUOUS
 62
1
 10
197.910210
 20
75.783559
 11
197.910210
 21
75.783559
  0
LINE
  8
ENTITYA19764
  6
CONTINUOUS
 62
1
 10
197.910210
 20
76.745065
 11
197.910210
 21
76.745065
  0
LINE
  8
ENTITYA19764
  6
CONTINUOUS
 62
1
 10
197.910210
 20
78.336856
 11
197.910210
 21
75.136856
  0
LINE
  8
ENTITYA19764
  6
CONTINUOUS
 62
1
 10
197.910210
 20
78.336856
 11
193.142902
 21
79.072322
  0
LINE
  8
ENTITYA19764
  6
CONTINUOUS
 62
1
 10
176.510210
 20
90.886856
 11
186.010210
 21
90.886856
  0
LINE
  8
ENTITYA19764
  6
CONTINUOUS
 62
1
 10
187.910210
 20
100.636856
 11
182.687858
 21
100.636856
  0
LINE
  8
ENTITYA19764
  6
CONTINUOUS
 62
1
 10
173.817462
 20
88.022880
 11
175.990595
 21
91.786856
  0
ARC
  8
ENTITYA19764
  6
CONTINUOUS
 62
1
 10
176.510210
 20
91.486856
 40
0.600000
 50
150.000000
 51
270.000000
  0
LINE
  8
ENTITYA19764
  6
CONTINUOUS
 62
1
 10
186.410210
 20
91.271171
 11
186.410210
 21
91.286856
  0
LINE
  8
ENTITYA19764
  6
CONTINUOUS
 62
1
 10
184.910210
 20
91.636856
 11
184.910210
 21
92.436856
  0
LINE
  8
ENTITYA19764
  6
CONTINUOUS
 62
1
 10
181.710210
 20
91.886856
 11
181.710210
 21
92.136856
  0
LINE
  8
ENTITYA19764
  6
CONTINUOUS
 62
1
 10
185.306657
 20
92.436856
 11
184.910210
 21
92.436856
  0
LINE
  8
ENTITYA19764
  6
CONTINUOUS
 62
1
 10
184.910210
 20
91.636856
 11
182.854548
 21
91.636856
  0
LINE
  8
ENTITYA19764
  6
CONTINUOUS
 62
1
 10
182.638042
 20
91.761856
 11
182.493704
 21
92.011856
  0
LINE
  8
ENTITYA19764
  6
CONTINUOUS
 62
1
 10
181.710210
 20
92.136856
 11
182.277198
 21
92.136856
  0
LINE
  8
ENTITYA19764
  6
CONTINUOUS
 62
1
 10
185.483434
 20
92.363633
 11
186.293053
 21
91.554014
  0
ARC
  8
ENTITYA19764
  6
CONTINUOUS
 62
1
 10
186.010210
 20
91.286856
 40
0.400000
 50
270.000000
 51
0.000000
  0
ARC
  8
ENTITYA19764
  6
CONTINUOUS
 62
1
 10
186.010210
 20
91.271171
 40
0.400000
 50
0.000000
 51
45.000000
  0
ARC
  8
ENTITYA19764
  6
CONTINUOUS
 62
1
 10
185.306657
 20
92.186856
 40
0.250000
 50
45.000000
 51
90.000000
  0
ARC
  8
ENTITYA19764
  6
CONTINUOUS
 62
1
 10
182.854548
 20
91.886856
 40
0.250000
 50
210.000000
 51
270.000000
  0
ARC
  8
ENTITYA19764
  6
CONTINUOUS
 62
1
 10
182.277198
 20
91.886856
 40
0.250000
 50
30.000000
 51
90.000000
  0
LINE
  8
ENTITYA19764
  6
CONTINUOUS
 62
1
 10
181.710210
 20
91.886856
 11
177.636044
 21
91.886856
  0
LINE
  8
ENTITYA19764
  6
CONTINUOUS
 62
1
 10
182.572388
 20
101.186856
 11
182.471352
 21
101.011856
  0
LINE
  8
ENTITYA19764
  6
CONTINUOUS
 62
1
 10
181.821833
 20
99.636856
 11
184.910210
 21
99.636856
  0
ARC
  8
ENTITYA19764
  6
CONTINUOUS
 62
1
 10
177.636044
 20
92.136856
 40
0.250000
 50
150.000000
 51
270.000000
  0
ARC
  8
ENTITYA19764
  6
CONTINUOUS
 62
1
 10
182.139376
 20
101.436856
 40
0.500000
 50
90.000000
 51
150.000000
  0
ARC
  8
ENTITYA19764
  6
CONTINUOUS
 62
1
 10
182.139376
 20
101.436856
 40
0.500000
 50
330.000000
 51
90.000000
  0
LINE
  8
ENTITYA19764
  6
CONTINUOUS
 62
1
 10
181.605327
 20
99.511856
 11
177.419537
 21
92.261856
  0
ARC
  8
ENTITYA19764
  6
CONTINUOUS
 62
1
 10
182.687858
 20
100.886856
 40
0.250000
 50
150.000000
 51
270.000000
  0
ARC
  8
ENTITYA19764
  6
CONTINUOUS
 62
1
 10
181.821833
 20
99.386856
 40
0.250000
 50
90.000000
 51
150.000000
  0
ARC
  8
ENTITYA19764
  6
CONTINUOUS
 62
1
 10
187.910210
 20
100.136856
 40
0.500000
 50
0.000000
 51
90.000000
  0
ARC
  8
ENTITYA19764
  6
CONTINUOUS
 62
1
 10
187.910210
 20
100.136856
 40
0.500000
 50
270.000000
 51
0.000000
  0
LINE
  8
ENTITYA19764
  6
CONTINUOUS
 62
1
 10
184.910210
 20
98.936856
 11
184.910210
 21
99.636856
  0
LINE
  8
ENTITYA19764
  6
CONTINUOUS
 62
1
 10
185.306657
 20
98.936856
 11
184.910210
 21
98.936856
  0
LINE
  8
ENTITYA19764
  6
CONTINUOUS
 62
1
 10
185.483434
 20
99.010080
 11
186.036987
 21
99.563633
  0
LINE
  8
ENTITYA19764
  6
CONTINUOUS
 62
1
 10
186.213764
 20
99.636856
 11
187.910210
 21
99.636856
  0
ARC
  8
ENTITYA19764
  6
CONTINUOUS
 62
1
 10
185.306657
 20
99.186856
 40
0.250000
 50
270.000000
 51
315.000000
  0
ARC
  8
ENTITYA19764
  6
CONTINUOUS
 62
1
 10
186.213764
 20
99.386856
 40
0.250000
 50
90.000000
 51
135.000000
  0
LINE
  8
ENTITYA19764
  6
DASHED
 62
1
 10
182.810210
 20
99.586856
 11
184.910210
 21
99.586856
  0
LINE
  8
ENTITYA19764
  6
DASHED
 62
1
 10
184.910210
 20
91.686856
 11
184.910210
 21
99.586856
  0
LINE
  8
ENTITYA19764
  6
DASHED
 62
1
 10
188.410210
 20
98.836856
 11
184.910210
 21
98.836856
  0
LINE
  8
ENTITYA19764
  6
DASHED
 62
1
 10
192.410210
 20
93.636856
 11
192.410210
 21
97.636856
  0
LINE
  8
ENTITYA19764
  6
DASHED
 62
1
 10
189.610210
 20
98.136856
 11
191.910210
 21
98.136856
  0
LINE
  8
ENTITYA19764
  6
DASHED
 62
1
 10
181.810210
 20
97.854805
 11
181.810210
 21
96.236856
  0
LINE
  8
ENTITYA19764
  6
DASHED
 62
1
 10
182.810210
 20
99.586856
 11
182.810210
 21
96.236856
  0
LINE
  8
ENTITYA19764
  6
DASHED
 62
1
 10
182.810210
 20
99.586856
 11
181.810210
 21
97.854805
  0
LINE
  8
ENTITYA19764
  6
DASHED
 62
1
 10
189.610210
 20
93.136856
 11
189.610210
 21
98.136856
  0
LINE
  8
ENTITYA19764
  6
DASHED
 62
1
 10
189.610210
 20
97.636856
 11
188.410210
 21
97.636856
  0
LINE
  8
ENTITYA19764
  6
DASHED
 62
1
 10
182.810210
 20
91.686856
 11
184.910210
 21
91.686856
  0
LINE
  8
ENTITYA19764
  6
DASHED
 62
1
 10
188.410210
 20
92.436856
 11
184.910210
 21
92.436856
  0
LINE
  8
ENTITYA19764
  6
DASHED
 62
1
 10
189.610210
 20
93.136856
 11
191.910210
 21
93.136856
  0
LINE
  8
ENTITYA19764
  6
DASHED
 62
1
 10
182.810210
 20
91.686856
 11
181.810210
 21
93.418907
  0
LINE
  8
ENTITYA19764
  6
DASHED
 62
1
 10
189.610210
 20
93.636856
 11
188.410210
 21
93.636856
  0
LINE
  8
ENTITYA19764
  6
DASHED
 62
1
 10
183.410210
 20
95.036856
 11
183.410210
 21
96.236856
  0
LINE
  8
ENTITYA19764
  6
DASHED
 62
1
 10
183.410210
 20
96.236856
 11
181.810210
 21
96.236856
  0
LINE
  8
ENTITYA19764
  6
DASHED
 62
1
 10
181.810210
 20
95.036856
 11
183.410210
 21
95.036856
  0
LINE
  8
ENTITYA19764
  6
DASHED
 62
1
 10
181.810210
 20
95.036856
 11
181.810210
 21
93.418907
  0
LINE
  8
ENTITYA19764
  6
DASHED
 62
1
 10
182.810210
 20
95.036856
 11
182.810210
 21
91.686856
  0
LINE
  8
ENTITYA19764
  6
DASHED
 62
1
 10
192.410210
 20
97.636856
 11
189.610210
 21
97.636856
  0
LINE
  8
ENTITYA19764
  6
DASHED
 62
1
 10
192.410210
 20
93.636856
 11
189.610210
 21
93.636856
  0
LINE
  8
ENTITYA19764
  6
DASHED
 62
1
 10
191.910210
 20
98.136856
 11
191.910210
 21
93.136856
  0
LINE
  8
ENTITYA19764
  6
DASHED
 62
1
 10
191.910210
 20
93.136856
 11
192.410210
 21
93.636856
  0
LINE
  8
ENTITYA19764
  6
DASHED
 62
1
 10
192.410210
 20
97.636856
 11
191.910210
 21
98.136856
  0
LINE
  8
ENTITYA19764
  6
DASHED
 62
1
 10
182.810210
 20
91.686856
 11
182.810210
 21
95.036856
  0
LINE
  8
ENTITYA19764
  6
CONTINUOUS
 62
1
 10
191.610210
 20
101.527182
 11
191.610210
 21
80.670905
  0
LINE
  8
ENTITYA19764
  6
DASHED
 62
1
 10
189.610210
 20
93.136856
 11
188.410210
 21
93.136856
  0
LINE
  8
ENTITYA19764
  6
DASHED
 62
1
 10
189.610210
 20
98.136856
 11
188.410210
 21
98.136856
  0
LINE
  8
ENTITYA19764
  6
RANDOM
 62
1
 10
133.860550
 20
75.136856
 11
133.860550
 21
106.936856
  0
LINE
  8
ENTITYA19764
  6
CONTINUOUS
 62
1
 10
184.410210
 20
82.022880
 11
184.410210
 21
88.022880
  0
LINE
  8
ENTITYA19764
  6
CONTINUOUS
 62
1
 10
184.410210
 20
85.022880
 11
133.860550
 21
85.022880
  0
LINE
  8
ENTITYA19764
  6
CONTINUOUS
 62
1
 10
133.860550
 20
82.022880
 11
184.410210
 21
82.022880
  0
LINE
  8
ENTITYA19764
  6
CONTINUOUS
 62
1
 10
133.860550
 20
88.022880
 11
184.410210
 21
88.022880
  0
LINE
  8
ENTITYA19764
  6
CONTINUOUS
 62
1
 10
133.860550
 20
86.022880
 11
184.410210
 21
86.022880
  0
LINE
  8
ENTITYA19764
  6
CONTINUOUS
 62
1
 10
184.410210
 20
87.022880
 11
133.860550
 21
87.022880
  0
LINE
  8
ENTITYA19764
  6
CONTINUOUS
 62
1
 10
133.860550
 20
84.022880
 11
184.410210
 21
84.022880
  0
LINE
  8
ENTITYA19764
  6
CONTINUOUS
 62
1
 10
184.410210
 20
83.022880
 11
133.860550
 21
83.022880
  0
LINE
  8
ENTITYA19764
  6
CONTINUOUS
 62
1
 10
184.410210
 20
82.022880
 11
188.410210
 21
82.022880
  0
LINE
  8
ENTITYA19764
  6
CONTINUOUS
 62
1
 10
175.710210
 20
78.336856
 11
133.860550
 21
78.336856
  0
LINE
  8
ENTITYA19764
  6
CONTINUOUS
 62
1
 10
180.522795
 20
100.636856
 11
133.860550
 21
100.636856
  0
LINE
  8
ENTITYA19764
  6
RANDOM
 62
1
 10
178.140402
 20
82.022880
 11
178.140402
 21
78.585378
  0
LINE
  8
ENTITYA19764
  6
CONTINUOUS
 62
1
 10
177.140402
 20
78.490890
 11
177.140402
 21
82.022880
  0
LINE
  8
ENTITYA19764
  6
CONTINUOUS
 62
1
 10
176.140402
 20
82.022880
 11
176.140402
 21
78.396402
  0
LINE
  8
ENTITYA19764
  6
CONTINUOUS
 62
1
 10
175.140402
 20
79.358969
 11
175.140402
 21
82.022880
  0
LINE
  8
ENTITYA19764
  6
CONTINUOUS
 62
1
 10
174.140402
 20
82.022880
 11
174.140402
 21
81.152749
  0
LINE
  8
ENTITYA19764
  6
CONTINUOUS
 62
1
 10
178.140402
 20
80.383869
 11
174.569038
 21
80.383869
  0
LINE
  8
ENTITYA19764
  6
CONTINUOUS
 62
1
 10
175.126520
 20
79.383869
 11
178.140402
 21
79.383869
  0
TEXT
  8
ENTITYA19764
  6
CONTINUOUS
 62
1
 10
185.740021
 20
79.646990
 40
2.500000
  1
%%d
 50
90.000000
 41
1.000000
 51
0.000000
  7
STANDARD
  0
TEXT
  8
ENTITYA19764
  6
CONTINUOUS
 62
1
 10
182.217548
 20
79.984248
 40
2.500000
  1
%%d
 50
90.000000
 41
1.000000
 51
0.000000
  7
STANDARD
  0
TEXT
  8
ENTITYA19764
  6
CONTINUOUS
 62
1
 10
184.353516
 20
79.084893
 40
2.500000
  1
%%d
 50
90.000000
 41
1.000000
 51
0.000000
  7
STANDARD
  0
TEXT
  8
ENTITYA19764
  6
CONTINUOUS
 62
1
 10
187.388839
 20
79.834355
 40
0.500000
  1
%%d
 50
90.000000
 41
1.000000
 51
0.000000
  7
STANDARD
  0
TEXT
  8
ENTITYA19764
  6
CONTINUOUS
 62
1
 10
187.351366
 20
80.508872
 40
0.500000
  1
%%d
 50
90.000000
 41
1.000000
 51
0.000000
  7
STANDARD
  0
TEXT
  8
ENTITYA19764
  6
CONTINUOUS
 62
1
 10
183.004484
 20
80.921076
 40
0.500000
  1
%%d
 50
90.000000
 41
1.000000
 51
0.000000
  7
STANDARD
  0
TEXT
  8
ENTITYA19764
  6
CONTINUOUS
 62
1
 10
179.369591
 20
80.771183
 40
0.500000
  1
%%d
 50
90.000000
 41
1.000000
 51
0.000000
  7
STANDARD
  0
TEXT
  8
ENTITYA19764
  6
CONTINUOUS
 62
1
 10
178.994860
 20
80.583818
 40
0.500000
  1
%%d
 50
90.000000
 41
1.000000
 51
0.000000
  7
STANDARD
  0
TEXT
  8
ENTITYA19764
  6
CONTINUOUS
 62
1
 10
178.919914
 20
79.122366
 40
0.500000
  1
%%d
 50
90.000000
 41
1.000000
 51
0.000000
  7
STANDARD
  0
TEXT
  8
ENTITYA19764
  6
CONTINUOUS
 62
1
 10
179.369591
 20
79.834355
 40
0.500000
  1
%%d
 50
90.000000
 41
1.000000
 51
0.000000
  7
STANDARD
  0
TEXT
  8
ENTITYA19764
  6
CONTINUOUS
 62
1
 10
180.418838
 20
79.009947
 40
0.500000
  1
%%d
 50
90.000000
 41
1.000000
 51
0.000000
  7
STANDARD
  0
TEXT
  8
ENTITYA19764
  6
CONTINUOUS
 62
1
 10
182.105129
 20
79.009947
 40
0.500000
  1
%%d
 50
90.000000
 41
1.000000
 51
0.000000
  7
STANDARD
  0
TEXT
  8
ENTITYA19764
  6
CONTINUOUS
 62
1
 10
183.716473
 20
79.347205
 40
0.500000
  1
%%d
 50
90.000000
 41
1.000000
 51
0.000000
  7
STANDARD
  0
TEXT
  8
ENTITYA19764
  6
CONTINUOUS
 62
1
 10
183.341742
 20
80.321506
 40
0.500000
  1
%%d
 50
90.000000
 41
1.000000
 51
0.000000
  7
STANDARD
  0
TEXT
  8
ENTITYA19764
  6
CONTINUOUS
 62
1
 10
185.702548
 20
79.422151
 40
0.500000
  1
%%d
 50
90.000000
 41
1.000000
 51
0.000000
  7
STANDARD
  0
TEXT
  8
ENTITYA19764
  6
CONTINUOUS
 62
1
 10
186.714323
 20
79.459624
 40
0.500000
  1
%%d
 50
90.000000
 41
1.000000
 51
0.000000
  7
STANDARD
  0
TEXT
  8
ENTITYA19764
  6
CONTINUOUS
 62
1
 10
185.665075
 20
80.471398
 40
0.500000
  1
%%d
 50
90.000000
 41
1.000000
 51
0.000000
  7
STANDARD
  0
LINE
  8
ENTITYA19764
  6
CONTINUOUS
 62
1
 10
175.710210
 20
78.336856
 11
173.655320
 21
82.022880
  0
LINE
  8
ENTITYA19764
  6
CONTINUOUS
 62
1
 10
174.011557
 20
81.383869
 11
178.140402
 21
81.383869
  0
LINE
  8
ENTITYA19764
  6
CONTINUOUS
 62
1
 10
188.410210
 20
88.022880
 11
184.410210
 21
88.022880
  0
LINE
  8
ENTITYA19764
  6
CONTINUOUS
 62
1
 10
188.410210
 20
88.022880
 11
184.410210
 21
82.022880
  0
LINE
  8
ENTITYA19764
  6
CONTINUOUS
 62
1
 10
188.410210
 20
82.022880
 11
184.410210
 21
88.022880
  0
LINE
  8
ENTITYA19764
  6
RANDOM
 62
1
 10
187.640402
 20
79.625036
 11
187.640402
 21
82.022880
  0
LINE
  8
ENTITYA19764
  6
CONTINUOUS
 62
1
 10
175.990595
 20
91.786856
 11
181.706363
 21
101.686856
  0
LINE
  8
ENTITYA19764
  6
RANDOM
 62
1
 10
178.140402
 20
88.022880
 11
178.140402
 21
90.886856
  0
LINE
  8
ENTITYA19764
  6
CONTINUOUS
 62
1
 10
177.140402
 20
90.886856
 11
177.140402
 21
88.022880
  0
LINE
  8
ENTITYA19764
  6
CONTINUOUS
 62
1
 10
176.140402
 20
88.022880
 11
176.140402
 21
91.014372
  0
LINE
  8
ENTITYA19764
  6
CONTINUOUS
 62
1
 10
175.140402
 20
90.314278
 11
175.140402
 21
88.022880
  0
LINE
  8
ENTITYA19764
  6
CONTINUOUS
 62
1
 10
174.140402
 20
88.022880
 11
174.140402
 21
88.582227
  0
LINE
  8
ENTITYA19764
  6
CONTINUOUS
 62
1
 10
178.140402
 20
89.661891
 11
174.763746
 21
89.661891
  0
LINE
  8
ENTITYA19764
  6
CONTINUOUS
 62
1
 10
175.341096
 20
90.661891
 11
178.140402
 21
90.661891
  0
TEXT
  8
ENTITYA19764
  6
CONTINUOUS
 62
1
 10
185.740021
 20
90.398770
 40
2.500000
  1
%%d
 50
90.000000
 41
-1.000000
 51
0.000000
  7
STANDARD
  0
TEXT
  8
ENTITYA19764
  6
CONTINUOUS
 62
1
 10
182.217548
 20
90.061512
 40
2.500000
  1
%%d
 50
90.000000
 41
-1.000000
 51
0.000000
  7
STANDARD
  0
TEXT
  8
ENTITYA19764
  6
CONTINUOUS
 62
1
 10
184.353516
 20
90.960867
 40
2.500000
  1
%%d
 50
90.000000
 41
-1.000000
 51
0.000000
  7
STANDARD
  0
TEXT
  8
ENTITYA19764
  6
CONTINUOUS
 62
1
 10
187.388839
 20
90.211404
 40
0.500000
  1
%%d
 50
90.000000
 41
-1.000000
 51
0.000000
  7
STANDARD
  0
TEXT
  8
ENTITYA19764
  6
CONTINUOUS
 62
1
 10
187.351366
 20
89.536888
 40
0.500000
  1
%%d
 50
90.000000
 41
-1.000000
 51
0.000000
  7
STANDARD
  0
TEXT
  8
ENTITYA19764
  6
CONTINUOUS
 62
1
 10
183.004484
 20
89.124684
 40
0.500000
  1
%%d
 50
90.000000
 41
-1.000000
 51
0.000000
  7
STANDARD
  0
TEXT
  8
ENTITYA19764
  6
CONTINUOUS
 62
1
 10
179.369591
 20
89.274576
 40
0.500000
  1
%%d
 50
90.000000
 41
-1.000000
 51
0.000000
  7
STANDARD
  0
TEXT
  8
ENTITYA19764
  6
CONTINUOUS
 62
1
 10
178.994860
 20
89.461942
 40
0.500000
  1
%%d
 50
90.000000
 41
-1.000000
 51
0.000000
  7
STANDARD
  0
TEXT
  8
ENTITYA19764
  6
CONTINUOUS
 62
1
 10
179.369591
 20
90.211404
 40
0.500000
  1
%%d
 50
90.000000
 41
-1.000000
 51
0.000000
  7
STANDARD
  0
TEXT
  8
ENTITYA19764
  6
CONTINUOUS
 62
1
 10
183.716473
 20
90.698555
 40
0.500000
  1
%%d
 50
90.000000
 41
-1.000000
 51
0.000000
  7
STANDARD
  0
TEXT
  8
ENTITYA19764
  6
CONTINUOUS
 62
1
 10
183.341742
 20
89.724254
 40
0.500000
  1
%%d
 50
90.000000
 41
-1.000000
 51
0.000000
  7
STANDARD
  0
TEXT
  8
ENTITYA19764
  6
CONTINUOUS
 62
1
 10
185.702548
 20
90.623609
 40
0.500000
  1
%%d
 50
90.000000
 41
-1.000000
 51
0.000000
  7
STANDARD
  0
TEXT
  8
ENTITYA19764
  6
CONTINUOUS
 62
1
 10
186.714323
 20
90.586135
 40
0.500000
  1
%%d
 50
90.000000
 41
-1.000000
 51
0.000000
  7
STANDARD
  0
TEXT
  8
ENTITYA19764
  6
CONTINUOUS
 62
1
 10
185.665075
 20
89.574361
 40
0.500000
  1
%%d
 50
90.000000
 41
-1.000000
 51
0.000000
  7
STANDARD
  0
LINE
  8
ENTITYA19764
  6
CONTINUOUS
 62
1
 10
174.186396
 20
88.661891
 11
178.140402
 21
88.661891
  0
LINE
  8
ENTITYA19764
  6
RANDOM
 62
1
 10
187.640402
 20
90.886856
 11
187.640402
 21
88.022880
  0
LINE
  8
ENTITYA19764
  6
RANDOM
 62
1
 10
186.010210
 20
90.886856
 11
187.640402
 21
90.886856
  0
TEXT
  8
ENTITYA19764
  6
CONTINUOUS
 62
1
 10
186.130011
 20
88.519034
 40
0.500000
  1
%%d
 50
90.000000
 41
-1.000000
 51
0.000000
  7
STANDARD
  0
TEXT
  8
ENTITYA19764
  6
CONTINUOUS
 62
1
 10
184.081927
 20
88.705223
 40
0.500000
  1
%%d
 50
90.000000
 41
-1.000000
 51
0.000000
  7
STANDARD
  0
TEXT
  8
ENTITYA19764
  6
CONTINUOUS
 62
1
 10
186.651341
 20
81.630025
 40
0.500000
  1
%%d
 50
90.000000
 41
-1.000000
 51
0.000000
  7
STANDARD
  0
TEXT
  8
ENTITYA19764
  6
CONTINUOUS
 62
1
 10
185.087350
 20
81.704501
 40
0.500000
  1
%%d
 50
90.000000
 41
-1.000000
 51
0.000000
  7
STANDARD
  0
TEXT
  8
ENTITYA19764
  6
CONTINUOUS
 62
1
 10
181.326324
 20
81.630025
 40
0.500000
  1
%%d
 50
90.000000
 41
-1.000000
 51
0.000000
  7
STANDARD
  0
TEXT
  8
ENTITYA19764
  6
CONTINUOUS
 62
1
 10
180.134711
 20
81.778977
 40
0.500000
  1
%%d
 50
90.000000
 41
-1.000000
 51
0.000000
  7
STANDARD
  0
TEXT
  8
ENTITYA19764
  6
CONTINUOUS
 62
1
 10
179.836808
 20
81.853453
 40
0.500000
  1
%%d
 50
90.000000
 41
-1.000000
 51
0.000000
  7
STANDARD
  0
LINE
  8
ENTITYA19764
  6
CONTINUOUS
 62
1
 10
175.990595
 20
91.786856
 11
134.140934
 21
91.786856
  0
LINE
  8
ENTITYA19764
  6
CONTINUOUS
 62
1
 10
180.522795
 20
100.636856
 11
175.413245
 21
91.786856
  0
TEXT
  8
ENTITYA19764
  6
CONTINUOUS
 62
1
 10
153.188742
 20
117.070649
 40
3.000000
  1
11482 BEAD (WIDTHS)
 50
90.000000
 41
1.000000
 51
0.000000
  7
STANDARD
  0
TEXT
  8
ENTITYA19764
  6
CONTINUOUS
 62
1
 10
159.188742
 20
117.070649
 40
3.000000
  1
11146 BEAD (HEIGHTS)
 50
90.000000
 41
1.000000
 51
0.000000
  7
STANDARD
  0
TEXT
  8
ENTITYA19764
  6
CONTINUOUS
 62
1
 10
174.525094
 20
117.070649
 40
3.000000
  1
74.0198.50 BEAD STUD
 50
90.000000
 41
1.000000
 51
0.000000
  7
STANDARD
  0
TEXT
  8
ENTITYA19764
  6
CONTINUOUS
 62
1
 10
138.304594
 20
10.260617
 40
3.000000
  1
LOW MODULUS
 50
90.000000
 41
1.000000
 51
0.000000
  7
STANDARD
  0
TEXT
  8
ENTITYA19764
  6
CONTINUOUS
 62
1
 10
144.304594
 20
10.260617
 40
3.000000
  1
SILICONE CAPPING
 50
90.000000
 41
1.000000
 51
0.000000
  7
STANDARD
  0
TEXT
  8
ENTITYA19764
  6
CONTINUOUS
 62
1
 10
150.304594
 20
10.260617
 40
3.000000
  1
(BLACK)
 50
90.000000
 41
1.000000
 51
0.000000
  7
STANDARD
  0
TEXT
  8
ENTITYA19764
  6
CONTINUOUS
 62
1
 10
190.057505
 20
10.260617
 40
3.000000
  1
SETTING 
 50
90.000000
 41
1.000000
 51
0.000000
  7
STANDARD
  0
TEXT
  8
ENTITYA19764
  6
CONTINUOUS
 62
1
 10
196.057505
 20
10.260617
 40
3.000000
  1
BLOCKS
 50
90.000000
 41
1.000000
 51
0.000000
  7
STANDARD
  0
LINE
  8
ENTITYA19764
  6
CONTINUOUS
 62
1
 10
144.682011
 20
58.673478
 11
174.340402
 21
80.135225
  0
LINE
  8
ENTITYA19764
  6
CONTINUOUS
 62
1
 10
171.211422
 20
78.488256
 11
171.797732
 21
77.678020
  0
LINE
  8
ENTITYA19764
  6
CONTINUOUS
 62
1
 10
171.797732
 20
77.678020
 11
174.340402
 21
80.135225
  0
LINE
  8
ENTITYA19764
  6
CONTINUOUS
 62
1
 10
174.340402
 20
80.135225
 11
171.211422
 21
78.488256
  0
LINE
  8
ENTITYA19764
  6
CONTINUOUS
 62
1
 10
190.273512
 20
31.221755
 11
186.793716
 21
82.645404
  0
LINE
  8
ENTITYA19764
  6
CONTINUOUS
 62
1
 10
186.531125
 20
79.119226
 11
187.528958
 21
79.186747
  0
LINE
  8
ENTITYA19764
  6
CONTINUOUS
 62
1
 10
187.528958
 20
79.186747
 11
186.793716
 21
82.645404
  0
LINE
  8
ENTITYA19764
  6
CONTINUOUS
 62
1
 10
186.793716
 20
82.645404
 11
186.531125
 21
79.119226
  0
LINE
  8
ENTITYA19764
  6
CONTINUOUS
 62
1
 10
159.811323
 20
117.100733
 11
178.848479
 21
96.736856
  0
LINE
  8
ENTITYA19764
  6
CONTINUOUS
 62
1
 10
176.823544
 20
99.635073
 11
176.093041
 21
98.952162
  0
LINE
  8
ENTITYA19764
  6
CONTINUOUS
 62
1
 10
176.093041
 20
98.952162
 11
178.848479
 21
96.736856
  0
LINE
  8
ENTITYA19764
  6
CONTINUOUS
 62
1
 10
178.848479
 20
96.736856
 11
176.823544
 21
99.635073
  0
LINE
  8
ENTITYA19764
  6
CONTINUOUS
 62
1
 10
175.011721
 20
116.262091
 11
184.131959
 21
98.650596
  0
LINE
  8
ENTITYA19764
  6
CONTINUOUS
 62
1
 10
182.966441
 20
101.988576
 11
182.078427
 21
101.528712
  0
LINE
  8
ENTITYA19764
  6
CONTINUOUS
 62
1
 10
182.078427
 20
101.528712
 11
184.131959
 21
98.650596
  0
LINE
  8
ENTITYA19764
  6
CONTINUOUS
 62
1
 10
184.131959
 20
98.650596
 11
182.966441
 21
101.988576
  0
TEXT
  8
ENTITYA19764
  6
CONTINUOUS
 62
1
 10
162.111972
 20
10.260617
 40
3.000000
  1
FOAM TAPE 
 50
90.000000
 41
1.000000
 51
0.000000
  7
STANDARD
  0
TEXT
  8
ENTITYA19764
  6
CONTINUOUS
 62
1
 10
168.111972
 20
10.260617
 40
3.000000
  1
TYPE VARIES
 50
90.000000
 41
1.000000
 51
0.000000
  7
STANDARD
  0
TEXT
  8
ENTITYA19764
  6
CONTINUOUS
 62
1
 10
174.111972
 20
10.260617
 40
3.000000
  1
ACCORDING TO
 50
90.000000
 41
1.000000
 51
0.000000
  7
STANDARD
  0
TEXT
  8
ENTITYA19764
  6
CONTINUOUS
 62
1
 10
180.111972
 20
10.260617
 40
3.000000
  1
GLASS THICKNESS
 50
90.000000
 41
1.000000
 51
0.000000
  7
STANDARD
  0
LINE
  8
ENTITYA19764
  6
CONTINUOUS
 62
1
 10
179.813740
 20
55.519266
 11
182.250016
 21
80.129040
  0
LINE
  8
ENTITYA19764
  6
CONTINUOUS
 62
1
 10
181.407631
 20
76.695260
 11
182.402785
 21
76.596744
  0
LINE
  8
ENTITYA19764
  6
CONTINUOUS
 62
1
 10
182.402785
 20
76.596744
 11
182.250016
 21
80.129040
  0
LINE
  8
ENTITYA19764
  6
CONTINUOUS
 62
1
 10
182.250016
 20
80.129040
 11
181.407631
 21
76.695260
  0
LINE
  8
ENTITYA19764
  6
CONTINUOUS
 62
1
 10
179.813740
 20
55.519266
 11
181.170640
 21
89.195799
  0
LINE
  8
ENTITYA19764
  6
CONTINUOUS
 62
1
 10
180.530089
 20
85.718513
 11
181.529351
 21
85.678250
  0
LINE
  8
ENTITYA19764
  6
CONTINUOUS
 62
1
 10
181.529351
 20
85.678250
 11
181.170640
 21
89.195799
  0
LINE
  8
ENTITYA19764
  6
CONTINUOUS
 62
1
 10
181.170640
 20
89.195799
 11
180.530089
 21
85.718513
  0
LINE
  8
ENTITYA19764
  6
CONTINUOUS
 62
1
 10
144.682011
 20
58.673478
 11
175.773760
 21
88.979924
  0
LINE
  8
ENTITYA19764
  6
CONTINUOUS
 62
1
 10
172.918403
 20
86.894928
 11
173.616416
 21
86.178828
  0
LINE
  8
ENTITYA19764
  6
CONTINUOUS
 62
1
 10
173.616416
 20
86.178828
 11
175.773760
 21
88.979924
  0
LINE
  8
ENTITYA19764
  6
CONTINUOUS
 62
1
 10
175.773760
 20
88.979924
 11
172.918403
 21
86.894928
  0
LINE
  8
ENTITYA19764
  6
CONTINUOUS
 62
1
 10
276.902012
 20
103.736856
 11
276.902012
 21
106.936856
  0
LINE
  8
ENTITYA19764
  6
CONTINUOUS
 62
1
 10
271.903556
 20
103.112049
 11
276.902012
 21
103.736856
  0
ARC
  8
ENTITYA19764
  6
CONTINUOUS
 62
1
 10
272.102012
 20
101.524405
 40
1.600000
 50
97.125016
 51
180.000000
  0
LINE
  8
ENTITYA19764
  6
CONTINUOUS
 62
1
 10
267.402012
 20
81.691381
 11
267.402012
 21
98.536856
  0
LINE
  8
ENTITYA19764
  6
CONTINUOUS
 62
1
 10
254.902012
 20
75.136856
 11
254.902012
 21
78.436856
  0
LINE
  8
ENTITYA19764
  6
CONTINUOUS
 62
1
 10
265.954909
 20
79.497934
 11
254.902012
 21
78.436856
  0
LINE
  8
ENTITYA19764
  6
CONTINUOUS
 62
1
 10
267.402012
 20
81.090612
 11
267.402012
 21
106.936856
  0
ARC
  8
ENTITYA19764
  6
CONTINUOUS
 62
1
 10
265.802012
 20
81.090612
 40
1.600000
 50
275.483590
 51
0.000000
  0
LINE
  8
ENTITYA19764
  6
CONTINUOUS
 62
1
 10
276.902012
 20
75.136856
 11
215.716759
 21
75.136856
  0
LINE
  8
ENTITYA19764
  6
CONTINUOUS
 62
1
 10
276.902012
 20
75.136856
 11
276.902012
 21
78.336856
  0
LINE
  8
ENTITYA19764
  6
CONTINUOUS
 62
1
 10
270.502012
 20
81.038992
 11
270.502012
 21
101.524405
  0
LINE
  8
ENTITYA19764
  6
CONTINUOUS
 62
1
 10
276.902012
 20
103.736856
 11
276.902012
 21
106.936856
  0
LINE
  8
ENTITYA19764
  6
CONTINUOUS
 62
1
 10
271.903556
 20
103.112049
 11
276.902012
 21
103.736856
  0
ARC
  8
ENTITYA19764
  6
CONTINUOUS
 62
1
 10
272.102012
 20
81.038992
 40
1.600000
 50
180.000000
 51
257.508981
  0
LINE
  8
ENTITYA19764
  6
RANDOM
 62
1
 10
215.716759
 20
75.136856
 11
215.716759
 21
106.936856
  0
LINE
  8
ENTITYA19764
  6
CONTINUOUS
 62
1
 10
254.702012
 20
78.436856
 11
215.716759
 21
78.436856
  0
LINE
  8
ENTITYA19764
  6
CONTINUOUS
 62
1
 10
263.402012
 20
95.283869
 11
215.716759
 21
95.283869
  0
LINE
  8
ENTITYA19764
  6
CONTINUOUS
 62
1
 10
263.402012
 20
95.283869
 11
267.402012
 21
95.283869
  0
LINE
  8
ENTITYA19764
  6
CONTINUOUS
 62
1
 10
263.402012
 20
81.092802
 11
267.402012
 21
81.092802
  0
LINE
  8
ENTITYA19764
  6
CONTINUOUS
 62
1
 10
215.716759
 20
81.283869
 11
263.402012
 21
81.283869
  0
LINE
  8
ENTITYA19764
  6
CONTINUOUS
 62
1
 10
267.402012
 20
95.283869
 11
263.402012
 21
81.092802
  0
LINE
  8
ENTITYA19764
  6
CONTINUOUS
 62
1
 10
263.402012
 20
95.283869
 11
267.402012
 21
81.092802
  0
LINE
  8
ENTITYA19764
  6
CONTINUOUS
 62
1
 10
263.402012
 20
81.092802
 11
263.402012
 21
95.283869
  0
LINE
  8
ENTITYA19764
  6
CONTINUOUS
 62
1
 10
263.402012
 20
85.283869
 11
215.716759
 21
85.283869
  0
LINE
  8
ENTITYA19764
  6
CONTINUOUS
 62
1
 10
215.716759
 20
91.283869
 11
263.402012
 21
91.283869
  0
LINE
  8
ENTITYA19764
  6
CONTINUOUS
 62
1
 10
215.716759
 20
84.283869
 11
263.402012
 21
84.283869
  0
LINE
  8
ENTITYA19764
  6
CONTINUOUS
 62
1
 10
263.402012
 20
83.283869
 11
215.716759
 21
83.283869
  0
LINE
  8
ENTITYA19764
  6
CONTINUOUS
 62
1
 10
215.716759
 20
82.283869
 11
263.402012
 21
82.283869
  0
LINE
  8
ENTITYA19764
  6
CONTINUOUS
 62
1
 10
263.402012
 20
92.283869
 11
215.716759
 21
92.283869
  0
LINE
  8
ENTITYA19764
  6
CONTINUOUS
 62
1
 10
215.716759
 20
93.283869
 11
263.402012
 21
93.283869
  0
LINE
  8
ENTITYA19764
  6
CONTINUOUS
 62
1
 10
263.402012
 20
94.283869
 11
215.716759
 21
94.283869
  0
LINE
  8
ENTITYA19764
  6
CONTINUOUS
 62
1
 10
253.402012
 20
91.283869
 11
257.402012
 21
91.283869
  0
LINE
  8
ENTITYA19764
  6
CONTINUOUS
 62
1
 10
251.471821
 20
91.283869
 11
251.471821
 21
85.283869
  0
LINE
  8
ENTITYA19764
  6
CONTINUOUS
 62
1
 10
251.471821
 20
85.283869
 11
259.402012
 21
91.283869
  0
LINE
  8
ENTITYA19764
  6
CONTINUOUS
 62
1
 10
251.471821
 20
91.283869
 11
259.402012
 21
85.283869
  0
LINE
  8
ENTITYA19764
  6
CONTINUOUS
 62
1
 10
259.402012
 20
85.283869
 11
259.402012
 21
91.283869
  0
LINE
  8
ENTITYA19764
  6
CONTINUOUS
 62
1
 10
259.402012
 20
85.283869
 11
259.402012
 21
91.283869
  0
LINE
  8
ENTITYA19764
  6
DASHED
 62
1
 10
253.471821
 20
85.283869
 11
253.471821
 21
91.283869
  0
LINE
  8
ENTITYA19764
  6
DASHED
 62
1
 10
249.471821
 20
91.283869
 11
249.471821
 21
85.283869
  0
LINE
  8
ENTITYA19764
  6
CONTINUOUS
 62
1
 10
260.402012
 20
91.283869
 11
260.402012
 21
85.283869
  0
LINE
  8
ENTITYA19764
  6
CONTINUOUS
 62
1
 10
261.402012
 20
85.283869
 11
261.402012
 21
91.283869
  0
LINE
  8
ENTITYA19764
  6
CONTINUOUS
 62
1
 10
259.402012
 20
86.283869
 11
263.402012
 21
86.283869
  0
LINE
  8
ENTITYA19764
  6
CONTINUOUS
 62
1
 10
263.402012
 20
87.283869
 11
259.402012
 21
87.283869
  0
LINE
  8
ENTITYA19764
  6
CONTINUOUS
 62
1
 10
259.402012
 20
88.283869
 11
263.402012
 21
88.283869
  0
LINE
  8
ENTITYA19764
  6
CONTINUOUS
 62
1
 10
263.402012
 20
89.283869
 11
259.402012
 21
89.283869
  0
LINE
  8
ENTITYA19764
  6
CONTINUOUS
 62
1
 10
259.402012
 20
90.283869
 11
263.402012
 21
90.283869
  0
LINE
  8
ENTITYA19764
  6
RANDOM
 62
1
 10
257.332203
 20
81.283869
 11
257.332203
 21
78.685378
  0
LINE
  8
ENTITYA19764
  6
CONTINUOUS
 62
1
 10
256.332203
 20
78.590890
 11
256.332203
 21
81.283869
  0
LINE
  8
ENTITYA19764
  6
CONTINUOUS
 62
1
 10
255.332203
 20
81.283869
 11
255.332203
 21
78.496402
  0
LINE
  8
ENTITYA19764
  6
CONTINUOUS
 62
1
 10
254.332203
 20
78.895367
 11
254.332203
 21
81.283869
  0
LINE
  8
ENTITYA19764
  6
CONTINUOUS
 62
1
 10
253.332203
 20
81.283869
 11
253.332203
 21
80.135225
  0
LINE
  8
ENTITYA19764
  6
CONTINUOUS
 62
1
 10
257.332203
 20
80.483869
 11
253.051006
 21
80.483869
  0
LINE
  8
ENTITYA19764
  6
CONTINUOUS
 62
1
 10
253.857550
 20
79.483869
 11
257.332203
 21
79.483869
  0
LINE
  8
ENTITYA19764
  6
CONTINUOUS
 62
1
 10
255.199562
 20
78.483869
 11
254.664094
 21
78.483869
  0
ARC
  8
ENTITYA19764
  6
CONTINUOUS
 62
1
 10
265.680063
 20
80.327235
 40
1.000000
 50
312.738347
 51
49.957445
  0
LINE
  8
ENTITYA19764
  6
CONTINUOUS
 62
1
 10
254.702012
 20
78.436856
 11
252.405771
 21
81.283869
  0
TEXT
  8
ENTITYA19764
  6
CONTINUOUS
 62
1
 10
264.931823
 20
79.746990
 40
2.500000
  1
%%d
 50
90.000000
 41
1.000000
 51
0.000000
  7
STANDARD
  0
TEXT
  8
ENTITYA19764
  6
CONTINUOUS
 62
1
 10
261.409349
 20
80.084248
 40
2.500000
  1
%%d
 50
90.000000
 41
1.000000
 51
0.000000
  7
STANDARD
  0
TEXT
  8
ENTITYA19764
  6
CONTINUOUS
 62
1
 10
263.545317
 20
79.184893
 40
2.500000
  1
%%d
 50
90.000000
 41
1.000000
 51
0.000000
  7
STANDARD
  0
TEXT
  8
ENTITYA19764
  6
CONTINUOUS
 62
1
 10
268.079565
 20
78.772689
 40
5.000000
  1
%%d
 50
90.000000
 41
1.000000
 51
-0.000000
  7
STANDARD
  0
TEXT
  8
ENTITYA19764
  6
CONTINUOUS
 62
1
 10
266.580640
 20
79.934355
 40
0.500000
  1
%%d
 50
90.000000
 41
1.000000
 51
0.000000
  7
STANDARD
  0
TEXT
  8
ENTITYA19764
  6
CONTINUOUS
 62
1
 10
266.543167
 20
80.608872
 40
0.500000
  1
%%d
 50
90.000000
 41
1.000000
 51
0.000000
  7
STANDARD
  0
TEXT
  8
ENTITYA19764
  6
CONTINUOUS
 62
1
 10
262.196285
 20
81.021076
 40
0.500000
  1
%%d
 50
90.000000
 41
1.000000
 51
0.000000
  7
STANDARD
  0
TEXT
  8
ENTITYA19764
  6
CONTINUOUS
 62
1
 10
258.561392
 20
80.871183
 40
0.500000
  1
%%d
 50
90.000000
 41
1.000000
 51
0.000000
  7
STANDARD
  0
TEXT
  8
ENTITYA19764
  6
CONTINUOUS
 62
1
 10
258.186661
 20
80.683818
 40
0.500000
  1
%%d
 50
90.000000
 41
1.000000
 51
0.000000
  7
STANDARD
  0
TEXT
  8
ENTITYA19764
  6
CONTINUOUS
 62
1
 10
258.111715
 20
79.222366
 40
0.500000
  1
%%d
 50
90.000000
 41
1.000000
 51
0.000000
  7
STANDARD
  0
TEXT
  8
ENTITYA19764
  6
CONTINUOUS
 62
1
 10
258.561392
 20
79.934355
 40
0.500000
  1
%%d
 50
90.000000
 41
1.000000
 51
0.000000
  7
STANDARD
  0
TEXT
  8
ENTITYA19764
  6
CONTINUOUS
 62
1
 10
259.610640
 20
79.109947
 40
0.500000
  1
%%d
 50
90.000000
 41
1.000000
 51
0.000000
  7
STANDARD
  0
TEXT
  8
ENTITYA19764
  6
CONTINUOUS
 62
1
 10
261.296930
 20
79.109947
 40
0.500000
  1
%%d
 50
90.000000
 41
1.000000
 51
0.000000
  7
STANDARD
  0
TEXT
  8
ENTITYA19764
  6
CONTINUOUS
 62
1
 10
262.908274
 20
79.447205
 40
0.500000
  1
%%d
 50
90.000000
 41
1.000000
 51
0.000000
  7
STANDARD
  0
TEXT
  8
ENTITYA19764
  6
CONTINUOUS
 62
1
 10
262.533543
 20
80.421506
 40
0.500000
  1
%%d
 50
90.000000
 41
1.000000
 51
0.000000
  7
STANDARD
  0
TEXT
  8
ENTITYA19764
  6
CONTINUOUS
 62
1
 10
264.894350
 20
79.522151
 40
0.500000
  1
%%d
 50
90.000000
 41
1.000000
 51
0.000000
  7
STANDARD
  0
TEXT
  8
ENTITYA19764
  6
CONTINUOUS
 62
1
 10
265.906124
 20
79.559624
 40
0.500000
  1
%%d
 50
90.000000
 41
1.000000
 51
0.000000
  7
STANDARD
  0
TEXT
  8
ENTITYA19764
  6
CONTINUOUS
 62
1
 10
264.856877
 20
80.571398
 40
0.500000
  1
%%d
 50
90.000000
 41
1.000000
 51
0.000000
  7
STANDARD
  0
LINE
  8
ENTITYA19764
  6
CONTINUOUS
 62
1
 10
267.402012
 20
106.936856
 11
215.716759
 21
106.936856
  0
LINE
  8
ENTITYA19764
  6
CONTINUOUS
 62
1
 10
276.902012
 20
106.936856
 11
267.402012
 21
106.936856
  0
LINE
  8
ENTITYA19764
  6
CONTINUOUS
 62
1
 10
262.402012
 20
85.283869
 11
262.402012
 21
91.283869
  0
LINE
  8
ENTITYA19764
  6
CONTINUOUS
 62
1
 10
276.902012
 20
78.336856
 11
271.755953
 21
79.476864
  0
TEXT
  8
ENTITYA19764
  6
CONTINUOUS
 62
1
 10
228.669904
 20
10.260617
 40
3.000000
  1
LOW MODULUS
 50
90.000000
 41
1.000000
 51
0.000000
  7
STANDARD
  0
TEXT
  8
ENTITYA19764
  6
CONTINUOUS
 62
1
 10
234.669904
 20
10.260617
 40
3.000000
  1
SILICONE CAPPING
 50
90.000000
 41
1.000000
 51
0.000000
  7
STANDARD
  0
TEXT
  8
ENTITYA19764
  6
CONTINUOUS
 62
1
 10
240.669904
 20
10.260617
 40
3.000000
  1
(BLACK)
 50
90.000000
 41
1.000000
 51
0.000000
  7
STANDARD
  0
TEXT
  8
ENTITYA19764
  6
CONTINUOUS
 62
1
 10
248.619800
 20
10.260617
 40
3.000000
  1
99.2031.99 3mm x 9mm
 50
90.000000
 41
1.000000
 51
0.000000
  7
STANDARD
  0
TEXT
  8
ENTITYA19764
  6
CONTINUOUS
 62
1
 10
254.619800
 20
10.260617
 40
3.000000
  1
NORTON V570 FOAM TAPE            
 50
90.000000
 41
1.000000
 51
0.000000
  7
STANDARD
  0
TEXT
  8
ENTITYA19764
  6
CONTINUOUS
 62
1
 10
269.049306
 20
10.260617
 40
3.000000
  1
SETTING 
 50
90.000000
 41
1.000000
 51
0.000000
  7
STANDARD
  0
TEXT
  8
ENTITYA19764
  6
CONTINUOUS
 62
1
 10
275.049306
 20
10.260617
 40
3.000000
  1
BLOCKS
 50
90.000000
 41
1.000000
 51
0.000000
  7
STANDARD
  0
LINE
  8
ENTITYA19764
  6
CONTINUOUS
 62
1
 10
235.047321
 20
58.673478
 11
253.332203
 21
80.135225
  0
LINE
  8
ENTITYA19764
  6
CONTINUOUS
 62
1
 10
250.681649
 20
77.795182
 11
251.442884
 21
77.146629
  0
LINE
  8
ENTITYA19764
  6
CONTINUOUS
 62
1
 10
251.442884
 20
77.146629
 11
253.332203
 21
80.135225
  0
LINE
  8
ENTITYA19764
  6
CONTINUOUS
 62
1
 10
253.332203
 20
80.135225
 11
250.681649
 21
77.795182
  0
LINE
  8
ENTITYA19764
  6
CONTINUOUS
 62
1
 10
255.732774
 20
72.979305
 11
261.532434
 21
79.938896
  0
LINE
  8
ENTITYA19764
  6
CONTINUOUS
 62
1
 10
258.907663
 20
77.570201
 11
259.675889
 21
76.930012
  0
LINE
  8
ENTITYA19764
  6
CONTINUOUS
 62
1
 10
259.675889
 20
76.930012
 11
261.532434
 21
79.938896
  0
LINE
  8
ENTITYA19764
  6
CONTINUOUS
 62
1
 10
261.532434
 20
79.938896
 11
258.907663
 21
77.570201
  0
LINE
  8
ENTITYA19764
  6
CONTINUOUS
 62
1
 10
269.265314
 20
31.221755
 11
265.785518
 21
82.645404
  0
LINE
  8
ENTITYA19764
  6
CONTINUOUS
 62
1
 10
265.522926
 20
79.119226
 11
266.520760
 21
79.186747
  0
LINE
  8
ENTITYA19764
  6
CONTINUOUS
 62
1
 10
266.520760
 20
79.186747
 11
265.785518
 21
82.645404
  0
LINE
  8
ENTITYA19764
  6
CONTINUOUS
 62
1
 10
265.785518
 20
82.645404
 11
265.522926
 21
79.119226
  0
LINE
  8
ENTITYA19764
  6
CONTINUOUS
 62
1
 10
215.716759
 20
98.136856
 11
267.402012
 21
98.136856
  0
LINE
  8
ENTITYA19764
  6
CONTINUOUS
 62
1
 10
267.402012
 20
104.136856
 11
215.716759
 21
104.136856
  0
LINE
  8
ENTITYA19764
  6
CONTINUOUS
 62
1
 10
255.402012
 20
104.136856
 11
255.402012
 21
98.136856
  0
LINE
  8
ENTITYA19764
  6
DASHED
 62
1
 10
256.402013
 20
103.136855
 11
272.102005
 21
103.136855
  0
LINE
  8
ENTITYA19764
  6
DASHED
 62
1
 10
270.502012
 20
99.136857
 11
256.402013
 21
99.136857
  0
LINE
  8
ENTITYA19764
  6
DASHED
 62
1
 10
271.057999
 20
102.736856
 11
256.402013
 21
102.736856
  0
LINE
  8
ENTITYA19764
  6
DASHED
 62
1
 10
256.402013
 20
99.536857
 11
270.502012
 21
99.536857
  0
LINE
  8
ENTITYA19764
  6
DASHED
 62
1
 10
270.084604
 20
103.136855
 11
270.084604
 21
99.136857
  0
LINE
  8
ENTITYA19764
  6
DASHED
 62
1
 10
255.402012
 20
98.136856
 11
256.402013
 21
99.136857
  0
LINE
  8
ENTITYA19764
  6
DASHED
 62
1
 10
255.402012
 20
104.136856
 11
256.402013
 21
103.136855
  0
LINE
  8
ENTITYA19764
  6
DASHED
 62
1
 10
256.402013
 20
99.136857
 11
256.402013
 21
103.136855
  0
LINE
  8
ENTITYA19764
  6
CENTER
 62
1
 10
251.978426
 20
101.136856
 11
274.866959
 21
101.136856
  0
LINE
  8
ENTITYA19764
  6
RANDOM
 62
1
 10
257.332203
 20
95.283869
 11
257.332203
 21
98.136856
  0
LINE
  8
ENTITYA19764
  6
CONTINUOUS
 62
1
 10
256.332203
 20
98.136856
 11
256.332203
 21
95.283869
  0
LINE
  8
ENTITYA19764
  6
CONTINUOUS
 62
1
 10
255.332203
 20
95.283869
 11
255.332203
 21
98.071336
  0
LINE
  8
ENTITYA19764
  6
CONTINUOUS
 62
1
 10
254.332203
 20
97.118196
 11
254.332203
 21
95.283869
  0
LINE
  8
ENTITYA19764
  6
CONTINUOUS
 62
1
 10
253.332203
 20
95.283869
 11
253.332203
 21
96.166007
  0
LINE
  8
ENTITYA19764
  6
CONTINUOUS
 62
1
 10
257.332203
 20
96.083869
 11
253.245941
 21
96.083869
  0
LINE
  8
ENTITYA19764
  6
CONTINUOUS
 62
1
 10
254.296152
 20
97.083869
 11
257.332203
 21
97.083869
  0
TEXT
  8
ENTITYA19764
  6
CONTINUOUS
 62
1
 10
264.931823
 20
96.820748
 40
2.500000
  1
%%d
 50
90.000000
 41
-1.000000
 51
0.000000
  7
STANDARD
  0
TEXT
  8
ENTITYA19764
  6
CONTINUOUS
 62
1
 10
261.409349
 20
96.483490
 40
2.500000
  1
%%d
 50
90.000000
 41
-1.000000
 51
0.000000
  7
STANDARD
  0
TEXT
  8
ENTITYA19764
  6
CONTINUOUS
 62
1
 10
263.545317
 20
97.382845
 40
2.500000
  1
%%d
 50
90.000000
 41
-1.000000
 51
0.000000
  7
STANDARD
  0
TEXT
  8
ENTITYA19764
  6
CONTINUOUS
 62
1
 10
266.580640
 20
96.633382
 40
0.500000
  1
%%d
 50
90.000000
 41
-1.000000
 51
0.000000
  7
STANDARD
  0
TEXT
  8
ENTITYA19764
  6
CONTINUOUS
 62
1
 10
266.543167
 20
95.958866
 40
0.500000
  1
%%d
 50
90.000000
 41
-1.000000
 51
0.000000
  7
STANDARD
  0
TEXT
  8
ENTITYA19764
  6
CONTINUOUS
 62
1
 10
262.196285
 20
95.546662
 40
0.500000
  1
%%d
 50
90.000000
 41
-1.000000
 51
0.000000
  7
STANDARD
  0
TEXT
  8
ENTITYA19764
  6
CONTINUOUS
 62
1
 10
258.561392
 20
95.696554
 40
0.500000
  1
%%d
 50
90.000000
 41
-1.000000
 51
0.000000
  7
STANDARD
  0
TEXT
  8
ENTITYA19764
  6
CONTINUOUS
 62
1
 10
258.186661
 20
95.883920
 40
0.500000
  1
%%d
 50
90.000000
 41
-1.000000
 51
0.000000
  7
STANDARD
  0
TEXT
  8
ENTITYA19764
  6
CONTINUOUS
 62
1
 10
258.111715
 20
97.345371
 40
0.500000
  1
%%d
 50
90.000000
 41
-1.000000
 51
0.000000
  7
STANDARD
  0
TEXT
  8
ENTITYA19764
  6
CONTINUOUS
 62
1
 10
258.561392
 20
96.633382
 40
0.500000
  1
%%d
 50
90.000000
 41
-1.000000
 51
0.000000
  7
STANDARD
  0
TEXT
  8
ENTITYA19764
  6
CONTINUOUS
 62
1
 10
259.610640
 20
97.457791
 40
0.500000
  1
%%d
 50
90.000000
 41
-1.000000
 51
0.000000
  7
STANDARD
  0
TEXT
  8
ENTITYA19764
  6
CONTINUOUS
 62
1
 10
261.296930
 20
97.457791
 40
0.500000
  1
%%d
 50
90.000000
 41
-1.000000
 51
0.000000
  7
STANDARD
  0
TEXT
  8
ENTITYA19764
  6
CONTINUOUS
 62
1
 10
262.908274
 20
97.120533
 40
0.500000
  1
%%d
 50
90.000000
 41
-1.000000
 51
0.000000
  7
STANDARD
  0
TEXT
  8
ENTITYA19764
  6
CONTINUOUS
 62
1
 10
262.533543
 20
96.146232
 40
0.500000
  1
%%d
 50
90.000000
 41
-1.000000
 51
0.000000
  7
STANDARD
  0
TEXT
  8
ENTITYA19764
  6
CONTINUOUS
 62
1
 10
264.894350
 20
97.045587
 40
0.500000
  1
%%d
 50
90.000000
 41
-1.000000
 51
0.000000
  7
STANDARD
  0
TEXT
  8
ENTITYA19764
  6
CONTINUOUS
 62
1
 10
265.906124
 20
97.008113
 40
0.500000
  1
%%d
 50
90.000000
 41
-1.000000
 51
0.000000
  7
STANDARD
  0
TEXT
  8
ENTITYA19764
  6
CONTINUOUS
 62
1
 10
264.856877
 20
95.996339
 40
0.500000
  1
%%d
 50
90.000000
 41
-1.000000
 51
0.000000
  7
STANDARD
  0
LINE
  8
ENTITYA19764
  6
CONTINUOUS
 62
1
 10
252.405771
 20
95.283869
 11
255.402012
 21
98.136856
  0
LINE
  8
ENTITYA19764
  6
RANDOM
 62
1
 10
266.332203
 20
98.136856
 11
266.332203
 21
95.283869
  0
TEXT
  8
ENTITYA19764
  6
CONTINUOUS
 62
1
 10
237.936980
 20
118.278913
 40
3.000000
  1
12mm x 6mm SOLID
 50
90.000000
 41
1.000000
 51
0.000000
  7
STANDARD
  0
TEXT
  8
ENTITYA19764
  6
CONTINUOUS
 62
1
 10
243.936980
 20
118.278913
 40
3.000000
  1
ALUMINIUM BEAD
 50
90.000000
 41
1.000000
 51
0.000000
  7
STANDARD
  0
TEXT
  8
ENTITYA19764
  6
CONTINUOUS
 62
1
 10
249.936980
 20
118.278913
 40
3.000000
  1
& STEEL BEAD SCREW
 50
90.000000
 41
1.000000
 51
0.000000
  7
STANDARD
  0
LINE
  8
ENTITYA19764
  6
CONTINUOUS
 62
1
 10
251.031435
 20
116.476753
 11
255.402012
 21
104.136856
  0
LINE
  8
ENTITYA19764
  6
CONTINUOUS
 62
1
 10
254.704785
 20
107.603099
 11
253.762126
 21
107.269226
  0
LINE
  8
ENTITYA19764
  6
CONTINUOUS
 62
1
 10
253.762126
 20
107.269226
 11
255.402012
 21
104.136856
  0
LINE
  8
ENTITYA19764
  6
CONTINUOUS
 62
1
 10
255.402012
 20
104.136856
 11
254.704785
 21
107.603099
  0
TEXT
  8
ENTITYA19764
  6
CONTINUOUS
 62
1
 10
220.795667
 20
118.278913
 40
3.000000
  1
SPACER BAR
 50
90.000000
 41
1.000000
 51
0.000000
  7
STANDARD
  0
TEXT
  8
ENTITYA19764
  6
CONTINUOUS
 62
1
 10
226.795667
 20
118.278913
 40
3.000000
  1
(BLACK)
 50
90.000000
 41
1.000000
 51
0.000000
  7
STANDARD
  0
LINE
  8
ENTITYA19764
  6
CONTINUOUS
 62
1
 10
228.055134
 20
118.278913
 11
251.471821
 21
88.283869
  0
LINE
  8
ENTITYA19764
  6
CONTINUOUS
 62
1
 10
249.711903
 20
91.350844
 11
248.923547
 21
90.735388
  0
LINE
  8
ENTITYA19764
  6
CONTINUOUS
 62
1
 10
248.923547
 20
90.735388
 11
251.471821
 21
88.283869
  0
LINE
  8
ENTITYA19764
  6
CONTINUOUS
 62
1
 10
251.471821
 20
88.283869
 11
249.711903
 21
91.350844
  0
LINE
  8
ENTITYA19764
  6
CONTINUOUS
 62
1
 10
235.047321
 20
58.673478
 11
255.539170
 21
96.381375
  0
LINE
  8
ENTITYA19764
  6
CONTINUOUS
 62
1
 10
253.428578
 20
93.544779
 11
254.307249
 21
93.067277
  0
LINE
  8
ENTITYA19764
  6
CONTINUOUS
 62
1
 10
254.307249
 20
93.067277
 11
255.539170
 21
96.381375
  0
LINE
  8
ENTITYA19764
  6
CONTINUOUS
 62
1
 10
255.539170
 20
96.381375
 11
253.428578
 21
93.544779
  0
LINE
  8
ENTITYA19764
  6
CONTINUOUS
 62
1
 10
255.732774
 20
72.979305
 11
260.894616
 21
96.381375
  0
LINE
  8
ENTITYA19764
  6
CONTINUOUS
 62
1
 10
259.652411
 20
93.071069
 11
260.628985
 21
92.855663
  0
LINE
  8
ENTITYA19764
  6
CONTINUOUS
 62
1
 10
260.628985
 20
92.855663
 11
260.894616
 21
96.381375
  0
LINE
  8
ENTITYA19764
  6
CONTINUOUS
 62
1
 10
260.894616
 20
96.381375
 11
259.652411
 21
93.071069
  0
TEXT
  8
ENTITYA19764
  6
CONTINUOUS
 62
1
 10
109.889287
 20
126.660339
 40
3.000000
  1
14mm DOUBLE GLASS
 50
90.000000
 41
1.000000
 51
0.000000
  7
STANDARD
  0
LINE
  8
ENTITYA19764
  6
CONTINUOUS
 62
1
 10
111.389287
 20
177.097839
 11
111.389287
 21
126.097839
  0
TEXT
  8
ENTITYA19764
  6
CONTINUOUS
 62
1
 10
115.889287
 20
131.160339
 40
3.000000
  1
GLAZE IN SHOWN
 50
90.000000
 41
1.000000
 51
0.000000
  7
STANDARD
  0
LINE
  8
ENTITYA19764
  6
CONTINUOUS
 62
1
 10
117.389287
 20
172.597839
 11
117.389287
 21
130.597839
  0
TEXT
  8
ENTITYA19764
  6
CONTINUOUS
 62
1
 10
121.889287
 20
111.660339
 40
3.000000
  1
SEE D2 FOR GLAZE OUT DETAIL
 50
90.000000
 41
1.000000
 51
0.000000
  7
STANDARD
  0
LINE
  8
ENTITYA19764
  6
CONTINUOUS
 62
1
 10
123.389287
 20
192.097839
 11
123.389287
 21
111.097839
  0
TEXT
  8
ENTITYA19764
  6
CONTINUOUS
 62
1
 10
188.024946
 20
134.212651
 40
3.000000
  1
SINGLE GLASS
 50
90.000000
 41
1.000000
 51
0.000000
  7
STANDARD
  0
LINE
  8
ENTITYA19764
  6
CONTINUOUS
 62
1
 10
189.524946
 20
169.650151
 11
189.524946
 21
133.650151
  0
TEXT
  8
ENTITYA19764
  6
CONTINUOUS
 62
1
 10
194.024946
 20
131.212651
 40
3.000000
  1
GLAZE IN SHOWN
 50
90.000000
 41
1.000000
 51
0.000000
  7
STANDARD
  0
LINE
  8
ENTITYA19764
  6
CONTINUOUS
 62
1
 10
195.524946
 20
172.650151
 11
195.524946
 21
130.650151
  0
TEXT
  8
ENTITYA19764
  6
CONTINUOUS
 62
1
 10
200.024946
 20
111.712651
 40
3.000000
  1
SEE D2 FOR GLAZE OUT DETAIL
 50
90.000000
 41
1.000000
 51
0.000000
  7
STANDARD
  0
LINE
  8
ENTITYA19764
  6
CONTINUOUS
 62
1
 10
201.524946
 20
192.150151
 11
201.524946
 21
111.150151
  0
TEXT
  8
ENTITYA19764
  6
CONTINUOUS
 62
1
 10
271.410797
 20
115.904440
 40
3.000000
  1
14mm DOUBLE GLASS
 50
90.000000
 41
1.000000
 51
0.000000
  7
STANDARD
  0
LINE
  8
ENTITYA19764
  6
CONTINUOUS
 62
1
 10
272.910797
 20
166.341940
 11
272.910797
 21
115.341940
  0
TEXT
  8
ENTITYA19764
  6
CONTINUOUS
 62
1
 10
277.410797
 20
118.904440
 40
3.000000
  1
WITH SOLID BEAD
 50
90.000000
 41
1.000000
 51
0.000000
  7
STANDARD
  0
LINE
  8
ENTITYA19764
  6
CONTINUOUS
 62
1
 10
278.910797
 20
163.341940
 11
278.910797
 21
118.341940
  0
TEXT
  8
ENTITYA19764
  6
CONTINUOUS
 62
1
 10
283.410797
 20
120.404440
 40
3.000000
  1
GLAZE IN SHOWN
 50
90.000000
 41
1.000000
 51
0.000000
  7
STANDARD
  0
LINE
  8
ENTITYA19764
  6
CONTINUOUS
 62
1
 10
284.910797
 20
161.841940
 11
284.910797
 21
119.841940
  0
TEXT
  8
ENTITYA19764
  6
CONTINUOUS
 62
1
 10
289.410797
 20
100.904440
 40
3.000000
  1
SEE D2 FOR GLAZE OUT DETAIL
 50
90.000000
 41
1.000000
 51
0.000000
  7
STANDARD
  0
LINE
  8
ENTITYA19764
  6
CONTINUOUS
 62
1
 10
290.910797
 20
181.341940
 11
290.910797
 21
100.341940
  0
ENDSEC
  0
EOF
