  0
SECTION
  2
HEADER
  9
$LIMMIN
 10
0.000000
 20
0.000000
  9
$LIMMAX
 10
297.301779
 20
210.224104
  9
$EXTMIN
 10
0.000000
 20
0.000000
  9
$EXTMAX
 10
297.301779
 20
210.224104
  9
$ANGBASE
 50
0.0
  9
$ANGDIR
 70
0
  9
$DIMRND
 40
0.000010
  9
$DIMSE1
 70
0
  9
$DIMSE2
 70
0
  9
$DIMTXT
 40
3.500000
  9
$LTSCALE
 40
1.000000
  9
$LUPREC
 70
3
  9
$AUPREC
 70
3
  9
$PDMODE
 70
2
  9
$PDSIZE
 40
1.486509
  0
ENDSEC
  0
SECTION
  2
TABLES
  0
TABLE
  2
VPORT
  70
1
  0
VPORT
  2
*ACTIVE
 70
0
  10
0.0
 20
0.0
 11
1.0
 21
1.0
 12
594.0
 22
420.0
 13
0.0
 23
0.0
 14
10.0
 24
10.0
 15
10.0
 25
10.0
 16
0.0
 26
0.0
 36
1.0
 17
594.0
 27
420.0
 37
100.0
 40
1000.0
 41
1.0
 42
50.0
 43
0.0
 44
0.0
 50
0.0
 51
0.0
 71
0
 72
2000
 73
1
 74
3
 75
0
 76
0
 77
0
 78
1
  0
ENDTAB
  0
TABLE
  2
LTYPE
 70
4
  0
LTYPE
  2
CONTINUOUS
 70
0
  3
Solid line
 72
65
 73
0
 40
0.0
  0
LTYPE
  2
DASHED
 70
0
  3
Dashed line
 72
65
 73
2
 40
6.000000
 49
3.000000
 49
-3.000000
  0
LTYPE
  2
CENTER
 70
0
  3
Chain line
 72
65
 73
4
 40
24.000000
 49
15.000000
 49
-3.000000
 49
3.000000
 49
-3.000000
  0
LTYPE
  2
RANDOM
 70
0
  3
Random line
 72
65
 73
4
 40
22.500000
 49
6.000000
 49
-3.000000
 49
4.500000
 49
-9.000000
  0
ENDTAB
  0
TABLE
  2
STYLE
 70
9
  0
STYLE
  2
STANDARD
 40
0
 41
1.0
 50
0.0
 71
0
 42
0
  3
simplex
  4

 70
0
  0
ENDTAB
  0
TABLE
  2
LAYER
 70
2
  0
LAYER
  2
0
 70
0
 62
7
  6
CONTINUOUS
  0
LAYER
  2
ENTITYA19764
 62
1
  6
CONTINUOUS
 70
0
  0
ENDTAB
  0
ENDSEC
  0
SECTION
  2
BLOCKS
  0
ENDSEC
  0
SECTION
  2
ENTITIES
  0
LINE
  8
ENTITYA19764
  6
CONTINUOUS
 62
1
 10
0.000000
 20
0.000000
 11
297.000000
 21
0.000000
  0
LINE
  8
ENTITYA19764
  6
CONTINUOUS
 62
1
 10
297.000000
 20
0.000000
 11
297.000000
 21
210.000000
  0
LINE
  8
ENTITYA19764
  6
CONTINUOUS
 62
1
 10
297.000000
 20
210.000000
 11
0.000000
 21
210.000000
  0
LINE
  8
ENTITYA19764
  6
CONTINUOUS
 62
1
 10
0.000000
 20
210.000000
 11
0.000000
 21
0.000000
  0
CIRCLE
  8
ENTITYA19764
  6
CONTINUOUS
 62
1
 10
292.314963
 20
5.150956
 40
2.537993
  0
TEXT
  8
ENTITYA19764
  6
CONTINUOUS
 62
1
 10
293.314963
 20
4.588456
 40
2.000000
  1
C
 50
90.000000
 41
0.900000
 51
0.000000
  7
STANDARD
  0
TEXT
  8
ENTITYA19764
  6
CONTINUOUS
 62
1
 10
293.314963
 20
9.420802
 40
2.000000
  1
CRITTALL WINDOWS LTD. 2005
 50
90.000000
 41
0.900000
 51
0.000000
  7
STANDARD
  0
TEXT
  8
ENTITYA19764
  6
CONTINUOUS
 62
1
 10
19.929699
 20
18.447557
 40
7.000000
  1
Corporate W20 Sections
 50
90.000000
 41
1.000000
 51
0.000000
  7
STANDARD
  0
LINE
  8
ENTITYA19764
  6
CONTINUOUS
 62
1
 10
21.230951
 20
173.144222
 11
27.002201
 21
173.144222
  0
LINE
  8
ENTITYA19764
  6
CONTINUOUS
 62
1
 10
21.230951
 20
187.957097
 11
27.002201
 21
187.957097
  0
LINE
  8
ENTITYA19764
  6
CONTINUOUS
 62
1
 10
27.002201
 20
189.111347
 11
22.490133
 21
189.111347
  0
LINE
  8
ENTITYA19764
  6
CONTINUOUS
 62
1
 10
27.002201
 20
171.989972
 11
22.490133
 21
171.989972
  0
LINE
  8
ENTITYA19764
  6
CONTINUOUS
 62
1
 10
16.036826
 20
183.195815
 11
16.036826
 21
177.905503
  0
LINE
  8
ENTITYA19764
  6
CONTINUOUS
 62
1
 10
17.191076
 20
176.847440
 11
17.191076
 21
179.973534
  0
LINE
  8
ENTITYA19764
  6
CONTINUOUS
 62
1
 10
17.191076
 20
181.127784
 11
17.191076
 21
184.253878
  0
LINE
  8
ENTITYA19764
  6
CONTINUOUS
 62
1
 10
16.036826
 20
177.905503
 11
13.151201
 21
180.550659
  0
LINE
  8
ENTITYA19764
  6
CONTINUOUS
 62
1
 10
27.002201
 20
167.853909
 11
22.490133
 21
171.989972
  0
LINE
  8
ENTITYA19764
  6
CONTINUOUS
 62
1
 10
20.076701
 20
174.202284
 11
17.191076
 21
176.847440
  0
LINE
  8
ENTITYA19764
  6
CONTINUOUS
 62
1
 10
22.490133
 20
189.111347
 11
27.002201
 21
193.247409
  0
LINE
  8
ENTITYA19764
  6
CONTINUOUS
 62
1
 10
13.151201
 20
180.550659
 11
16.036826
 21
183.195815
  0
LINE
  8
ENTITYA19764
  6
CONTINUOUS
 62
1
 10
17.191076
 20
184.253878
 11
20.076701
 21
186.899034
  0
LINE
  8
ENTITYA19764
  6
CONTINUOUS
 62
1
 10
27.002201
 20
171.989972
 11
27.002201
 21
167.853909
  0
LINE
  8
ENTITYA19764
  6
CONTINUOUS
 62
1
 10
27.002201
 20
179.973534
 11
27.002201
 21
173.144222
  0
LINE
  8
ENTITYA19764
  6
CONTINUOUS
 62
1
 10
27.002201
 20
193.247409
 11
27.002201
 21
189.111347
  0
LINE
  8
ENTITYA19764
  6
CONTINUOUS
 62
1
 10
27.002201
 20
187.957097
 11
27.002201
 21
181.127784
  0
LINE
  8
ENTITYA19764
  6
CONTINUOUS
 62
1
 10
27.002201
 20
179.973534
 11
21.230951
 21
179.973534
  0
LINE
  8
ENTITYA19764
  6
CONTINUOUS
 62
1
 10
20.076701
 20
179.973534
 11
17.191076
 21
179.973534
  0
LINE
  8
ENTITYA19764
  6
CONTINUOUS
 62
1
 10
27.002201
 20
181.127784
 11
21.230951
 21
181.127784
  0
LINE
  8
ENTITYA19764
  6
CONTINUOUS
 62
1
 10
20.076701
 20
181.127784
 11
17.191076
 21
181.127784
  0
LINE
  8
ENTITYA19764
  6
CONTINUOUS
 62
1
 10
20.076701
 20
186.899034
 11
20.076701
 21
181.127784
  0
LINE
  8
ENTITYA19764
  6
CONTINUOUS
 62
1
 10
20.076701
 20
179.973534
 11
20.076701
 21
174.202284
  0
LINE
  8
ENTITYA19764
  6
CONTINUOUS
 62
1
 10
21.230951
 20
173.144222
 11
21.230951
 21
179.973534
  0
LINE
  8
ENTITYA19764
  6
CONTINUOUS
 62
1
 10
21.230951
 20
181.127784
 11
21.230951
 21
187.957097
  0
LINE
  8
ENTITYA19764
  6
CONTINUOUS
 62
1
 10
15.805976
 20
178.117115
 11
15.805976
 21
182.984203
  0
LINE
  8
ENTITYA19764
  6
CONTINUOUS
 62
1
 10
15.575126
 20
182.772590
 11
15.575126
 21
178.328728
  0
LINE
  8
ENTITYA19764
  6
CONTINUOUS
 62
1
 10
15.344276
 20
178.540340
 11
15.344276
 21
182.560978
  0
LINE
  8
ENTITYA19764
  6
CONTINUOUS
 62
1
 10
15.113426
 20
182.349365
 11
15.113426
 21
178.751953
  0
LINE
  8
ENTITYA19764
  6
CONTINUOUS
 62
1
 10
14.882576
 20
178.963565
 11
14.882576
 21
182.137753
  0
LINE
  8
ENTITYA19764
  6
CONTINUOUS
 62
1
 10
14.651726
 20
181.926140
 11
14.651726
 21
179.175178
  0
LINE
  8
ENTITYA19764
  6
CONTINUOUS
 62
1
 10
14.420876
 20
179.386790
 11
14.420876
 21
181.714528
  0
LINE
  8
ENTITYA19764
  6
CONTINUOUS
 62
1
 10
14.190026
 20
181.502915
 11
14.190026
 21
179.598403
  0
LINE
  8
ENTITYA19764
  6
CONTINUOUS
 62
1
 10
13.959176
 20
179.810015
 11
13.959176
 21
181.291303
  0
LINE
  8
ENTITYA19764
  6
CONTINUOUS
 62
1
 10
13.728326
 20
181.079690
 11
13.728326
 21
180.021628
  0
LINE
  8
ENTITYA19764
  6
CONTINUOUS
 62
1
 10
13.497476
 20
180.233240
 11
13.497476
 21
180.868078
  0
LINE
  8
ENTITYA19764
  6
CONTINUOUS
 62
1
 10
13.266626
 20
180.656465
 11
13.266626
 21
180.444853
  0
LINE
  8
ENTITYA19764
  6
CONTINUOUS
 62
1
 10
26.540501
 20
173.144222
 11
26.540501
 21
179.973534
  0
LINE
  8
ENTITYA19764
  6
CONTINUOUS
 62
1
 10
26.078801
 20
179.973534
 11
26.078801
 21
173.144222
  0
LINE
  8
ENTITYA19764
  6
CONTINUOUS
 62
1
 10
25.617101
 20
173.144222
 11
25.617101
 21
179.973534
  0
LINE
  8
ENTITYA19764
  6
CONTINUOUS
 62
1
 10
25.155401
 20
179.973534
 11
25.155401
 21
173.144222
  0
LINE
  8
ENTITYA19764
  6
CONTINUOUS
 62
1
 10
24.693701
 20
173.144222
 11
24.693701
 21
179.973534
  0
LINE
  8
ENTITYA19764
  6
CONTINUOUS
 62
1
 10
24.232001
 20
179.973534
 11
24.232001
 21
173.144222
  0
LINE
  8
ENTITYA19764
  6
CONTINUOUS
 62
1
 10
23.770301
 20
173.144222
 11
23.770301
 21
179.973534
  0
LINE
  8
ENTITYA19764
  6
CONTINUOUS
 62
1
 10
23.308601
 20
179.973534
 11
23.308601
 21
173.144222
  0
LINE
  8
ENTITYA19764
  6
CONTINUOUS
 62
1
 10
22.846901
 20
173.144222
 11
22.846901
 21
179.973534
  0
LINE
  8
ENTITYA19764
  6
CONTINUOUS
 62
1
 10
22.385201
 20
179.973534
 11
22.385201
 21
173.144222
  0
LINE
  8
ENTITYA19764
  6
CONTINUOUS
 62
1
 10
21.923501
 20
173.144222
 11
21.923501
 21
179.973534
  0
LINE
  8
ENTITYA19764
  6
CONTINUOUS
 62
1
 10
21.461801
 20
179.973534
 11
21.461801
 21
173.144222
  0
LINE
  8
ENTITYA19764
  6
CONTINUOUS
 62
1
 10
26.540501
 20
181.127784
 11
26.540501
 21
187.957097
  0
LINE
  8
ENTITYA19764
  6
CONTINUOUS
 62
1
 10
26.078801
 20
187.957097
 11
26.078801
 21
181.127784
  0
LINE
  8
ENTITYA19764
  6
CONTINUOUS
 62
1
 10
25.617101
 20
181.127784
 11
25.617101
 21
187.957097
  0
LINE
  8
ENTITYA19764
  6
CONTINUOUS
 62
1
 10
25.155401
 20
187.957097
 11
25.155401
 21
181.127784
  0
LINE
  8
ENTITYA19764
  6
CONTINUOUS
 62
1
 10
25.155401
 20
187.957097
 11
25.155401
 21
181.127784
  0
LINE
  8
ENTITYA19764
  6
CONTINUOUS
 62
1
 10
24.693701
 20
181.127784
 11
24.693701
 21
187.957097
  0
LINE
  8
ENTITYA19764
  6
CONTINUOUS
 62
1
 10
24.232001
 20
187.957097
 11
24.232001
 21
181.127784
  0
LINE
  8
ENTITYA19764
  6
CONTINUOUS
 62
1
 10
23.770301
 20
181.127784
 11
23.770301
 21
187.957097
  0
LINE
  8
ENTITYA19764
  6
CONTINUOUS
 62
1
 10
23.308601
 20
187.957097
 11
23.308601
 21
181.127784
  0
LINE
  8
ENTITYA19764
  6
CONTINUOUS
 62
1
 10
22.846901
 20
181.127784
 11
22.846901
 21
187.957097
  0
LINE
  8
ENTITYA19764
  6
CONTINUOUS
 62
1
 10
22.385201
 20
187.957097
 11
22.385201
 21
181.127784
  0
LINE
  8
ENTITYA19764
  6
CONTINUOUS
 62
1
 10
21.923501
 20
181.127784
 11
21.923501
 21
187.957097
  0
LINE
  8
ENTITYA19764
  6
CONTINUOUS
 62
1
 10
21.461801
 20
187.957097
 11
21.461801
 21
181.127784
  0
LINE
  8
ENTITYA19764
  6
CONTINUOUS
 62
1
 10
19.615001
 20
181.127784
 11
19.615001
 21
186.475809
  0
LINE
  8
ENTITYA19764
  6
CONTINUOUS
 62
1
 10
19.153301
 20
186.052584
 11
19.153301
 21
181.127784
  0
LINE
  8
ENTITYA19764
  6
CONTINUOUS
 62
1
 10
18.691601
 20
181.127784
 11
18.691601
 21
185.629359
  0
LINE
  8
ENTITYA19764
  6
CONTINUOUS
 62
1
 10
18.229901
 20
185.206134
 11
18.229901
 21
181.127784
  0
LINE
  8
ENTITYA19764
  6
CONTINUOUS
 62
1
 10
17.768201
 20
181.127784
 11
17.768201
 21
184.782909
  0
LINE
  8
ENTITYA19764
  6
CONTINUOUS
 62
1
 10
17.306501
 20
184.359684
 11
17.306501
 21
181.127784
  0
LINE
  8
ENTITYA19764
  6
CONTINUOUS
 62
1
 10
19.615001
 20
174.625509
 11
19.615001
 21
179.973534
  0
LINE
  8
ENTITYA19764
  6
CONTINUOUS
 62
1
 10
19.153301
 20
179.973534
 11
19.153301
 21
175.048734
  0
LINE
  8
ENTITYA19764
  6
CONTINUOUS
 62
1
 10
18.691601
 20
175.471959
 11
18.691601
 21
179.973534
  0
LINE
  8
ENTITYA19764
  6
CONTINUOUS
 62
1
 10
18.229901
 20
179.973534
 11
18.229901
 21
175.895184
  0
LINE
  8
ENTITYA19764
  6
CONTINUOUS
 62
1
 10
17.768201
 20
176.318409
 11
17.768201
 21
179.973534
  0
LINE
  8
ENTITYA19764
  6
CONTINUOUS
 62
1
 10
17.306501
 20
179.973534
 11
17.306501
 21
176.741634
  0
LINE
  8
ENTITYA19764
  6
CONTINUOUS
 62
1
 10
26.540501
 20
168.277134
 11
26.540501
 21
171.989972
  0
LINE
  8
ENTITYA19764
  6
CONTINUOUS
 62
1
 10
26.078801
 20
171.989972
 11
26.078801
 21
168.700359
  0
LINE
  8
ENTITYA19764
  6
CONTINUOUS
 62
1
 10
25.617101
 20
169.123584
 11
25.617101
 21
171.989972
  0
LINE
  8
ENTITYA19764
  6
CONTINUOUS
 62
1
 10
25.155401
 20
171.989972
 11
25.155401
 21
169.546809
  0
LINE
  8
ENTITYA19764
  6
CONTINUOUS
 62
1
 10
24.693701
 20
169.970034
 11
24.693701
 21
171.989972
  0
LINE
  8
ENTITYA19764
  6
CONTINUOUS
 62
1
 10
24.232001
 20
171.989972
 11
24.232001
 21
170.393259
  0
LINE
  8
ENTITYA19764
  6
CONTINUOUS
 62
1
 10
23.770301
 20
170.816484
 11
23.770301
 21
171.989972
  0
LINE
  8
ENTITYA19764
  6
CONTINUOUS
 62
1
 10
23.308601
 20
171.989972
 11
23.308601
 21
171.239709
  0
LINE
  8
ENTITYA19764
  6
CONTINUOUS
 62
1
 10
22.846901
 20
171.662934
 11
22.846901
 21
171.989972
  0
LINE
  8
ENTITYA19764
  6
CONTINUOUS
 62
1
 10
26.540501
 20
189.111347
 11
26.540501
 21
192.824184
  0
LINE
  8
ENTITYA19764
  6
CONTINUOUS
 62
1
 10
26.078801
 20
192.400959
 11
26.078801
 21
189.111347
  0
LINE
  8
ENTITYA19764
  6
CONTINUOUS
 62
1
 10
25.617101
 20
189.111347
 11
25.617101
 21
191.977734
  0
LINE
  8
ENTITYA19764
  6
CONTINUOUS
 62
1
 10
25.155401
 20
191.554509
 11
25.155401
 21
189.111347
  0
LINE
  8
ENTITYA19764
  6
CONTINUOUS
 62
1
 10
24.693701
 20
189.111347
 11
24.693701
 21
191.131284
  0
LINE
  8
ENTITYA19764
  6
CONTINUOUS
 62
1
 10
24.232001
 20
190.708059
 11
24.232001
 21
189.111347
  0
LINE
  8
ENTITYA19764
  6
CONTINUOUS
 62
1
 10
23.770301
 20
189.111347
 11
23.770301
 21
190.284834
  0
LINE
  8
ENTITYA19764
  6
CONTINUOUS
 62
1
 10
23.308601
 20
189.861609
 11
23.308601
 21
189.111347
  0
LINE
  8
ENTITYA19764
  6
CONTINUOUS
 62
1
 10
22.846901
 20
189.111347
 11
22.846901
 21
189.438384
  0
LINE
  8
ENTITYA19764
  6
CONTINUOUS
 62
1
 10
26.771351
 20
173.144222
 11
26.771351
 21
179.973534
  0
LINE
  8
ENTITYA19764
  6
CONTINUOUS
 62
1
 10
26.309651
 20
179.973534
 11
26.309651
 21
173.144222
  0
LINE
  8
ENTITYA19764
  6
CONTINUOUS
 62
1
 10
25.847951
 20
179.973534
 11
25.847951
 21
173.144222
  0
LINE
  8
ENTITYA19764
  6
CONTINUOUS
 62
1
 10
25.386251
 20
173.144222
 11
25.386251
 21
179.973534
  0
LINE
  8
ENTITYA19764
  6
CONTINUOUS
 62
1
 10
23.077751
 20
173.144222
 11
23.077751
 21
179.973534
  0
LINE
  8
ENTITYA19764
  6
CONTINUOUS
 62
1
 10
22.616051
 20
179.973534
 11
22.616051
 21
173.144222
  0
LINE
  8
ENTITYA19764
  6
CONTINUOUS
 62
1
 10
22.154351
 20
173.144222
 11
22.154351
 21
179.973534
  0
LINE
  8
ENTITYA19764
  6
CONTINUOUS
 62
1
 10
21.692651
 20
179.973534
 11
21.692651
 21
173.144222
  0
LINE
  8
ENTITYA19764
  6
CONTINUOUS
 62
1
 10
23.539451
 20
179.973534
 11
23.539451
 21
173.144222
  0
LINE
  8
ENTITYA19764
  6
CONTINUOUS
 62
1
 10
24.001151
 20
173.144222
 11
24.001151
 21
179.973534
  0
LINE
  8
ENTITYA19764
  6
CONTINUOUS
 62
1
 10
24.462851
 20
179.973534
 11
24.462851
 21
173.144222
  0
LINE
  8
ENTITYA19764
  6
CONTINUOUS
 62
1
 10
24.924551
 20
173.144222
 11
24.924551
 21
179.973534
  0
LINE
  8
ENTITYA19764
  6
CONTINUOUS
 62
1
 10
26.771351
 20
181.127784
 11
26.771351
 21
187.957097
  0
LINE
  8
ENTITYA19764
  6
CONTINUOUS
 62
1
 10
26.309651
 20
187.957097
 11
26.309651
 21
181.127784
  0
LINE
  8
ENTITYA19764
  6
CONTINUOUS
 62
1
 10
21.692651
 20
181.127784
 11
21.692651
 21
187.957097
  0
LINE
  8
ENTITYA19764
  6
CONTINUOUS
 62
1
 10
22.154351
 20
187.957097
 11
22.154351
 21
181.127784
  0
LINE
  8
ENTITYA19764
  6
CONTINUOUS
 62
1
 10
22.616051
 20
187.957097
 11
22.616051
 21
181.127784
  0
LINE
  8
ENTITYA19764
  6
CONTINUOUS
 62
1
 10
23.077751
 20
181.127784
 11
23.077751
 21
187.957097
  0
LINE
  8
ENTITYA19764
  6
CONTINUOUS
 62
1
 10
23.539451
 20
181.127784
 11
23.539451
 21
187.957097
  0
LINE
  8
ENTITYA19764
  6
CONTINUOUS
 62
1
 10
24.001151
 20
181.127784
 11
24.001151
 21
187.957097
  0
LINE
  8
ENTITYA19764
  6
CONTINUOUS
 62
1
 10
24.462851
 20
181.127784
 11
24.462851
 21
187.957097
  0
LINE
  8
ENTITYA19764
  6
CONTINUOUS
 62
1
 10
24.924551
 20
187.957097
 11
24.924551
 21
181.127784
  0
LINE
  8
ENTITYA19764
  6
CONTINUOUS
 62
1
 10
25.386251
 20
187.957097
 11
25.386251
 21
181.127784
  0
LINE
  8
ENTITYA19764
  6
CONTINUOUS
 62
1
 10
25.847951
 20
181.127784
 11
25.847951
 21
187.957097
  0
LINE
  8
ENTITYA19764
  6
CONTINUOUS
 62
1
 10
26.771351
 20
189.111347
 11
26.771351
 21
193.035797
  0
LINE
  8
ENTITYA19764
  6
CONTINUOUS
 62
1
 10
26.309651
 20
192.612572
 11
26.309651
 21
189.111347
  0
LINE
  8
ENTITYA19764
  6
CONTINUOUS
 62
1
 10
25.847951
 20
189.111347
 11
25.847951
 21
192.189347
  0
LINE
  8
ENTITYA19764
  6
CONTINUOUS
 62
1
 10
25.386251
 20
191.766122
 11
25.386251
 21
189.111347
  0
LINE
  8
ENTITYA19764
  6
CONTINUOUS
 62
1
 10
24.924551
 20
189.111347
 11
24.924551
 21
191.342897
  0
LINE
  8
ENTITYA19764
  6
CONTINUOUS
 62
1
 10
24.462851
 20
190.919672
 11
24.462851
 21
189.111347
  0
LINE
  8
ENTITYA19764
  6
CONTINUOUS
 62
1
 10
24.001151
 20
190.496447
 11
24.001151
 21
189.111347
  0
LINE
  8
ENTITYA19764
  6
CONTINUOUS
 62
1
 10
23.539451
 20
190.073222
 11
23.539451
 21
189.111347
  0
LINE
  8
ENTITYA19764
  6
CONTINUOUS
 62
1
 10
23.077751
 20
189.111347
 11
23.077751
 21
189.649997
  0
LINE
  8
ENTITYA19764
  6
CONTINUOUS
 62
1
 10
22.616051
 20
189.226772
 11
22.616051
 21
189.111347
  0
LINE
  8
ENTITYA19764
  6
CONTINUOUS
 62
1
 10
26.771351
 20
168.065522
 11
26.771351
 21
171.989972
  0
LINE
  8
ENTITYA19764
  6
CONTINUOUS
 62
1
 10
26.309651
 20
171.989972
 11
26.309651
 21
168.488747
  0
LINE
  8
ENTITYA19764
  6
CONTINUOUS
 62
1
 10
25.847951
 20
168.911972
 11
25.847951
 21
171.989972
  0
LINE
  8
ENTITYA19764
  6
CONTINUOUS
 62
1
 10
25.386251
 20
171.989972
 11
25.386251
 21
169.335197
  0
LINE
  8
ENTITYA19764
  6
CONTINUOUS
 62
1
 10
24.924551
 20
169.758422
 11
24.924551
 21
171.989972
  0
LINE
  8
ENTITYA19764
  6
CONTINUOUS
 62
1
 10
24.462851
 20
171.989972
 11
24.462851
 21
170.181647
  0
LINE
  8
ENTITYA19764
  6
CONTINUOUS
 62
1
 10
24.001151
 20
170.604872
 11
24.001151
 21
171.989972
  0
LINE
  8
ENTITYA19764
  6
CONTINUOUS
 62
1
 10
23.539451
 20
171.989972
 11
23.539451
 21
171.028097
  0
LINE
  8
ENTITYA19764
  6
CONTINUOUS
 62
1
 10
23.077751
 20
171.451322
 11
23.077751
 21
171.989972
  0
LINE
  8
ENTITYA19764
  6
CONTINUOUS
 62
1
 10
22.616051
 20
171.989972
 11
22.616051
 21
171.874547
  0
LINE
  8
ENTITYA19764
  6
CONTINUOUS
 62
1
 10
19.845851
 20
181.127784
 11
19.845851
 21
186.687422
  0
LINE
  8
ENTITYA19764
  6
CONTINUOUS
 62
1
 10
19.384151
 20
186.264197
 11
19.384151
 21
181.127784
  0
LINE
  8
ENTITYA19764
  6
CONTINUOUS
 62
1
 10
18.922451
 20
181.127784
 11
18.922451
 21
185.840972
  0
LINE
  8
ENTITYA19764
  6
CONTINUOUS
 62
1
 10
18.460751
 20
185.417747
 11
18.460751
 21
181.127784
  0
LINE
  8
ENTITYA19764
  6
CONTINUOUS
 62
1
 10
17.999051
 20
181.127784
 11
17.999051
 21
184.994522
  0
LINE
  8
ENTITYA19764
  6
CONTINUOUS
 62
1
 10
17.537351
 20
184.571297
 11
17.537351
 21
181.127784
  0
LINE
  8
ENTITYA19764
  6
CONTINUOUS
 62
1
 10
17.537351
 20
179.973534
 11
17.537351
 21
176.530022
  0
LINE
  8
ENTITYA19764
  6
CONTINUOUS
 62
1
 10
17.999051
 20
176.106797
 11
17.999051
 21
179.973534
  0
LINE
  8
ENTITYA19764
  6
CONTINUOUS
 62
1
 10
18.460751
 20
179.973534
 11
18.460751
 21
175.683572
  0
LINE
  8
ENTITYA19764
  6
CONTINUOUS
 62
1
 10
18.922451
 20
175.260347
 11
18.922451
 21
179.973534
  0
LINE
  8
ENTITYA19764
  6
CONTINUOUS
 62
1
 10
19.384151
 20
179.973534
 11
19.384151
 21
174.837122
  0
LINE
  8
ENTITYA19764
  6
CONTINUOUS
 62
1
 10
19.845851
 20
174.413897
 11
19.845851
 21
179.973534
  0
LINE
  8
ENTITYA19764
  6
CONTINUOUS
 62
1
 10
39.314201
 20
199.457590
 11
39.314201
 21
161.643698
  0
LINE
  8
ENTITYA19764
  6
CONTINUOUS
 62
1
 10
29.310701
 20
161.643698
 11
29.310701
 21
199.457590
  0
LINE
  8
ENTITYA19764
  6
CONTINUOUS
 62
1
 10
29.400701
 20
199.457590
 11
29.400701
 21
161.643698
  0
LINE
  8
ENTITYA19764
  6
CONTINUOUS
 62
1
 10
39.404201
 20
161.643698
 11
39.404201
 21
199.457590
  0
ARC
  8
ENTITYA19764
  6
CONTINUOUS
 62
1
 10
32.349256
 20
164.250945
 40
1.226409
 50
101.065051
 51
132.065051
  0
ARC
  8
ENTITYA19764
  6
CONTINUOUS
 62
1
 10
32.475046
 20
164.321257
 40
1.266304
 50
138.434949
 51
168.434949
  0
ARC
  8
ENTITYA19764
  6
CONTINUOUS
 62
1
 10
33.862080
 20
164.135412
 40
2.664166
 50
170.500000
 51
189.499999
  0
ARC
  8
ENTITYA19764
  6
CONTINUOUS
 62
1
 10
33.200607
 20
163.609854
 40
1.968029
 50
177.500000
 51
272.499999
  0
LINE
  8
ENTITYA19764
  6
CONTINUOUS
 62
1
 10
33.286451
 20
161.643698
 11
35.045308
 21
161.643698
  0
ARC
  8
ENTITYA19764
  6
CONTINUOUS
 62
1
 10
34.902426
 20
165.003773
 40
3.363111
 50
272.434949
 51
304.434949
  0
ARC
  8
ENTITYA19764
  6
CONTINUOUS
 62
1
 10
35.946657
 20
163.391595
 40
1.443835
 50
306.434949
 51
0.434948
  0
LINE
  8
ENTITYA19764
  6
CONTINUOUS
 62
1
 10
37.390451
 20
163.402555
 11
37.390451
 21
163.988841
  0
ARC
  8
ENTITYA19764
  6
CONTINUOUS
 62
1
 10
35.975821
 20
164.059022
 40
1.416370
 50
357.159808
 51
80.159810
  0
LINE
  8
ENTITYA19764
  6
CONTINUOUS
 62
1
 10
37.390451
 20
166.920269
 11
31.234451
 21
166.920269
  0
LINE
  8
ENTITYA19764
  6
CONTINUOUS
 62
1
 10
31.234451
 20
166.920269
 11
31.234451
 21
169.558555
  0
ARC
  8
ENTITYA19764
  6
CONTINUOUS
 62
1
 10
32.407022
 20
169.558555
 40
1.172571
 50
90.000000
 51
180.000000
  0
ARC
  8
ENTITYA19764
  6
CONTINUOUS
 62
1
 10
32.407022
 20
169.265412
 40
1.465714
 50
0.000001
 51
90.000000
  0
LINE
  8
ENTITYA19764
  6
CONTINUOUS
 62
1
 10
33.872736
 20
169.265412
 11
33.872736
 21
166.920269
  0
LINE
  8
ENTITYA19764
  6
CONTINUOUS
 62
1
 10
33.872736
 20
168.679126
 11
37.390451
 21
170.731126
  0
LINE
  8
ENTITYA19764
  6
CONTINUOUS
 62
1
 10
37.390451
 20
172.196841
 11
31.234451
 21
172.196841
  0
LINE
  8
ENTITYA19764
  6
CONTINUOUS
 62
1
 10
31.234451
 20
175.714555
 11
37.390451
 21
175.714555
  0
LINE
  8
ENTITYA19764
  6
CONTINUOUS
 62
1
 10
31.234451
 20
173.662555
 11
31.234451
 21
183.336269
  0
LINE
  8
ENTITYA19764
  6
CONTINUOUS
 62
1
 10
31.234451
 20
181.284269
 11
37.390451
 21
181.284269
  0
LINE
  8
ENTITYA19764
  6
CONTINUOUS
 62
1
 10
37.390451
 20
184.801984
 11
31.234451
 21
187.147126
  0
LINE
  8
ENTITYA19764
  6
CONTINUOUS
 62
1
 10
31.234451
 20
187.147126
 11
37.390451
 21
189.492269
  0
LINE
  8
ENTITYA19764
  6
CONTINUOUS
 62
1
 10
35.338451
 20
185.583698
 11
35.338451
 21
188.710555
  0
LINE
  8
ENTITYA19764
  6
CONTINUOUS
 62
1
 10
37.390451
 20
190.957984
 11
31.234451
 21
190.957984
  0
LINE
  8
ENTITYA19764
  6
CONTINUOUS
 62
1
 10
37.390451
 20
190.957984
 11
37.390451
 21
194.475698
  0
LINE
  8
ENTITYA19764
  6
CONTINUOUS
 62
1
 10
37.390451
 20
195.941412
 11
31.234451
 21
195.941412
  0
LINE
  8
ENTITYA19764
  6
CONTINUOUS
 62
1
 10
37.390451
 20
195.941412
 11
37.390451
 21
199.459126
  0
LINE
  8
ENTITYA19764
  6
CONTINUOUS
 62
1
 10
198.988228
 20
160.676655
 11
177.188228
 21
160.676655
  0
LINE
  8
ENTITYA19764
  6
CONTINUOUS
 62
1
 10
199.388228
 20
160.276655
 11
199.388228
 21
157.476655
  0
LINE
  8
ENTITYA19764
  6
CONTINUOUS
 62
1
 10
180.388228
 20
134.286329
 11
180.388228
 21
155.142606
  0
LINE
  8
ENTITYA19764
  6
CONTINUOUS
 62
1
 10
181.920920
 20
156.741190
 11
199.388228
 21
157.476655
  0
ARC
  8
ENTITYA19764
  6
CONTINUOUS
 62
1
 10
181.988228
 20
134.286329
 40
1.600000
 50
180.000000
 51
262.763078
  0
ARC
  8
ENTITYA19764
  6
CONTINUOUS
 62
1
 10
181.988228
 20
155.142606
 40
1.600000
 50
92.411030
 51
180.000000
  0
ARC
  8
ENTITYA19764
  6
CONTINUOUS
 62
1
 10
198.988228
 20
160.276655
 40
0.400000
 50
0.000000
 51
90.000000
  0
LINE
  8
ENTITYA19764
  6
CONTINUOUS
 62
1
 10
177.188228
 20
160.676655
 11
177.188228
 21
134.732601
  0
LINE
  8
ENTITYA19764
  6
CONTINUOUS
 62
1
 10
196.388228
 20
160.676655
 11
196.388228
 21
160.676655
  0
LINE
  8
ENTITYA19764
  6
CONTINUOUS
 62
1
 10
197.388228
 20
160.676655
 11
197.388228
 21
160.676655
  0
LINE
  8
ENTITYA19764
  6
CONTINUOUS
 62
1
 10
198.388228
 20
160.676655
 11
198.388228
 21
160.676655
  0
LINE
  8
ENTITYA19764
  6
CONTINUOUS
 62
1
 10
164.488228
 20
128.876655
 11
164.488228
 21
132.076655
  0
LINE
  8
ENTITYA19764
  6
CONTINUOUS
 62
1
 10
175.738739
 20
133.139696
 11
164.488228
 21
132.076655
  0
ARC
  8
ENTITYA19764
  6
CONTINUOUS
 62
1
 10
175.588228
 20
134.732601
 40
1.600000
 50
275.397749
 51
0.000000
  0
LINE
  8
ENTITYA19764
  6
CONTINUOUS
 62
1
 10
164.488228
 20
128.876655
 11
199.388228
 21
128.876655
  0
LINE
  8
ENTITYA19764
  6
CONTINUOUS
 62
1
 10
199.002364
 20
132.090300
 11
181.786672
 21
132.699075
  0
LINE
  8
ENTITYA19764
  6
CONTINUOUS
 62
1
 10
199.388228
 20
131.690550
 11
199.388228
 21
128.876655
  0
ARC
  8
ENTITYA19764
  6
CONTINUOUS
 62
1
 10
198.988228
 20
131.690550
 40
0.400000
 50
0.000000
 51
87.974771
  0
LINE
  8
ENTITYA19764
  6
CONTINUOUS
 62
1
 10
175.738739
 20
35.401448
 11
164.488228
 21
34.338408
  0
LINE
  8
ENTITYA19764
  6
CONTINUOUS
 62
1
 10
177.988228
 20
62.938408
 11
186.688228
 21
62.938408
  0
LINE
  8
ENTITYA19764
  6
CONTINUOUS
 62
1
 10
186.688228
 20
62.938408
 11
186.688228
 21
59.738408
  0
LINE
  8
ENTITYA19764
  6
CONTINUOUS
 62
1
 10
181.786672
 20
59.115988
 11
186.688228
 21
59.738408
  0
LINE
  8
ENTITYA19764
  6
CONTINUOUS
 62
1
 10
180.388228
 20
57.528734
 11
180.388228
 21
36.672457
  0
ARC
  8
ENTITYA19764
  6
CONTINUOUS
 62
1
 10
177.988228
 20
62.138408
 40
0.800000
 50
90.000000
 51
180.000000
  0
ARC
  8
ENTITYA19764
  6
CONTINUOUS
 62
1
 10
181.988228
 20
57.528734
 40
1.600000
 50
97.236922
 51
180.000000
  0
ARC
  8
ENTITYA19764
  6
CONTINUOUS
 62
1
 10
175.588228
 20
36.994353
 40
1.600000
 50
275.397749
 51
0.000000
  0
ARC
  8
ENTITYA19764
  6
CONTINUOUS
 62
1
 10
181.988228
 20
36.672457
 40
1.600000
 50
180.000000
 51
267.588970
  0
LINE
  8
ENTITYA19764
  6
CONTINUOUS
 62
1
 10
177.188228
 20
36.994353
 11
177.188228
 21
62.138408
  0
LINE
  8
ENTITYA19764
  6
CONTINUOUS
 62
1
 10
186.688228
 20
34.338408
 11
181.920920
 21
35.073873
  0
LINE
  8
ENTITYA19764
  6
CONTINUOUS
 62
1
 10
186.688228
 20
34.338408
 11
186.688228
 21
31.138408
  0
LINE
  8
ENTITYA19764
  6
CONTINUOUS
 62
1
 10
186.688228
 20
31.138408
 11
164.488228
 21
31.138408
  0
LINE
  8
ENTITYA19764
  6
CONTINUOUS
 62
1
 10
164.488228
 20
31.138408
 11
164.488228
 21
34.338408
  0
LINE
  8
ENTITYA19764
  6
CONTINUOUS
 62
1
 10
73.146186
 20
34.338408
 11
73.146186
 21
31.138408
  0
LINE
  8
ENTITYA19764
  6
CONTINUOUS
 62
1
 10
73.146186
 20
31.138408
 11
73.146186
 21
34.338408
  0
LINE
  8
ENTITYA19764
  6
CONTINUOUS
 62
1
 10
84.396696
 20
35.401448
 11
73.146186
 21
34.338408
  0
LINE
  8
ENTITYA19764
  6
CONTINUOUS
 62
1
 10
85.846186
 20
62.938408
 11
95.346186
 21
62.938408
  0
LINE
  8
ENTITYA19764
  6
CONTINUOUS
 62
1
 10
95.346186
 20
62.938408
 11
95.346186
 21
59.738408
  0
LINE
  8
ENTITYA19764
  6
CONTINUOUS
 62
1
 10
90.444630
 20
59.115988
 11
95.346186
 21
59.738408
  0
LINE
  8
ENTITYA19764
  6
CONTINUOUS
 62
1
 10
108.046186
 20
31.538408
 11
108.046186
 21
34.338408
  0
LINE
  8
ENTITYA19764
  6
CONTINUOUS
 62
1
 10
89.046186
 20
57.528734
 11
89.046186
 21
36.672457
  0
LINE
  8
ENTITYA19764
  6
CONTINUOUS
 62
1
 10
90.578877
 20
35.073873
 11
108.046186
 21
34.338408
  0
ARC
  8
ENTITYA19764
  6
CONTINUOUS
 62
1
 10
90.646186
 20
57.528734
 40
1.600000
 50
97.236922
 51
180.000000
  0
ARC
  8
ENTITYA19764
  6
CONTINUOUS
 62
1
 10
84.246186
 20
36.994353
 40
1.600000
 50
275.397749
 51
0.000000
  0
ARC
  8
ENTITYA19764
  6
CONTINUOUS
 62
1
 10
90.646186
 20
36.672457
 40
1.600000
 50
180.000000
 51
267.588970
  0
LINE
  8
ENTITYA19764
  6
CONTINUOUS
 62
1
 10
85.846186
 20
36.994353
 11
85.846186
 21
62.938408
  0
LINE
  8
ENTITYA19764
  6
CONTINUOUS
 62
1
 10
107.646186
 20
31.138408
 11
73.146186
 21
31.138408
  0
LINE
  8
ENTITYA19764
  6
CONTINUOUS
 62
1
 10
95.346186
 20
160.676655
 11
95.346186
 21
157.476655
  0
LINE
  8
ENTITYA19764
  6
CONTINUOUS
 62
1
 10
90.444630
 20
156.854236
 11
95.346186
 21
157.476655
  0
LINE
  8
ENTITYA19764
  6
CONTINUOUS
 62
1
 10
108.046186
 20
129.276655
 11
108.046186
 21
132.076655
  0
LINE
  8
ENTITYA19764
  6
CONTINUOUS
 62
1
 10
89.046186
 20
155.266982
 11
89.046186
 21
134.410705
  0
LINE
  8
ENTITYA19764
  6
CONTINUOUS
 62
1
 10
90.578877
 20
132.812121
 11
108.046186
 21
132.076655
  0
ARC
  8
ENTITYA19764
  6
CONTINUOUS
 62
1
 10
90.646186
 20
155.266982
 40
1.600000
 50
97.236922
 51
180.000000
  0
ARC
  8
ENTITYA19764
  6
CONTINUOUS
 62
1
 10
90.646186
 20
134.410705
 40
1.600000
 50
180.000000
 51
267.588970
  0
ARC
  8
ENTITYA19764
  6
CONTINUOUS
 62
1
 10
107.646186
 20
129.276655
 40
0.400000
 50
270.000000
 51
0.000000
  0
LINE
  8
ENTITYA19764
  6
CONTINUOUS
 62
1
 10
85.846186
 20
128.876655
 11
85.846186
 21
154.820710
  0
LINE
  8
ENTITYA19764
  6
CONTINUOUS
 62
1
 10
95.346186
 20
160.676655
 11
73.146186
 21
160.676655
  0
LINE
  8
ENTITYA19764
  6
CONTINUOUS
 62
1
 10
73.146186
 20
160.676655
 11
73.146186
 21
157.476655
  0
LINE
  8
ENTITYA19764
  6
CONTINUOUS
 62
1
 10
84.396696
 20
156.413615
 11
73.146186
 21
157.476655
  0
ARC
  8
ENTITYA19764
  6
CONTINUOUS
 62
1
 10
84.246186
 20
154.820710
 40
1.600000
 50
0.000000
 51
84.602251
  0
LINE
  8
ENTITYA19764
  6
CONTINUOUS
 62
1
 10
107.646186
 20
128.876655
 11
85.846186
 21
128.876655
  0
LINE
  8
ENTITYA19764
  6
CONTINUOUS
 62
1
 10
82.846186
 20
62.888408
 11
52.146186
 21
62.888408
  0
LINE
  8
ENTITYA19764
  6
CONTINUOUS
 62
1
 10
70.146186
 20
31.138408
 11
52.146186
 21
31.138408
  0
LINE
  8
ENTITYA19764
  6
CONTINUOUS
 62
1
 10
55.146186
 20
62.888408
 11
55.146186
 21
31.138408
  0
LINE
  8
ENTITYA19764
  6
CONTINUOUS
 62
1
 10
54.646186
 20
59.388408
 11
55.646186
 21
59.388408
  0
LINE
  8
ENTITYA19764
  6
CONTINUOUS
 62
1
 10
55.646186
 20
59.388408
 11
55.146186
 21
62.888408
  0
LINE
  8
ENTITYA19764
  6
CONTINUOUS
 62
1
 10
55.146186
 20
62.888408
 11
54.646186
 21
59.388408
  0
LINE
  8
ENTITYA19764
  6
CONTINUOUS
 62
1
 10
55.646186
 20
34.638408
 11
54.646186
 21
34.638408
  0
LINE
  8
ENTITYA19764
  6
CONTINUOUS
 62
1
 10
54.646186
 20
34.638408
 11
55.146186
 21
31.138408
  0
LINE
  8
ENTITYA19764
  6
CONTINUOUS
 62
1
 10
55.146186
 20
31.138408
 11
55.646186
 21
34.638408
  0
TEXT
  8
ENTITYA19764
  6
CONTINUOUS
 62
1
 10
54.060410
 20
44.164636
 40
2.000000
  1
32mm
 50
90.000000
 41
0.900000
 51
0.000000
  7
STANDARD
  0
TEXT
  8
ENTITYA19764
  6
CONTINUOUS
 62
1
 10
58.060410
 20
40.564636
 40
2.000000
  1
(1 1/4")
 50
90.000000
 41
0.900000
 51
0.000000
  7
STANDARD
  0
LINE
  8
ENTITYA19764
  6
CONTINUOUS
 62
1
 10
174.188228
 20
160.626655
 11
143.488228
 21
160.626655
  0
LINE
  8
ENTITYA19764
  6
CONTINUOUS
 62
1
 10
161.488228
 20
128.876655
 11
143.488228
 21
128.876655
  0
LINE
  8
ENTITYA19764
  6
CONTINUOUS
 62
1
 10
146.488228
 20
160.626655
 11
146.488228
 21
128.876655
  0
LINE
  8
ENTITYA19764
  6
CONTINUOUS
 62
1
 10
145.988228
 20
157.126655
 11
146.988228
 21
157.126655
  0
LINE
  8
ENTITYA19764
  6
CONTINUOUS
 62
1
 10
146.988228
 20
157.126655
 11
146.488228
 21
160.626655
  0
LINE
  8
ENTITYA19764
  6
CONTINUOUS
 62
1
 10
146.488228
 20
160.626655
 11
145.988228
 21
157.126655
  0
LINE
  8
ENTITYA19764
  6
CONTINUOUS
 62
1
 10
146.988228
 20
132.376655
 11
145.988228
 21
132.376655
  0
LINE
  8
ENTITYA19764
  6
CONTINUOUS
 62
1
 10
145.988228
 20
132.376655
 11
146.488228
 21
128.876655
  0
LINE
  8
ENTITYA19764
  6
CONTINUOUS
 62
1
 10
146.488228
 20
128.876655
 11
146.988228
 21
132.376655
  0
TEXT
  8
ENTITYA19764
  6
CONTINUOUS
 62
1
 10
145.402452
 20
141.902884
 40
2.000000
  1
32mm
 50
90.000000
 41
0.900000
 51
0.000000
  7
STANDARD
  0
TEXT
  8
ENTITYA19764
  6
CONTINUOUS
 62
1
 10
149.402452
 20
138.302884
 40
2.000000
  1
(1 1/4")
 50
90.000000
 41
0.900000
 51
0.000000
  7
STANDARD
  0
LINE
  8
ENTITYA19764
  6
CONTINUOUS
 62
1
 10
174.188228
 20
62.888408
 11
143.488228
 21
62.888408
  0
LINE
  8
ENTITYA19764
  6
CONTINUOUS
 62
1
 10
161.488228
 20
31.138408
 11
143.488228
 21
31.138408
  0
LINE
  8
ENTITYA19764
  6
CONTINUOUS
 62
1
 10
146.488228
 20
62.888408
 11
146.488228
 21
31.138408
  0
LINE
  8
ENTITYA19764
  6
CONTINUOUS
 62
1
 10
145.988228
 20
59.388408
 11
146.988228
 21
59.388408
  0
LINE
  8
ENTITYA19764
  6
CONTINUOUS
 62
1
 10
146.988228
 20
59.388408
 11
146.488228
 21
62.888408
  0
LINE
  8
ENTITYA19764
  6
CONTINUOUS
 62
1
 10
146.488228
 20
62.888408
 11
145.988228
 21
59.388408
  0
LINE
  8
ENTITYA19764
  6
CONTINUOUS
 62
1
 10
146.988228
 20
34.638408
 11
145.988228
 21
34.638408
  0
LINE
  8
ENTITYA19764
  6
CONTINUOUS
 62
1
 10
145.988228
 20
34.638408
 11
146.488228
 21
31.138408
  0
LINE
  8
ENTITYA19764
  6
CONTINUOUS
 62
1
 10
146.488228
 20
31.138408
 11
146.988228
 21
34.638408
  0
TEXT
  8
ENTITYA19764
  6
CONTINUOUS
 62
1
 10
145.402452
 20
44.164636
 40
2.000000
  1
32mm
 50
90.000000
 41
0.900000
 51
0.000000
  7
STANDARD
  0
TEXT
  8
ENTITYA19764
  6
CONTINUOUS
 62
1
 10
149.402452
 20
40.564636
 40
2.000000
  1
(1 1/4")
 50
90.000000
 41
0.900000
 51
0.000000
  7
STANDARD
  0
LINE
  8
ENTITYA19764
  6
CONTINUOUS
 62
1
 10
82.846186
 20
128.926655
 11
52.146186
 21
128.926655
  0
LINE
  8
ENTITYA19764
  6
CONTINUOUS
 62
1
 10
70.146186
 20
160.676655
 11
52.146186
 21
160.676655
  0
LINE
  8
ENTITYA19764
  6
CONTINUOUS
 62
1
 10
55.146186
 20
128.926655
 11
55.146186
 21
160.676655
  0
LINE
  8
ENTITYA19764
  6
CONTINUOUS
 62
1
 10
55.646186
 20
132.426655
 11
54.646186
 21
132.426655
  0
LINE
  8
ENTITYA19764
  6
CONTINUOUS
 62
1
 10
54.646186
 20
132.426655
 11
55.146186
 21
128.926655
  0
LINE
  8
ENTITYA19764
  6
CONTINUOUS
 62
1
 10
55.146186
 20
128.926655
 11
55.646186
 21
132.426655
  0
LINE
  8
ENTITYA19764
  6
CONTINUOUS
 62
1
 10
54.646186
 20
157.176655
 11
55.646186
 21
157.176655
  0
LINE
  8
ENTITYA19764
  6
CONTINUOUS
 62
1
 10
55.646186
 20
157.176655
 11
55.146186
 21
160.676655
  0
LINE
  8
ENTITYA19764
  6
CONTINUOUS
 62
1
 10
55.146186
 20
160.676655
 11
54.646186
 21
157.176655
  0
TEXT
  8
ENTITYA19764
  6
CONTINUOUS
 62
1
 10
54.060410
 20
141.952884
 40
2.000000
  1
32mm
 50
90.000000
 41
0.900000
 51
0.000000
  7
STANDARD
  0
TEXT
  8
ENTITYA19764
  6
CONTINUOUS
 62
1
 10
58.060410
 20
138.352884
 40
2.000000
  1
(1 1/4")
 50
90.000000
 41
0.900000
 51
0.000000
  7
STANDARD
  0
LINE
  8
ENTITYA19764
  6
CONTINUOUS
 62
1
 10
164.488228
 20
28.138408
 11
164.488228
 21
10.138408
  0
LINE
  8
ENTITYA19764
  6
CONTINUOUS
 62
1
 10
186.688228
 20
28.138408
 11
186.688228
 21
10.138408
  0
LINE
  8
ENTITYA19764
  6
CONTINUOUS
 62
1
 10
164.488228
 20
13.138408
 11
186.688228
 21
13.138408
  0
LINE
  8
ENTITYA19764
  6
CONTINUOUS
 62
1
 10
167.988228
 20
12.638408
 11
167.988228
 21
13.638408
  0
LINE
  8
ENTITYA19764
  6
CONTINUOUS
 62
1
 10
167.988228
 20
13.638408
 11
164.488228
 21
13.138408
  0
LINE
  8
ENTITYA19764
  6
CONTINUOUS
 62
1
 10
164.488228
 20
13.138408
 11
167.988228
 21
12.638408
  0
LINE
  8
ENTITYA19764
  6
CONTINUOUS
 62
1
 10
183.188228
 20
13.638408
 11
183.188228
 21
12.638408
  0
LINE
  8
ENTITYA19764
  6
CONTINUOUS
 62
1
 10
183.188228
 20
12.638408
 11
186.688228
 21
13.138408
  0
LINE
  8
ENTITYA19764
  6
CONTINUOUS
 62
1
 10
186.688228
 20
13.138408
 11
183.188228
 21
13.638408
  0
LINE
  8
ENTITYA19764
  6
CONTINUOUS
 62
1
 10
73.146186
 20
28.138408
 11
73.146186
 21
10.138408
  0
LINE
  8
ENTITYA19764
  6
CONTINUOUS
 62
1
 10
108.046186
 20
28.138408
 11
108.046186
 21
10.138408
  0
LINE
  8
ENTITYA19764
  6
CONTINUOUS
 62
1
 10
73.146186
 20
13.138408
 11
108.046186
 21
13.138408
  0
LINE
  8
ENTITYA19764
  6
CONTINUOUS
 62
1
 10
76.646186
 20
12.638408
 11
76.646186
 21
13.638408
  0
LINE
  8
ENTITYA19764
  6
CONTINUOUS
 62
1
 10
76.646186
 20
13.638408
 11
73.146186
 21
13.138408
  0
LINE
  8
ENTITYA19764
  6
CONTINUOUS
 62
1
 10
73.146186
 20
13.138408
 11
76.646186
 21
12.638408
  0
LINE
  8
ENTITYA19764
  6
CONTINUOUS
 62
1
 10
104.546186
 20
13.638408
 11
104.546186
 21
12.638408
  0
LINE
  8
ENTITYA19764
  6
CONTINUOUS
 62
1
 10
104.546186
 20
12.638408
 11
108.046186
 21
13.138408
  0
LINE
  8
ENTITYA19764
  6
CONTINUOUS
 62
1
 10
108.046186
 20
13.138408
 11
104.546186
 21
13.638408
  0
LINE
  8
ENTITYA19764
  6
CONTINUOUS
 62
1
 10
73.146186
 20
154.463293
 11
73.146186
 21
107.876655
  0
LINE
  8
ENTITYA19764
  6
CONTINUOUS
 62
1
 10
108.046186
 20
125.876655
 11
108.046186
 21
107.876655
  0
LINE
  8
ENTITYA19764
  6
CONTINUOUS
 62
1
 10
73.146186
 20
110.876655
 11
108.046186
 21
110.876655
  0
LINE
  8
ENTITYA19764
  6
CONTINUOUS
 62
1
 10
76.646186
 20
110.376655
 11
76.646186
 21
111.376655
  0
LINE
  8
ENTITYA19764
  6
CONTINUOUS
 62
1
 10
76.646186
 20
111.376655
 11
73.146186
 21
110.876655
  0
LINE
  8
ENTITYA19764
  6
CONTINUOUS
 62
1
 10
73.146186
 20
110.876655
 11
76.646186
 21
110.376655
  0
LINE
  8
ENTITYA19764
  6
CONTINUOUS
 62
1
 10
104.546186
 20
111.376655
 11
104.546186
 21
110.376655
  0
LINE
  8
ENTITYA19764
  6
CONTINUOUS
 62
1
 10
104.546186
 20
110.376655
 11
108.046186
 21
110.876655
  0
LINE
  8
ENTITYA19764
  6
CONTINUOUS
 62
1
 10
108.046186
 20
110.876655
 11
104.546186
 21
111.376655
  0
LINE
  8
ENTITYA19764
  6
CONTINUOUS
 62
1
 10
164.488228
 20
125.876655
 11
164.488228
 21
107.876655
  0
LINE
  8
ENTITYA19764
  6
CONTINUOUS
 62
1
 10
199.388228
 20
125.876655
 11
199.388228
 21
107.876655
  0
LINE
  8
ENTITYA19764
  6
CONTINUOUS
 62
1
 10
164.488228
 20
110.876655
 11
199.388228
 21
110.876655
  0
LINE
  8
ENTITYA19764
  6
CONTINUOUS
 62
1
 10
167.988228
 20
110.376655
 11
167.988228
 21
111.376655
  0
LINE
  8
ENTITYA19764
  6
CONTINUOUS
 62
1
 10
167.988228
 20
111.376655
 11
164.488228
 21
110.876655
  0
LINE
  8
ENTITYA19764
  6
CONTINUOUS
 62
1
 10
164.488228
 20
110.876655
 11
167.988228
 21
110.376655
  0
LINE
  8
ENTITYA19764
  6
CONTINUOUS
 62
1
 10
195.888228
 20
111.376655
 11
195.888228
 21
110.376655
  0
LINE
  8
ENTITYA19764
  6
CONTINUOUS
 62
1
 10
195.888228
 20
110.376655
 11
199.388228
 21
110.876655
  0
LINE
  8
ENTITYA19764
  6
CONTINUOUS
 62
1
 10
199.388228
 20
110.876655
 11
195.888228
 21
111.376655
  0
TEXT
  8
ENTITYA19764
  6
CONTINUOUS
 62
1
 10
93.459144
 20
109.790880
 40
2.000000
  1
35mm
 50
180.000000
 41
0.900000
 51
0.000000
  7
STANDARD
  0
TEXT
  8
ENTITYA19764
  6
CONTINUOUS
 62
1
 10
97.059144
 20
113.790880
 40
2.000000
  1
(1 3/8")
 50
180.000000
 41
0.900000
 51
0.000000
  7
STANDARD
  0
TEXT
  8
ENTITYA19764
  6
CONTINUOUS
 62
1
 10
93.459144
 20
12.052632
 40
2.000000
  1
35mm
 50
180.000000
 41
0.900000
 51
0.000000
  7
STANDARD
  0
TEXT
  8
ENTITYA19764
  6
CONTINUOUS
 62
1
 10
97.059144
 20
16.052632
 40
2.000000
  1
(1 3/8")
 50
180.000000
 41
0.900000
 51
0.000000
  7
STANDARD
  0
TEXT
  8
ENTITYA19764
  6
CONTINUOUS
 62
1
 10
178.648433
 20
12.052632
 40
2.000000
  1
22mm
 50
180.000000
 41
0.900000
 51
0.000000
  7
STANDARD
  0
TEXT
  8
ENTITYA19764
  6
CONTINUOUS
 62
1
 10
180.448433
 20
16.052632
 40
2.000000
  1
(7/8")
 50
180.000000
 41
0.900000
 51
0.000000
  7
STANDARD
  0
TEXT
  8
ENTITYA19764
  6
CONTINUOUS
 62
1
 10
184.801187
 20
109.790880
 40
2.000000
  1
35mm
 50
180.000000
 41
0.900000
 51
0.000000
  7
STANDARD
  0
TEXT
  8
ENTITYA19764
  6
CONTINUOUS
 62
1
 10
188.401187
 20
113.790880
 40
2.000000
  1
(1 3/8")
 50
180.000000
 41
0.900000
 51
0.000000
  7
STANDARD
  0
LINE
  8
ENTITYA19764
  6
CONTINUOUS
 62
1
 10
95.346186
 20
82.938408
 11
85.846186
 21
82.938408
  0
LINE
  8
ENTITYA19764
  6
CONTINUOUS
 62
1
 10
91.846186
 20
83.438408
 11
91.846186
 21
82.438408
  0
LINE
  8
ENTITYA19764
  6
CONTINUOUS
 62
1
 10
91.846186
 20
82.438408
 11
95.346186
 21
82.938408
  0
LINE
  8
ENTITYA19764
  6
CONTINUOUS
 62
1
 10
95.346186
 20
82.938408
 11
91.846186
 21
83.438408
  0
LINE
  8
ENTITYA19764
  6
CONTINUOUS
 62
1
 10
89.346186
 20
82.438408
 11
89.346186
 21
83.438408
  0
LINE
  8
ENTITYA19764
  6
CONTINUOUS
 62
1
 10
89.346186
 20
83.438408
 11
85.846186
 21
82.938408
  0
LINE
  8
ENTITYA19764
  6
CONTINUOUS
 62
1
 10
85.846186
 20
82.938408
 11
89.346186
 21
82.438408
  0
LINE
  8
ENTITYA19764
  6
CONTINUOUS
 62
1
 10
95.346186
 20
85.938408
 11
95.346186
 21
65.938408
  0
LINE
  8
ENTITYA19764
  6
CONTINUOUS
 62
1
 10
85.846186
 20
65.938408
 11
85.846186
 21
85.938408
  0
TEXT
  8
ENTITYA19764
  6
CONTINUOUS
 62
1
 10
93.836224
 20
81.949838
 40
2.000000
  1
10mm
 50
180.000000
 41
0.900000
 51
0.000000
  7
STANDARD
  0
TEXT
  8
ENTITYA19764
  6
CONTINUOUS
 62
1
 10
95.636224
 20
85.949838
 40
2.000000
  1
(3/8")
 50
180.000000
 41
0.900000
 51
0.000000
  7
STANDARD
  0
LINE
  8
ENTITYA19764
  6
CONTINUOUS
 62
1
 10
95.346186
 20
180.676655
 11
73.146186
 21
180.676655
  0
LINE
  8
ENTITYA19764
  6
CONTINUOUS
 62
1
 10
91.846186
 20
181.176655
 11
91.846186
 21
180.176655
  0
LINE
  8
ENTITYA19764
  6
CONTINUOUS
 62
1
 10
91.846186
 20
180.176655
 11
95.346186
 21
180.676655
  0
LINE
  8
ENTITYA19764
  6
CONTINUOUS
 62
1
 10
95.346186
 20
180.676655
 11
91.846186
 21
181.176655
  0
LINE
  8
ENTITYA19764
  6
CONTINUOUS
 62
1
 10
76.646186
 20
180.176655
 11
76.646186
 21
181.176655
  0
LINE
  8
ENTITYA19764
  6
CONTINUOUS
 62
1
 10
76.646186
 20
181.176655
 11
73.146186
 21
180.676655
  0
LINE
  8
ENTITYA19764
  6
CONTINUOUS
 62
1
 10
73.146186
 20
180.676655
 11
76.646186
 21
180.176655
  0
LINE
  8
ENTITYA19764
  6
CONTINUOUS
 62
1
 10
95.346186
 20
183.676655
 11
95.346186
 21
163.676655
  0
LINE
  8
ENTITYA19764
  6
CONTINUOUS
 62
1
 10
73.146186
 20
163.676655
 11
73.146186
 21
183.676655
  0
TEXT
  8
ENTITYA19764
  6
CONTINUOUS
 62
1
 10
87.306391
 20
179.590880
 40
2.000000
  1
22mm
 50
180.000000
 41
0.900000
 51
0.000000
  7
STANDARD
  0
TEXT
  8
ENTITYA19764
  6
CONTINUOUS
 62
1
 10
89.106391
 20
183.590880
 40
2.000000
  1
(7/8")
 50
180.000000
 41
0.900000
 51
0.000000
  7
STANDARD
  0
LINE
  8
ENTITYA19764
  6
CONTINUOUS
 62
1
 10
199.388228
 20
180.676655
 11
177.188228
 21
180.676655
  0
LINE
  8
ENTITYA19764
  6
CONTINUOUS
 62
1
 10
195.888228
 20
181.176655
 11
195.888228
 21
180.176655
  0
LINE
  8
ENTITYA19764
  6
CONTINUOUS
 62
1
 10
195.888228
 20
180.176655
 11
199.388228
 21
180.676655
  0
LINE
  8
ENTITYA19764
  6
CONTINUOUS
 62
1
 10
199.388228
 20
180.676655
 11
195.888228
 21
181.176655
  0
LINE
  8
ENTITYA19764
  6
CONTINUOUS
 62
1
 10
180.688228
 20
180.176655
 11
180.688228
 21
181.176655
  0
LINE
  8
ENTITYA19764
  6
CONTINUOUS
 62
1
 10
180.688228
 20
181.176655
 11
177.188228
 21
180.676655
  0
LINE
  8
ENTITYA19764
  6
CONTINUOUS
 62
1
 10
177.188228
 20
180.676655
 11
180.688228
 21
180.176655
  0
LINE
  8
ENTITYA19764
  6
CONTINUOUS
 62
1
 10
199.388228
 20
183.676655
 11
199.388228
 21
163.676655
  0
LINE
  8
ENTITYA19764
  6
CONTINUOUS
 62
1
 10
177.188228
 20
163.676655
 11
177.188228
 21
183.676655
  0
TEXT
  8
ENTITYA19764
  6
CONTINUOUS
 62
1
 10
191.348433
 20
179.590880
 40
2.000000
  1
22mm
 50
180.000000
 41
0.900000
 51
0.000000
  7
STANDARD
  0
TEXT
  8
ENTITYA19764
  6
CONTINUOUS
 62
1
 10
193.148433
 20
183.590880
 40
2.000000
  1
(7/8")
 50
180.000000
 41
0.900000
 51
0.000000
  7
STANDARD
  0
LINE
  8
ENTITYA19764
  6
CONTINUOUS
 62
1
 10
186.688228
 20
82.938408
 11
177.188228
 21
82.938408
  0
LINE
  8
ENTITYA19764
  6
CONTINUOUS
 62
1
 10
183.188228
 20
83.438408
 11
183.188228
 21
82.438408
  0
LINE
  8
ENTITYA19764
  6
CONTINUOUS
 62
1
 10
183.188228
 20
82.438408
 11
186.688228
 21
82.938408
  0
LINE
  8
ENTITYA19764
  6
CONTINUOUS
 62
1
 10
186.688228
 20
82.938408
 11
183.188228
 21
83.438408
  0
LINE
  8
ENTITYA19764
  6
CONTINUOUS
 62
1
 10
180.688228
 20
82.438408
 11
180.688228
 21
83.438408
  0
LINE
  8
ENTITYA19764
  6
CONTINUOUS
 62
1
 10
180.688228
 20
83.438408
 11
177.188228
 21
82.938408
  0
LINE
  8
ENTITYA19764
  6
CONTINUOUS
 62
1
 10
177.188228
 20
82.938408
 11
180.688228
 21
82.438408
  0
LINE
  8
ENTITYA19764
  6
CONTINUOUS
 62
1
 10
186.688228
 20
85.938408
 11
186.688228
 21
65.938408
  0
LINE
  8
ENTITYA19764
  6
CONTINUOUS
 62
1
 10
177.188228
 20
65.938408
 11
177.188228
 21
85.938408
  0
TEXT
  8
ENTITYA19764
  6
CONTINUOUS
 62
1
 10
185.178267
 20
81.949838
 40
2.000000
  1
10mm
 50
180.000000
 41
0.900000
 51
0.000000
  7
STANDARD
  0
TEXT
  8
ENTITYA19764
  6
CONTINUOUS
 62
1
 10
186.978267
 20
85.949838
 40
2.000000
  1
(3/8")
 50
180.000000
 41
0.900000
 51
0.000000
  7
STANDARD
  0
TEXT
  8
ENTITYA19764
  6
CONTINUOUS
 62
1
 10
112.943695
 20
36.944741
 40
2.000000
  1
FIXED LIGHT
 50
90.000000
 41
0.900000
 51
0.000000
  7
STANDARD
  0
TEXT
  8
ENTITYA19764
  6
CONTINUOUS
 62
1
 10
116.943695
 20
39.644741
 40
2.000000
  1
GLAZE IN
 50
90.000000
 41
0.900000
 51
0.000000
  7
STANDARD
  0
TEXT
  8
ENTITYA19764
  6
CONTINUOUS
 62
1
 10
112.943695
 20
134.649216
 40
2.000000
  1
FIXED LIGHT
 50
90.000000
 41
0.900000
 51
0.000000
  7
STANDARD
  0
TEXT
  8
ENTITYA19764
  6
CONTINUOUS
 62
1
 10
116.943695
 20
136.449216
 40
2.000000
  1
GLAZE OUT
 50
90.000000
 41
0.900000
 51
0.000000
  7
STANDARD
  0
TEXT
  8
ENTITYA19764
  6
CONTINUOUS
 62
1
 10
204.610423
 20
134.649216
 40
2.000000
  1
FIXED LIGHT
 50
90.000000
 41
0.900000
 51
0.000000
  7
STANDARD
  0
TEXT
  8
ENTITYA19764
  6
CONTINUOUS
 62
1
 10
208.610423
 20
133.749216
 40
2.000000
  1
GLAZE IN/OUT
 50
90.000000
 41
0.900000
 51
0.000000
  7
STANDARD
  0
TEXT
  8
ENTITYA19764
  6
CONTINUOUS
 62
1
 10
193.751101
 20
37.145299
 40
2.000000
  1
FIXED LIGHT
 50
90.000000
 41
0.900000
 51
0.000000
  7
STANDARD
  0
TEXT
  8
ENTITYA19764
  6
CONTINUOUS
 62
1
 10
197.751101
 20
36.245299
 40
2.000000
  1
GLAZE IN/OUT
 50
90.000000
 41
0.900000
 51
0.000000
  7
STANDARD
  0
LINE
  8
ENTITYA19764
  6
CONTINUOUS
 62
1
 10
108.046186
 20
82.938408
 11
95.346186
 21
82.938408
  0
LINE
  8
ENTITYA19764
  6
CONTINUOUS
 62
1
 10
104.546186
 20
83.438408
 11
104.546186
 21
82.438408
  0
LINE
  8
ENTITYA19764
  6
CONTINUOUS
 62
1
 10
104.546186
 20
82.438408
 11
108.046186
 21
82.938408
  0
LINE
  8
ENTITYA19764
  6
CONTINUOUS
 62
1
 10
108.046186
 20
82.938408
 11
104.546186
 21
83.438408
  0
LINE
  8
ENTITYA19764
  6
CONTINUOUS
 62
1
 10
98.846186
 20
82.438408
 11
98.846186
 21
83.438408
  0
LINE
  8
ENTITYA19764
  6
CONTINUOUS
 62
1
 10
98.846186
 20
83.438408
 11
95.346186
 21
82.938408
  0
LINE
  8
ENTITYA19764
  6
CONTINUOUS
 62
1
 10
95.346186
 20
82.938408
 11
98.846186
 21
82.438408
  0
LINE
  8
ENTITYA19764
  6
CONTINUOUS
 62
1
 10
108.046186
 20
37.341066
 11
108.046186
 21
85.938408
  0
TEXT
  8
ENTITYA19764
  6
CONTINUOUS
 62
1
 10
107.076645
 20
81.949838
 40
2.000000
  1
12.5mm
 50
180.000000
 41
0.900000
 51
0.000000
  7
STANDARD
  0
TEXT
  8
ENTITYA19764
  6
CONTINUOUS
 62
1
 10
107.076645
 20
85.949838
 40
2.000000
  1
(1/2")
 50
180.000000
 41
0.900000
 51
0.000000
  7
STANDARD
  0
LINE
  8
ENTITYA19764
  6
CONTINUOUS
 62
1
 10
85.846186
 20
82.938408
 11
73.146186
 21
82.938408
  0
LINE
  8
ENTITYA19764
  6
CONTINUOUS
 62
1
 10
82.346186
 20
83.438408
 11
82.346186
 21
82.438408
  0
LINE
  8
ENTITYA19764
  6
CONTINUOUS
 62
1
 10
82.346186
 20
82.438408
 11
85.846186
 21
82.938408
  0
LINE
  8
ENTITYA19764
  6
CONTINUOUS
 62
1
 10
85.846186
 20
82.938408
 11
82.346186
 21
83.438408
  0
LINE
  8
ENTITYA19764
  6
CONTINUOUS
 62
1
 10
76.646186
 20
82.438408
 11
76.646186
 21
83.438408
  0
LINE
  8
ENTITYA19764
  6
CONTINUOUS
 62
1
 10
76.646186
 20
83.438408
 11
73.146186
 21
82.938408
  0
LINE
  8
ENTITYA19764
  6
CONTINUOUS
 62
1
 10
73.146186
 20
82.938408
 11
76.646186
 21
82.438408
  0
TEXT
  8
ENTITYA19764
  6
CONTINUOUS
 62
1
 10
84.876645
 20
81.949838
 40
2.000000
  1
12.5mm
 50
180.000000
 41
0.900000
 51
0.000000
  7
STANDARD
  0
TEXT
  8
ENTITYA19764
  6
CONTINUOUS
 62
1
 10
84.876645
 20
85.949838
 40
2.000000
  1
(1/2")
 50
180.000000
 41
0.900000
 51
0.000000
  7
STANDARD
  0
LINE
  8
ENTITYA19764
  6
CONTINUOUS
 62
1
 10
73.146186
 20
37.341066
 11
73.146186
 21
85.938408
  0
LINE
  8
ENTITYA19764
  6
CONTINUOUS
 62
1
 10
267.396594
 20
191.739155
 11
265.521594
 21
191.739155
  0
ARC
  8
ENTITYA19764
  6
CONTINUOUS
 62
1
 10
261.147317
 20
191.418037
 40
4.386048
 50
4.198591
 51
42.198592
  0
ARC
  8
ENTITYA19764
  6
CONTINUOUS
 62
1
 10
261.214393
 20
190.426044
 40
5.063114
 50
51.059965
 51
90.059967
  0
ARC
  8
ENTITYA19764
  6
CONTINUOUS
 62
1
 10
261.101330
 20
191.214025
 40
4.276488
 50
88.556045
 51
132.556044
  0
ARC
  8
ENTITYA19764
  6
CONTINUOUS
 62
1
 10
259.795267
 20
192.931661
 40
2.137285
 50
137.914383
 51
213.914386
  0
ARC
  8
ENTITYA19764
  6
CONTINUOUS
 62
1
 10
260.690291
 20
194.061984
 40
3.538004
 50
221.036243
 51
257.036244
  0
LINE
  8
ENTITYA19764
  6
CONTINUOUS
 62
1
 10
259.896594
 20
190.614155
 11
263.271594
 21
189.676655
  0
ARC
  8
ENTITYA19764
  6
CONTINUOUS
 62
1
 10
262.338553
 20
184.972034
 40
4.796251
 50
30.782407
 51
78.782407
  0
ARC
  8
ENTITYA19764
  6
CONTINUOUS
 62
1
 10
262.889004
 20
185.889914
 40
3.886787
 50
325.289408
 51
23.289407
  0
ARC
  8
ENTITYA19764
  6
CONTINUOUS
 62
1
 10
262.151938
 20
186.853467
 40
5.055095
 50
272.065052
 51
321.065051
  0
ARC
  8
ENTITYA19764
  6
CONTINUOUS
 62
1
 10
261.501553
 20
188.359467
 40
6.610448
 50
238.235225
 51
277.235226
  0
ARC
  8
ENTITYA19764
  6
CONTINUOUS
 62
1
 10
260.505843
 20
186.321326
 40
4.359294
 50
180.258542
 51
235.258541
  0
LINE
  8
ENTITYA19764
  6
CONTINUOUS
 62
1
 10
256.146594
 20
186.301655
 11
258.021594
 21
186.301655
  0
ARC
  8
ENTITYA19764
  6
CONTINUOUS
 62
1
 10
261.265167
 20
186.685927
 40
3.266256
 50
186.756437
 51
233.756439
  0
ARC
  8
ENTITYA19764
  6
CONTINUOUS
 62
1
 10
261.711205
 20
189.037712
 40
5.523714
 50
244.510447
 51
290.510447
  0
ARC
  8
ENTITYA19764
  6
CONTINUOUS
 62
1
 10
262.688744
 20
185.749331
 40
2.114560
 50
296.934949
 51
9.934947
  0
ARC
  8
ENTITYA19764
  6
CONTINUOUS
 62
1
 10
262.866695
 20
185.709257
 40
1.947455
 50
12.000000
 51
78.000002
  0
LINE
  8
ENTITYA19764
  6
CONTINUOUS
 62
1
 10
263.271594
 20
187.614155
 11
258.209094
 21
189.114155
  0
ARC
  8
ENTITYA19764
  6
CONTINUOUS
 62
1
 10
259.635115
 20
192.812541
 40
3.963785
 50
192.914382
 51
248.914383
  0
ARC
  8
ENTITYA19764
  6
CONTINUOUS
 62
1
 10
260.053830
 20
192.686743
 40
4.349170
 50
133.065052
 51
190.065051
  0
ARC
  8
ENTITYA19764
  6
CONTINUOUS
 62
1
 10
260.901814
 20
191.003999
 40
6.180300
 50
87.150123
 51
128.150124
  0
ARC
  8
ENTITYA19764
  6
CONTINUOUS
 62
1
 10
261.540327
 20
189.914073
 40
7.270132
 50
63.611341
 51
92.611342
  0
ARC
  8
ENTITYA19764
  6
CONTINUOUS
 62
1
 10
262.183439
 20
191.898539
 40
5.215591
 50
358.248827
 51
60.248826
  0
LINE
  8
ENTITYA19764
  6
CONTINUOUS
 62
1
 10
246.584094
 20
196.989155
 11
248.646594
 21
196.989155
  0
LINE
  8
ENTITYA19764
  6
CONTINUOUS
 62
1
 10
248.646594
 20
196.989155
 11
248.646594
 21
183.676655
  0
LINE
  8
ENTITYA19764
  6
CONTINUOUS
 62
1
 10
248.646594
 20
183.676655
 11
253.709094
 21
183.676655
  0
LINE
  8
ENTITYA19764
  6
CONTINUOUS
 62
1
 10
253.709094
 20
183.676655
 11
253.709094
 21
181.989155
  0
LINE
  8
ENTITYA19764
  6
CONTINUOUS
 62
1
 10
253.709094
 20
181.989155
 11
241.709094
 21
181.989155
  0
LINE
  8
ENTITYA19764
  6
CONTINUOUS
 62
1
 10
241.709094
 20
181.989155
 11
241.709094
 21
183.676655
  0
LINE
  8
ENTITYA19764
  6
CONTINUOUS
 62
1
 10
241.709094
 20
183.676655
 11
246.584094
 21
183.676655
  0
LINE
  8
ENTITYA19764
  6
CONTINUOUS
 62
1
 10
246.584094
 20
183.676655
 11
246.584094
 21
196.989155
  0
LINE
  8
ENTITYA19764
  6
CONTINUOUS
 62
1
 10
239.084094
 20
181.989155
 11
228.396594
 21
181.989155
  0
LINE
  8
ENTITYA19764
  6
CONTINUOUS
 62
1
 10
228.396594
 20
181.989155
 11
228.396594
 21
183.676655
  0
LINE
  8
ENTITYA19764
  6
CONTINUOUS
 62
1
 10
228.396594
 20
183.676655
 11
237.021594
 21
183.676655
  0
LINE
  8
ENTITYA19764
  6
CONTINUOUS
 62
1
 10
237.021594
 20
183.676655
 11
237.021594
 21
188.364155
  0
LINE
  8
ENTITYA19764
  6
CONTINUOUS
 62
1
 10
237.021594
 20
188.364155
 11
228.959094
 21
188.364155
  0
LINE
  8
ENTITYA19764
  6
CONTINUOUS
 62
1
 10
228.959094
 20
188.364155
 11
228.959094
 21
190.051655
  0
LINE
  8
ENTITYA19764
  6
CONTINUOUS
 62
1
 10
228.959094
 20
190.051655
 11
237.021594
 21
190.051655
  0
LINE
  8
ENTITYA19764
  6
CONTINUOUS
 62
1
 10
237.021594
 20
190.051655
 11
237.021594
 21
195.301655
  0
LINE
  8
ENTITYA19764
  6
CONTINUOUS
 62
1
 10
237.021594
 20
195.301655
 11
227.834094
 21
195.301655
  0
LINE
  8
ENTITYA19764
  6
CONTINUOUS
 62
1
 10
227.834094
 20
195.301655
 11
227.834094
 21
196.989155
  0
LINE
  8
ENTITYA19764
  6
CONTINUOUS
 62
1
 10
227.834094
 20
196.989155
 11
239.084094
 21
196.989155
  0
LINE
  8
ENTITYA19764
  6
CONTINUOUS
 62
1
 10
239.084094
 20
196.989155
 11
239.084094
 21
181.989155
  0
LINE
  8
ENTITYA19764
  6
CONTINUOUS
 62
1
 10
224.646594
 20
181.989155
 11
213.959094
 21
181.989155
  0
LINE
  8
ENTITYA19764
  6
CONTINUOUS
 62
1
 10
213.959094
 20
181.989155
 11
213.959094
 21
183.676655
  0
LINE
  8
ENTITYA19764
  6
CONTINUOUS
 62
1
 10
213.959094
 20
183.676655
 11
222.584094
 21
183.676655
  0
LINE
  8
ENTITYA19764
  6
CONTINUOUS
 62
1
 10
222.584094
 20
183.676655
 11
222.584094
 21
188.364155
  0
LINE
  8
ENTITYA19764
  6
CONTINUOUS
 62
1
 10
222.584094
 20
188.364155
 11
214.521594
 21
188.364155
  0
LINE
  8
ENTITYA19764
  6
CONTINUOUS
 62
1
 10
214.521594
 20
188.364155
 11
214.521594
 21
190.051655
  0
LINE
  8
ENTITYA19764
  6
CONTINUOUS
 62
1
 10
214.521594
 20
190.051655
 11
222.584094
 21
190.051655
  0
LINE
  8
ENTITYA19764
  6
CONTINUOUS
 62
1
 10
222.584094
 20
190.051655
 11
222.584094
 21
195.301655
  0
LINE
  8
ENTITYA19764
  6
CONTINUOUS
 62
1
 10
222.584094
 20
195.301655
 11
213.396594
 21
195.301655
  0
LINE
  8
ENTITYA19764
  6
CONTINUOUS
 62
1
 10
213.396594
 20
195.301655
 11
213.396594
 21
196.989155
  0
LINE
  8
ENTITYA19764
  6
CONTINUOUS
 62
1
 10
213.396594
 20
196.989155
 11
224.646594
 21
196.989155
  0
LINE
  8
ENTITYA19764
  6
CONTINUOUS
 62
1
 10
224.646594
 20
196.989155
 11
224.646594
 21
181.989155
  0
LINE
  8
ENTITYA19764
  6
CONTINUOUS
 62
1
 10
210.209094
 20
181.989155
 11
208.146594
 21
181.989155
  0
LINE
  8
ENTITYA19764
  6
CONTINUOUS
 62
1
 10
208.146594
 20
181.989155
 11
208.146594
 21
195.301655
  0
LINE
  8
ENTITYA19764
  6
CONTINUOUS
 62
1
 10
208.146594
 20
195.301655
 11
201.021594
 21
195.301655
  0
LINE
  8
ENTITYA19764
  6
CONTINUOUS
 62
1
 10
201.021594
 20
195.301655
 11
201.021594
 21
196.989155
  0
LINE
  8
ENTITYA19764
  6
CONTINUOUS
 62
1
 10
201.021594
 20
196.989155
 11
210.209094
 21
196.989155
  0
LINE
  8
ENTITYA19764
  6
CONTINUOUS
 62
1
 10
210.209094
 20
196.989155
 11
210.209094
 21
181.989155
  0
TEXT
  8
ENTITYA19764
  6
CONTINUOUS
 62
1
 10
284.910143
 20
181.801655
 40
10.000000
  1
A1
 50
90.000000
 41
1.000000
 51
0.000000
  7
STANDARD
  0
LINE
  8
ENTITYA19764
  6
CONTINUOUS
 62
1
 10
261.371583
 20
113.089736
 11
264.571583
 21
113.089736
  0
LINE
  8
ENTITYA19764
  6
CONTINUOUS
 62
1
 10
260.571583
 20
112.289736
 11
260.571583
 21
87.195681
  0
LINE
  8
ENTITYA19764
  6
CONTINUOUS
 62
1
 10
247.871583
 20
82.139736
 11
247.871583
 21
83.811763
  0
LINE
  8
ENTITYA19764
  6
CONTINUOUS
 62
1
 10
259.122093
 20
85.602776
 11
248.596327
 21
84.608215
  0
LINE
  8
ENTITYA19764
  6
CONTINUOUS
 62
1
 10
265.371583
 20
112.289736
 11
265.371583
 21
110.190516
  0
LINE
  8
ENTITYA19764
  6
CONTINUOUS
 62
1
 10
270.171583
 20
107.139736
 11
270.171583
 21
104.739736
  0
LINE
  8
ENTITYA19764
  6
CONTINUOUS
 62
1
 10
266.361453
 20
108.711414
 11
270.171583
 21
107.139736
  0
LINE
  8
ENTITYA19764
  6
CONTINUOUS
 62
1
 10
266.708544
 20
104.162562
 11
270.171583
 21
104.739736
  0
LINE
  8
ENTITYA19764
  6
CONTINUOUS
 62
1
 10
265.371583
 20
102.584332
 11
265.371583
 21
91.855139
  0
LINE
  8
ENTITYA19764
  6
CONTINUOUS
 62
1
 10
248.671583
 20
81.339736
 11
263.771583
 21
81.339736
  0
LINE
  8
ENTITYA19764
  6
CONTINUOUS
 62
1
 10
270.171583
 20
87.299736
 11
270.171583
 21
89.699736
  0
LINE
  8
ENTITYA19764
  6
CONTINUOUS
 62
1
 10
266.361453
 20
85.728057
 11
270.171583
 21
87.299736
  0
LINE
  8
ENTITYA19764
  6
CONTINUOUS
 62
1
 10
265.371583
 20
84.248955
 11
265.371583
 21
82.939736
  0
LINE
  8
ENTITYA19764
  6
CONTINUOUS
 62
1
 10
266.708544
 20
90.276909
 11
270.171583
 21
89.699736
  0
ARC
  8
ENTITYA19764
  6
CONTINUOUS
 62
1
 10
248.671583
 20
82.139736
 40
0.800000
 50
180.000000
 51
270.000000
  0
ARC
  8
ENTITYA19764
  6
CONTINUOUS
 62
1
 10
248.671583
 20
83.811763
 40
0.800000
 50
95.397749
 51
180.000000
  0
ARC
  8
ENTITYA19764
  6
CONTINUOUS
 62
1
 10
258.971583
 20
87.195681
 40
1.600000
 50
275.397749
 51
0.000000
  0
ARC
  8
ENTITYA19764
  6
CONTINUOUS
 62
1
 10
263.771583
 20
82.939736
 40
1.600000
 50
270.000000
 51
0.000000
  0
ARC
  8
ENTITYA19764
  6
CONTINUOUS
 62
1
 10
266.971583
 20
84.248955
 40
1.600000
 50
112.416147
 51
180.000000
  0
ARC
  8
ENTITYA19764
  6
CONTINUOUS
 62
1
 10
266.971583
 20
91.855139
 40
1.600000
 50
180.000000
 51
260.537678
  0
ARC
  8
ENTITYA19764
  6
CONTINUOUS
 62
1
 10
266.971583
 20
102.584332
 40
1.600000
 50
99.462322
 51
180.000000
  0
ARC
  8
ENTITYA19764
  6
CONTINUOUS
 62
1
 10
266.971583
 20
110.190516
 40
1.600000
 50
180.000000
 51
247.583853
  0
ARC
  8
ENTITYA19764
  6
CONTINUOUS
 62
1
 10
264.571583
 20
112.289736
 40
0.800000
 50
0.000000
 51
90.000000
  0
ARC
  8
ENTITYA19764
  6
CONTINUOUS
 62
1
 10
261.371583
 20
112.289736
 40
0.800000
 50
90.000000
 51
180.000000
  0
LINE
  8
ENTITYA19764
  6
CONTINUOUS
 62
1
 10
247.871583
 20
78.339736
 11
247.871583
 21
60.339736
  0
LINE
  8
ENTITYA19764
  6
CONTINUOUS
 62
1
 10
265.371583
 20
78.339736
 11
265.371583
 21
60.339736
  0
LINE
  8
ENTITYA19764
  6
CONTINUOUS
 62
1
 10
247.871583
 20
63.339736
 11
265.371583
 21
63.339736
  0
LINE
  8
ENTITYA19764
  6
CONTINUOUS
 62
1
 10
251.371583
 20
62.839736
 11
251.371583
 21
63.839736
  0
LINE
  8
ENTITYA19764
  6
CONTINUOUS
 62
1
 10
251.371583
 20
63.839736
 11
247.871583
 21
63.339736
  0
LINE
  8
ENTITYA19764
  6
CONTINUOUS
 62
1
 10
247.871583
 20
63.339736
 11
251.371583
 21
62.839736
  0
LINE
  8
ENTITYA19764
  6
CONTINUOUS
 62
1
 10
261.871583
 20
63.839736
 11
261.871583
 21
62.839736
  0
LINE
  8
ENTITYA19764
  6
CONTINUOUS
 62
1
 10
261.871583
 20
62.839736
 11
265.371583
 21
63.339736
  0
LINE
  8
ENTITYA19764
  6
CONTINUOUS
 62
1
 10
265.371583
 20
63.339736
 11
261.871583
 21
63.839736
  0
LINE
  8
ENTITYA19764
  6
CONTINUOUS
 62
1
 10
257.571583
 20
113.089736
 11
226.871583
 21
113.089736
  0
LINE
  8
ENTITYA19764
  6
CONTINUOUS
 62
1
 10
244.871583
 20
81.339736
 11
226.871583
 21
81.339736
  0
LINE
  8
ENTITYA19764
  6
CONTINUOUS
 62
1
 10
229.871583
 20
113.089736
 11
229.871583
 21
81.339736
  0
LINE
  8
ENTITYA19764
  6
CONTINUOUS
 62
1
 10
229.371583
 20
109.589736
 11
230.371583
 21
109.589736
  0
LINE
  8
ENTITYA19764
  6
CONTINUOUS
 62
1
 10
230.371583
 20
109.589736
 11
229.871583
 21
113.089736
  0
LINE
  8
ENTITYA19764
  6
CONTINUOUS
 62
1
 10
229.871583
 20
113.089736
 11
229.371583
 21
109.589736
  0
LINE
  8
ENTITYA19764
  6
CONTINUOUS
 62
1
 10
230.371583
 20
84.839736
 11
229.371583
 21
84.839736
  0
LINE
  8
ENTITYA19764
  6
CONTINUOUS
 62
1
 10
229.371583
 20
84.839736
 11
229.871583
 21
81.339736
  0
LINE
  8
ENTITYA19764
  6
CONTINUOUS
 62
1
 10
229.871583
 20
81.339736
 11
230.371583
 21
84.839736
  0
TEXT
  8
ENTITYA19764
  6
CONTINUOUS
 62
1
 10
228.785807
 20
94.365964
 40
2.000000
  1
32mm
 50
90.000000
 41
0.900000
 51
0.000000
  7
STANDARD
  0
TEXT
  8
ENTITYA19764
  6
CONTINUOUS
 62
1
 10
232.785807
 20
90.765964
 40
2.000000
  1
(1 1/4")
 50
90.000000
 41
0.900000
 51
0.000000
  7
STANDARD
  0
TEXT
  8
ENTITYA19764
  6
CONTINUOUS
 62
1
 10
261.659601
 20
62.253960
 40
2.000000
  1
17.5mm
 50
180.000000
 41
0.900000
 51
0.000000
  7
STANDARD
  0
TEXT
  8
ENTITYA19764
  6
CONTINUOUS
 62
1
 10
263.459601
 20
66.253960
 40
2.000000
  1
(11/16")
 50
180.000000
 41
0.900000
 51
0.000000
  7
STANDARD
  0
LINE
  8
ENTITYA19764
  6
CONTINUOUS
 62
1
 10
265.371583
 20
136.089736
 11
265.371583
 21
116.089736
  0
LINE
  8
ENTITYA19764
  6
CONTINUOUS
 62
1
 10
260.571583
 20
116.089736
 11
260.571583
 21
136.089736
  0
LINE
  8
ENTITYA19764
  6
CONTINUOUS
 62
1
 10
265.371583
 20
133.089736
 11
270.967725
 21
133.089736
  0
LINE
  8
ENTITYA19764
  6
CONTINUOUS
 62
1
 10
268.871583
 20
132.589736
 11
268.871583
 21
133.589736
  0
LINE
  8
ENTITYA19764
  6
CONTINUOUS
 62
1
 10
268.871583
 20
133.589736
 11
265.371583
 21
133.089736
  0
LINE
  8
ENTITYA19764
  6
CONTINUOUS
 62
1
 10
265.371583
 20
133.089736
 11
268.871583
 21
132.589736
  0
LINE
  8
ENTITYA19764
  6
CONTINUOUS
 62
1
 10
260.571583
 20
133.089736
 11
248.528501
 21
133.089736
  0
LINE
  8
ENTITYA19764
  6
CONTINUOUS
 62
1
 10
257.071583
 20
133.589736
 11
257.071583
 21
132.589736
  0
LINE
  8
ENTITYA19764
  6
CONTINUOUS
 62
1
 10
257.071583
 20
132.589736
 11
260.571583
 21
133.089736
  0
LINE
  8
ENTITYA19764
  6
CONTINUOUS
 62
1
 10
260.571583
 20
133.089736
 11
257.071583
 21
133.589736
  0
TEXT
  8
ENTITYA19764
  6
CONTINUOUS
 62
1
 10
256.273898
 20
132.101166
 40
2.000000
  1
5mm
 50
180.000000
 41
0.900000
 51
0.000000
  7
STANDARD
  0
TEXT
  8
ENTITYA19764
  6
CONTINUOUS
 62
1
 10
259.873898
 20
136.101166
 40
2.000000
  1
(3/16")
 50
180.000000
 41
0.900000
 51
0.000000
  7
STANDARD
  0
TEXT
  8
ENTITYA19764
  6
CONTINUOUS
 62
1
 10
277.325006
 20
80.636137
 40
2.000000
  1
DIRECT COUPLING BAR
 50
90.000000
 41
0.900000
 51
0.000000
  7
STANDARD
  0
TEXT
  8
ENTITYA19764
  6
CONTINUOUS
 62
1
 10
281.325006
 20
86.936137
 40
2.000000
  1
GLAZE IN/OUT
 50
90.000000
 41
0.900000
 51
0.000000
  7
STANDARD
  0
ENDSEC
  0
EOF
