  0
SECTION
  2
HEADER
  9
$LIMMIN
 10
0.000000
 20
0.000000
  9
$LIMMAX
 10
297.301779
 20
210.224104
  9
$EXTMIN
 10
0.000000
 20
0.000000
  9
$EXTMAX
 10
297.301779
 20
210.224104
  9
$ANGBASE
 50
0.0
  9
$ANGDIR
 70
0
  9
$DIMRND
 40
0.100000
  9
$DIMSE1
 70
0
  9
$DIMSE2
 70
0
  9
$DIMTXT
 40
3.000000
  9
$LTSCALE
 40
1.000000
  9
$LUPREC
 70
3
  9
$AUPREC
 70
3
  9
$PDMODE
 70
2
  9
$PDSIZE
 40
1.486509
  0
ENDSEC
  0
SECTION
  2
TABLES
  0
TABLE
  2
VPORT
  70
1
  0
VPORT
  2
*ACTIVE
 70
0
  10
0.0
 20
0.0
 11
1.0
 21
1.0
 12
594.0
 22
420.0
 13
0.0
 23
0.0
 14
10.0
 24
10.0
 15
10.0
 25
10.0
 16
0.0
 26
0.0
 36
1.0
 17
594.0
 27
420.0
 37
100.0
 40
1000.0
 41
1.0
 42
50.0
 43
0.0
 44
0.0
 50
0.0
 51
0.0
 71
0
 72
2000
 73
1
 74
3
 75
0
 76
0
 77
0
 78
1
  0
ENDTAB
  0
TABLE
  2
LTYPE
 70
4
  0
LTYPE
  2
CONTINUOUS
 70
0
  3
Solid line
 72
65
 73
0
 40
0.0
  0
LTYPE
  2
DASHED
 70
0
  3
Dashed line
 72
65
 73
2
 40
6.000000
 49
3.000000
 49
-3.000000
  0
LTYPE
  2
CENTER
 70
0
  3
Chain line
 72
65
 73
4
 40
24.000000
 49
15.000000
 49
-3.000000
 49
3.000000
 49
-3.000000
  0
LTYPE
  2
RANDOM
 70
0
  3
Random line
 72
65
 73
4
 40
22.500000
 49
6.000000
 49
-3.000000
 49
4.500000
 49
-9.000000
  0
ENDTAB
  0
TABLE
  2
STYLE
 70
9
  0
STYLE
  2
STANDARD
 40
0
 41
1.0
 50
0.0
 71
0
 42
0
  3
simplex
  4

 70
0
  0
ENDTAB
  0
TABLE
  2
LAYER
 70
2
  0
LAYER
  2
0
 70
0
 62
7
  6
CONTINUOUS
  0
LAYER
  2
0
 62
1
  6
CONTINUOUS
 70
0
  0
ENDTAB
  0
ENDSEC
  0
SECTION
  2
BLOCKS
  0
ENDSEC
  0
SECTION
  2
ENTITIES
  0
LINE
  8
0
  6
CONTINUOUS
 62
1
 10
17.709024
 20
175.875224
 11
22.771524
 21
175.875224
  0
LINE
  8
0
  6
CONTINUOUS
 62
1
 10
17.709024
 20
188.868974
 11
22.771524
 21
188.868974
  0
LINE
  8
0
  6
CONTINUOUS
 62
1
 10
22.771524
 20
189.881474
 11
18.813570
 21
189.881474
  0
LINE
  8
0
  6
CONTINUOUS
 62
1
 10
22.771524
 20
174.862724
 11
18.813570
 21
174.862724
  0
LINE
  8
0
  6
CONTINUOUS
 62
1
 10
13.152774
 20
184.692412
 11
13.152774
 21
180.051787
  0
LINE
  8
0
  6
CONTINUOUS
 62
1
 10
14.165274
 20
179.123662
 11
14.165274
 21
181.865849
  0
LINE
  8
0
  6
CONTINUOUS
 62
1
 10
14.165274
 20
182.878349
 11
14.165274
 21
185.620537
  0
LINE
  8
0
  6
CONTINUOUS
 62
1
 10
13.152774
 20
180.051787
 11
10.621524
 21
182.372099
  0
LINE
  8
0
  6
CONTINUOUS
 62
1
 10
22.771524
 20
171.234599
 11
18.813570
 21
174.862724
  0
LINE
  8
0
  6
CONTINUOUS
 62
1
 10
16.696524
 20
176.803349
 11
14.165274
 21
179.123662
  0
LINE
  8
0
  6
CONTINUOUS
 62
1
 10
18.813570
 20
189.881474
 11
22.771524
 21
193.509599
  0
LINE
  8
0
  6
CONTINUOUS
 62
1
 10
10.621524
 20
182.372099
 11
13.152774
 21
184.692412
  0
LINE
  8
0
  6
CONTINUOUS
 62
1
 10
14.165274
 20
185.620537
 11
16.696524
 21
187.940849
  0
LINE
  8
0
  6
CONTINUOUS
 62
1
 10
22.771524
 20
174.862724
 11
22.771524
 21
171.234599
  0
LINE
  8
0
  6
CONTINUOUS
 62
1
 10
22.771524
 20
181.865849
 11
22.771524
 21
175.875224
  0
LINE
  8
0
  6
CONTINUOUS
 62
1
 10
22.771524
 20
193.509599
 11
22.771524
 21
189.881474
  0
LINE
  8
0
  6
CONTINUOUS
 62
1
 10
22.771524
 20
188.868974
 11
22.771524
 21
182.878349
  0
LINE
  8
0
  6
CONTINUOUS
 62
1
 10
22.771524
 20
181.865849
 11
17.709024
 21
181.865849
  0
LINE
  8
0
  6
CONTINUOUS
 62
1
 10
16.696524
 20
181.865849
 11
14.165274
 21
181.865849
  0
LINE
  8
0
  6
CONTINUOUS
 62
1
 10
22.771524
 20
182.878349
 11
17.709024
 21
182.878349
  0
LINE
  8
0
  6
CONTINUOUS
 62
1
 10
16.696524
 20
182.878349
 11
14.165274
 21
182.878349
  0
LINE
  8
0
  6
CONTINUOUS
 62
1
 10
16.696524
 20
187.940849
 11
16.696524
 21
182.878349
  0
LINE
  8
0
  6
CONTINUOUS
 62
1
 10
16.696524
 20
181.865849
 11
16.696524
 21
176.803349
  0
LINE
  8
0
  6
CONTINUOUS
 62
1
 10
17.709024
 20
175.875224
 11
17.709024
 21
181.865849
  0
LINE
  8
0
  6
CONTINUOUS
 62
1
 10
17.709024
 20
182.878349
 11
17.709024
 21
188.868974
  0
LINE
  8
0
  6
CONTINUOUS
 62
1
 10
12.950274
 20
180.237412
 11
12.950274
 21
184.506787
  0
LINE
  8
0
  6
CONTINUOUS
 62
1
 10
12.747774
 20
184.321162
 11
12.747774
 21
180.423037
  0
LINE
  8
0
  6
CONTINUOUS
 62
1
 10
12.545274
 20
180.608662
 11
12.545274
 21
184.135537
  0
LINE
  8
0
  6
CONTINUOUS
 62
1
 10
12.342774
 20
183.949912
 11
12.342774
 21
180.794287
  0
LINE
  8
0
  6
CONTINUOUS
 62
1
 10
12.140274
 20
180.979912
 11
12.140274
 21
183.764287
  0
LINE
  8
0
  6
CONTINUOUS
 62
1
 10
11.937774
 20
183.578662
 11
11.937774
 21
181.165537
  0
LINE
  8
0
  6
CONTINUOUS
 62
1
 10
11.735274
 20
181.351162
 11
11.735274
 21
183.393037
  0
LINE
  8
0
  6
CONTINUOUS
 62
1
 10
11.532774
 20
183.207412
 11
11.532774
 21
181.536787
  0
LINE
  8
0
  6
CONTINUOUS
 62
1
 10
11.330274
 20
181.722412
 11
11.330274
 21
183.021787
  0
LINE
  8
0
  6
CONTINUOUS
 62
1
 10
11.127774
 20
182.836162
 11
11.127774
 21
181.908037
  0
LINE
  8
0
  6
CONTINUOUS
 62
1
 10
10.925274
 20
182.093662
 11
10.925274
 21
182.650537
  0
LINE
  8
0
  6
CONTINUOUS
 62
1
 10
10.722774
 20
182.464912
 11
10.722774
 21
182.279287
  0
LINE
  8
0
  6
CONTINUOUS
 62
1
 10
22.366524
 20
175.875224
 11
22.366524
 21
181.865849
  0
LINE
  8
0
  6
CONTINUOUS
 62
1
 10
21.961524
 20
181.865849
 11
21.961524
 21
175.875224
  0
LINE
  8
0
  6
CONTINUOUS
 62
1
 10
21.556524
 20
175.875224
 11
21.556524
 21
181.865849
  0
LINE
  8
0
  6
CONTINUOUS
 62
1
 10
21.151524
 20
181.865849
 11
21.151524
 21
175.875224
  0
LINE
  8
0
  6
CONTINUOUS
 62
1
 10
20.746524
 20
175.875224
 11
20.746524
 21
181.865849
  0
LINE
  8
0
  6
CONTINUOUS
 62
1
 10
20.341524
 20
181.865849
 11
20.341524
 21
175.875224
  0
LINE
  8
0
  6
CONTINUOUS
 62
1
 10
19.936524
 20
175.875224
 11
19.936524
 21
181.865849
  0
LINE
  8
0
  6
CONTINUOUS
 62
1
 10
19.531524
 20
181.865849
 11
19.531524
 21
175.875224
  0
LINE
  8
0
  6
CONTINUOUS
 62
1
 10
19.126524
 20
175.875224
 11
19.126524
 21
181.865849
  0
LINE
  8
0
  6
CONTINUOUS
 62
1
 10
18.721524
 20
181.865849
 11
18.721524
 21
175.875224
  0
LINE
  8
0
  6
CONTINUOUS
 62
1
 10
18.316524
 20
175.875224
 11
18.316524
 21
181.865849
  0
LINE
  8
0
  6
CONTINUOUS
 62
1
 10
17.911524
 20
181.865849
 11
17.911524
 21
175.875224
  0
LINE
  8
0
  6
CONTINUOUS
 62
1
 10
22.366524
 20
182.878349
 11
22.366524
 21
188.868974
  0
LINE
  8
0
  6
CONTINUOUS
 62
1
 10
21.961524
 20
188.868974
 11
21.961524
 21
182.878349
  0
LINE
  8
0
  6
CONTINUOUS
 62
1
 10
21.556524
 20
182.878349
 11
21.556524
 21
188.868974
  0
LINE
  8
0
  6
CONTINUOUS
 62
1
 10
21.151524
 20
188.868974
 11
21.151524
 21
182.878349
  0
LINE
  8
0
  6
CONTINUOUS
 62
1
 10
21.151524
 20
188.868974
 11
21.151524
 21
182.878349
  0
LINE
  8
0
  6
CONTINUOUS
 62
1
 10
20.746524
 20
182.878349
 11
20.746524
 21
188.868974
  0
LINE
  8
0
  6
CONTINUOUS
 62
1
 10
20.341524
 20
188.868974
 11
20.341524
 21
182.878349
  0
LINE
  8
0
  6
CONTINUOUS
 62
1
 10
19.936524
 20
182.878349
 11
19.936524
 21
188.868974
  0
LINE
  8
0
  6
CONTINUOUS
 62
1
 10
19.531524
 20
188.868974
 11
19.531524
 21
182.878349
  0
LINE
  8
0
  6
CONTINUOUS
 62
1
 10
19.126524
 20
182.878349
 11
19.126524
 21
188.868974
  0
LINE
  8
0
  6
CONTINUOUS
 62
1
 10
18.721524
 20
188.868974
 11
18.721524
 21
182.878349
  0
LINE
  8
0
  6
CONTINUOUS
 62
1
 10
18.316524
 20
182.878349
 11
18.316524
 21
188.868974
  0
LINE
  8
0
  6
CONTINUOUS
 62
1
 10
17.911524
 20
188.868974
 11
17.911524
 21
182.878349
  0
LINE
  8
0
  6
CONTINUOUS
 62
1
 10
16.291524
 20
182.878349
 11
16.291524
 21
187.569599
  0
LINE
  8
0
  6
CONTINUOUS
 62
1
 10
15.886524
 20
187.198349
 11
15.886524
 21
182.878349
  0
LINE
  8
0
  6
CONTINUOUS
 62
1
 10
15.481524
 20
182.878349
 11
15.481524
 21
186.827099
  0
LINE
  8
0
  6
CONTINUOUS
 62
1
 10
15.076524
 20
186.455849
 11
15.076524
 21
182.878349
  0
LINE
  8
0
  6
CONTINUOUS
 62
1
 10
14.671524
 20
182.878349
 11
14.671524
 21
186.084599
  0
LINE
  8
0
  6
CONTINUOUS
 62
1
 10
14.266524
 20
185.713349
 11
14.266524
 21
182.878349
  0
LINE
  8
0
  6
CONTINUOUS
 62
1
 10
16.291524
 20
177.174599
 11
16.291524
 21
181.865849
  0
LINE
  8
0
  6
CONTINUOUS
 62
1
 10
15.886524
 20
181.865849
 11
15.886524
 21
177.545849
  0
LINE
  8
0
  6
CONTINUOUS
 62
1
 10
15.481524
 20
177.917099
 11
15.481524
 21
181.865849
  0
LINE
  8
0
  6
CONTINUOUS
 62
1
 10
15.076524
 20
181.865849
 11
15.076524
 21
178.288349
  0
LINE
  8
0
  6
CONTINUOUS
 62
1
 10
14.671524
 20
178.659599
 11
14.671524
 21
181.865849
  0
LINE
  8
0
  6
CONTINUOUS
 62
1
 10
14.266524
 20
181.865849
 11
14.266524
 21
179.030849
  0
LINE
  8
0
  6
CONTINUOUS
 62
1
 10
22.366524
 20
171.605849
 11
22.366524
 21
174.862724
  0
LINE
  8
0
  6
CONTINUOUS
 62
1
 10
21.961524
 20
174.862724
 11
21.961524
 21
171.977099
  0
LINE
  8
0
  6
CONTINUOUS
 62
1
 10
21.556524
 20
172.348349
 11
21.556524
 21
174.862724
  0
LINE
  8
0
  6
CONTINUOUS
 62
1
 10
21.151524
 20
174.862724
 11
21.151524
 21
172.719599
  0
LINE
  8
0
  6
CONTINUOUS
 62
1
 10
20.746524
 20
173.090849
 11
20.746524
 21
174.862724
  0
LINE
  8
0
  6
CONTINUOUS
 62
1
 10
20.341524
 20
174.862724
 11
20.341524
 21
173.462099
  0
LINE
  8
0
  6
CONTINUOUS
 62
1
 10
19.936524
 20
173.833349
 11
19.936524
 21
174.862724
  0
LINE
  8
0
  6
CONTINUOUS
 62
1
 10
19.531524
 20
174.862724
 11
19.531524
 21
174.204599
  0
LINE
  8
0
  6
CONTINUOUS
 62
1
 10
19.126524
 20
174.575849
 11
19.126524
 21
174.862724
  0
LINE
  8
0
  6
CONTINUOUS
 62
1
 10
22.366524
 20
189.881474
 11
22.366524
 21
193.138349
  0
LINE
  8
0
  6
CONTINUOUS
 62
1
 10
21.961524
 20
192.767099
 11
21.961524
 21
189.881474
  0
LINE
  8
0
  6
CONTINUOUS
 62
1
 10
21.556524
 20
189.881474
 11
21.556524
 21
192.395849
  0
LINE
  8
0
  6
CONTINUOUS
 62
1
 10
21.151524
 20
192.024599
 11
21.151524
 21
189.881474
  0
LINE
  8
0
  6
CONTINUOUS
 62
1
 10
20.746524
 20
189.881474
 11
20.746524
 21
191.653349
  0
LINE
  8
0
  6
CONTINUOUS
 62
1
 10
20.341524
 20
191.282099
 11
20.341524
 21
189.881474
  0
LINE
  8
0
  6
CONTINUOUS
 62
1
 10
19.936524
 20
189.881474
 11
19.936524
 21
190.910849
  0
LINE
  8
0
  6
CONTINUOUS
 62
1
 10
19.531524
 20
190.539599
 11
19.531524
 21
189.881474
  0
LINE
  8
0
  6
CONTINUOUS
 62
1
 10
19.126524
 20
189.881474
 11
19.126524
 21
190.168349
  0
LINE
  8
0
  6
CONTINUOUS
 62
1
 10
22.569024
 20
175.875224
 11
22.569024
 21
181.865849
  0
LINE
  8
0
  6
CONTINUOUS
 62
1
 10
22.164024
 20
181.865849
 11
22.164024
 21
175.875224
  0
LINE
  8
0
  6
CONTINUOUS
 62
1
 10
21.759024
 20
181.865849
 11
21.759024
 21
175.875224
  0
LINE
  8
0
  6
CONTINUOUS
 62
1
 10
21.354024
 20
175.875224
 11
21.354024
 21
181.865849
  0
LINE
  8
0
  6
CONTINUOUS
 62
1
 10
19.329024
 20
175.875224
 11
19.329024
 21
181.865849
  0
LINE
  8
0
  6
CONTINUOUS
 62
1
 10
18.924024
 20
181.865849
 11
18.924024
 21
175.875224
  0
LINE
  8
0
  6
CONTINUOUS
 62
1
 10
18.519024
 20
175.875224
 11
18.519024
 21
181.865849
  0
LINE
  8
0
  6
CONTINUOUS
 62
1
 10
18.114024
 20
181.865849
 11
18.114024
 21
175.875224
  0
LINE
  8
0
  6
CONTINUOUS
 62
1
 10
19.734024
 20
181.865849
 11
19.734024
 21
175.875224
  0
LINE
  8
0
  6
CONTINUOUS
 62
1
 10
20.139024
 20
175.875224
 11
20.139024
 21
181.865849
  0
LINE
  8
0
  6
CONTINUOUS
 62
1
 10
20.544024
 20
181.865849
 11
20.544024
 21
175.875224
  0
LINE
  8
0
  6
CONTINUOUS
 62
1
 10
20.949024
 20
175.875224
 11
20.949024
 21
181.865849
  0
LINE
  8
0
  6
CONTINUOUS
 62
1
 10
22.569024
 20
182.878349
 11
22.569024
 21
188.868974
  0
LINE
  8
0
  6
CONTINUOUS
 62
1
 10
22.164024
 20
188.868974
 11
22.164024
 21
182.878349
  0
LINE
  8
0
  6
CONTINUOUS
 62
1
 10
18.114024
 20
182.878349
 11
18.114024
 21
188.868974
  0
LINE
  8
0
  6
CONTINUOUS
 62
1
 10
18.519024
 20
188.868974
 11
18.519024
 21
182.878349
  0
LINE
  8
0
  6
CONTINUOUS
 62
1
 10
18.924024
 20
188.868974
 11
18.924024
 21
182.878349
  0
LINE
  8
0
  6
CONTINUOUS
 62
1
 10
19.329024
 20
182.878349
 11
19.329024
 21
188.868974
  0
LINE
  8
0
  6
CONTINUOUS
 62
1
 10
19.734024
 20
182.878349
 11
19.734024
 21
188.868974
  0
LINE
  8
0
  6
CONTINUOUS
 62
1
 10
20.139024
 20
182.878349
 11
20.139024
 21
188.868974
  0
LINE
  8
0
  6
CONTINUOUS
 62
1
 10
20.544024
 20
182.878349
 11
20.544024
 21
188.868974
  0
LINE
  8
0
  6
CONTINUOUS
 62
1
 10
20.949024
 20
188.868974
 11
20.949024
 21
182.878349
  0
LINE
  8
0
  6
CONTINUOUS
 62
1
 10
21.354024
 20
188.868974
 11
21.354024
 21
182.878349
  0
LINE
  8
0
  6
CONTINUOUS
 62
1
 10
21.759024
 20
182.878349
 11
21.759024
 21
188.868974
  0
LINE
  8
0
  6
CONTINUOUS
 62
1
 10
22.569024
 20
189.881474
 11
22.569024
 21
193.323974
  0
LINE
  8
0
  6
CONTINUOUS
 62
1
 10
22.164024
 20
192.952724
 11
22.164024
 21
189.881474
  0
LINE
  8
0
  6
CONTINUOUS
 62
1
 10
21.759024
 20
189.881474
 11
21.759024
 21
192.581474
  0
LINE
  8
0
  6
CONTINUOUS
 62
1
 10
21.354024
 20
192.210224
 11
21.354024
 21
189.881474
  0
LINE
  8
0
  6
CONTINUOUS
 62
1
 10
20.949024
 20
189.881474
 11
20.949024
 21
191.838974
  0
LINE
  8
0
  6
CONTINUOUS
 62
1
 10
20.544024
 20
191.467724
 11
20.544024
 21
189.881474
  0
LINE
  8
0
  6
CONTINUOUS
 62
1
 10
20.139024
 20
191.096474
 11
20.139024
 21
189.881474
  0
LINE
  8
0
  6
CONTINUOUS
 62
1
 10
19.734024
 20
190.725224
 11
19.734024
 21
189.881474
  0
LINE
  8
0
  6
CONTINUOUS
 62
1
 10
19.329024
 20
189.881474
 11
19.329024
 21
190.353974
  0
LINE
  8
0
  6
CONTINUOUS
 62
1
 10
18.924024
 20
189.982724
 11
18.924024
 21
189.881474
  0
LINE
  8
0
  6
CONTINUOUS
 62
1
 10
22.569024
 20
171.420224
 11
22.569024
 21
174.862724
  0
LINE
  8
0
  6
CONTINUOUS
 62
1
 10
22.164024
 20
174.862724
 11
22.164024
 21
171.791474
  0
LINE
  8
0
  6
CONTINUOUS
 62
1
 10
21.759024
 20
172.162724
 11
21.759024
 21
174.862724
  0
LINE
  8
0
  6
CONTINUOUS
 62
1
 10
21.354024
 20
174.862724
 11
21.354024
 21
172.533974
  0
LINE
  8
0
  6
CONTINUOUS
 62
1
 10
20.949024
 20
172.905224
 11
20.949024
 21
174.862724
  0
LINE
  8
0
  6
CONTINUOUS
 62
1
 10
20.544024
 20
174.862724
 11
20.544024
 21
173.276474
  0
LINE
  8
0
  6
CONTINUOUS
 62
1
 10
20.139024
 20
173.647724
 11
20.139024
 21
174.862724
  0
LINE
  8
0
  6
CONTINUOUS
 62
1
 10
19.734024
 20
174.862724
 11
19.734024
 21
174.018974
  0
LINE
  8
0
  6
CONTINUOUS
 62
1
 10
19.329024
 20
174.390224
 11
19.329024
 21
174.862724
  0
LINE
  8
0
  6
CONTINUOUS
 62
1
 10
18.924024
 20
174.862724
 11
18.924024
 21
174.761474
  0
LINE
  8
0
  6
CONTINUOUS
 62
1
 10
16.494024
 20
182.878349
 11
16.494024
 21
187.755224
  0
LINE
  8
0
  6
CONTINUOUS
 62
1
 10
16.089024
 20
187.383974
 11
16.089024
 21
182.878349
  0
LINE
  8
0
  6
CONTINUOUS
 62
1
 10
15.684024
 20
182.878349
 11
15.684024
 21
187.012724
  0
LINE
  8
0
  6
CONTINUOUS
 62
1
 10
15.279024
 20
186.641474
 11
15.279024
 21
182.878349
  0
LINE
  8
0
  6
CONTINUOUS
 62
1
 10
14.874024
 20
182.878349
 11
14.874024
 21
186.270224
  0
LINE
  8
0
  6
CONTINUOUS
 62
1
 10
14.469024
 20
185.898974
 11
14.469024
 21
182.878349
  0
LINE
  8
0
  6
CONTINUOUS
 62
1
 10
14.469024
 20
181.865849
 11
14.469024
 21
178.845224
  0
LINE
  8
0
  6
CONTINUOUS
 62
1
 10
14.874024
 20
178.473974
 11
14.874024
 21
181.865849
  0
LINE
  8
0
  6
CONTINUOUS
 62
1
 10
15.279024
 20
181.865849
 11
15.279024
 21
178.102724
  0
LINE
  8
0
  6
CONTINUOUS
 62
1
 10
15.684024
 20
177.731474
 11
15.684024
 21
181.865849
  0
LINE
  8
0
  6
CONTINUOUS
 62
1
 10
16.089024
 20
181.865849
 11
16.089024
 21
177.360224
  0
LINE
  8
0
  6
CONTINUOUS
 62
1
 10
16.494024
 20
176.988974
 11
16.494024
 21
181.865849
  0
LINE
  8
0
  6
CONTINUOUS
 62
1
 10
33.571524
 20
198.957126
 11
33.571524
 21
165.787045
  0
LINE
  8
0
  6
CONTINUOUS
 62
1
 10
24.796524
 20
165.787045
 11
24.796524
 21
198.957126
  0
ARC
  8
0
  6
CONTINUOUS
 62
1
 10
27.461923
 20
168.074104
 40
1.075798
 50
101.065051
 51
132.065051
  0
ARC
  8
0
  6
CONTINUOUS
 62
1
 10
27.572266
 20
168.135782
 40
1.110793
 50
138.434949
 51
168.434949
  0
ARC
  8
0
  6
CONTINUOUS
 62
1
 10
28.788962
 20
167.972760
 40
2.336988
 50
170.500000
 51
189.499999
  0
ARC
  8
0
  6
CONTINUOUS
 62
1
 10
28.208722
 20
167.511743
 40
1.726341
 50
177.500000
 51
272.499999
  0
LINE
  8
0
  6
CONTINUOUS
 62
1
 10
28.284024
 20
165.787045
 11
29.826881
 21
165.787045
  0
ARC
  8
0
  6
CONTINUOUS
 62
1
 10
29.701546
 20
168.734479
 40
2.950098
 50
272.434949
 51
304.434949
  0
ARC
  8
0
  6
CONTINUOUS
 62
1
 10
30.617539
 20
167.320288
 40
1.266522
 50
306.434949
 51
0.434948
  0
LINE
  8
0
  6
CONTINUOUS
 62
1
 10
31.884024
 20
167.329902
 11
31.884024
 21
167.844188
  0
ARC
  8
0
  6
CONTINUOUS
 62
1
 10
30.643121
 20
167.905751
 40
1.242430
 50
357.159808
 51
80.159810
  0
LINE
  8
0
  6
CONTINUOUS
 62
1
 10
31.884024
 20
170.415617
 11
26.484024
 21
170.415617
  0
LINE
  8
0
  6
CONTINUOUS
 62
1
 10
26.484024
 20
170.415617
 11
26.484024
 21
172.729902
  0
ARC
  8
0
  6
CONTINUOUS
 62
1
 10
27.512596
 20
172.729902
 40
1.028571
 50
90.000000
 51
180.000000
  0
ARC
  8
0
  6
CONTINUOUS
 62
1
 10
27.512596
 20
172.472760
 40
1.285714
 50
0.000001
 51
90.000000
  0
LINE
  8
0
  6
CONTINUOUS
 62
1
 10
28.798310
 20
172.472760
 11
28.798310
 21
170.158474
  0
LINE
  8
0
  6
CONTINUOUS
 62
1
 10
28.798310
 20
171.958474
 11
31.884024
 21
173.758474
  0
LINE
  8
0
  6
CONTINUOUS
 62
1
 10
31.884024
 20
175.044188
 11
26.484024
 21
175.044188
  0
LINE
  8
0
  6
CONTINUOUS
 62
1
 10
26.484024
 20
178.129902
 11
31.884024
 21
178.129902
  0
LINE
  8
0
  6
CONTINUOUS
 62
1
 10
26.484024
 20
176.329902
 11
26.484024
 21
179.929902
  0
LINE
  8
0
  6
CONTINUOUS
 62
1
 10
26.484024
 20
183.015617
 11
31.884024
 21
183.015617
  0
LINE
  8
0
  6
CONTINUOUS
 62
1
 10
26.484024
 20
181.215617
 11
26.484024
 21
184.815617
  0
LINE
  8
0
  6
CONTINUOUS
 62
1
 10
31.884024
 20
186.101331
 11
26.484024
 21
188.158474
  0
LINE
  8
0
  6
CONTINUOUS
 62
1
 10
26.484024
 20
188.158474
 11
31.884024
 21
190.215617
  0
LINE
  8
0
  6
CONTINUOUS
 62
1
 10
30.084024
 20
186.872760
 11
30.084024
 21
189.701331
  0
LINE
  8
0
  6
CONTINUOUS
 62
1
 10
31.884024
 20
191.501331
 11
26.484024
 21
191.501331
  0
LINE
  8
0
  6
CONTINUOUS
 62
1
 10
31.884024
 20
191.501331
 11
31.884024
 21
194.587045
  0
LINE
  8
0
  6
CONTINUOUS
 62
1
 10
31.884024
 20
195.872760
 11
26.484024
 21
195.872760
  0
LINE
  8
0
  6
CONTINUOUS
 62
1
 10
31.884024
 20
195.872760
 11
31.884024
 21
198.958474
  0
LINE
  8
0
  6
CONTINUOUS
 62
1
 10
260.875000
 20
194.750000
 11
259.000000
 21
194.750000
  0
ARC
  8
0
  6
CONTINUOUS
 62
1
 10
254.625723
 20
194.428881
 40
4.386048
 50
4.198591
 51
42.198592
  0
ARC
  8
0
  6
CONTINUOUS
 62
1
 10
254.692799
 20
193.436889
 40
5.063114
 50
51.059965
 51
90.059967
  0
ARC
  8
0
  6
CONTINUOUS
 62
1
 10
254.579736
 20
194.224870
 40
4.276488
 50
88.556045
 51
132.556044
  0
ARC
  8
0
  6
CONTINUOUS
 62
1
 10
253.273673
 20
195.942506
 40
2.137285
 50
137.914383
 51
213.914386
  0
ARC
  8
0
  6
CONTINUOUS
 62
1
 10
254.168697
 20
197.072828
 40
3.538004
 50
221.036243
 51
257.036244
  0
LINE
  8
0
  6
CONTINUOUS
 62
1
 10
253.375000
 20
193.625000
 11
256.750000
 21
192.687500
  0
ARC
  8
0
  6
CONTINUOUS
 62
1
 10
255.816959
 20
187.982879
 40
4.796251
 50
30.782407
 51
78.782407
  0
ARC
  8
0
  6
CONTINUOUS
 62
1
 10
256.367410
 20
188.900759
 40
3.886787
 50
325.289408
 51
23.289407
  0
ARC
  8
0
  6
CONTINUOUS
 62
1
 10
255.630344
 20
189.864312
 40
5.055095
 50
272.065052
 51
321.065051
  0
ARC
  8
0
  6
CONTINUOUS
 62
1
 10
254.979959
 20
191.370312
 40
6.610448
 50
238.235225
 51
277.235226
  0
ARC
  8
0
  6
CONTINUOUS
 62
1
 10
253.984249
 20
189.332171
 40
4.359294
 50
180.258542
 51
235.258541
  0
LINE
  8
0
  6
CONTINUOUS
 62
1
 10
249.625000
 20
189.312500
 11
251.500000
 21
189.312500
  0
ARC
  8
0
  6
CONTINUOUS
 62
1
 10
254.743573
 20
189.696772
 40
3.266256
 50
186.756437
 51
233.756439
  0
ARC
  8
0
  6
CONTINUOUS
 62
1
 10
255.189611
 20
192.048557
 40
5.523714
 50
244.510447
 51
290.510447
  0
ARC
  8
0
  6
CONTINUOUS
 62
1
 10
256.167150
 20
188.760175
 40
2.114560
 50
296.934949
 51
9.934947
  0
ARC
  8
0
  6
CONTINUOUS
 62
1
 10
256.345101
 20
188.720101
 40
1.947455
 50
12.000000
 51
78.000002
  0
LINE
  8
0
  6
CONTINUOUS
 62
1
 10
256.750000
 20
190.625000
 11
251.687500
 21
192.125000
  0
ARC
  8
0
  6
CONTINUOUS
 62
1
 10
253.113522
 20
195.823385
 40
3.963785
 50
192.914382
 51
248.914383
  0
ARC
  8
0
  6
CONTINUOUS
 62
1
 10
253.532236
 20
195.697588
 40
4.349170
 50
133.065052
 51
190.065051
  0
ARC
  8
0
  6
CONTINUOUS
 62
1
 10
254.380220
 20
194.014843
 40
6.180300
 50
87.150123
 51
128.150124
  0
ARC
  8
0
  6
CONTINUOUS
 62
1
 10
255.018733
 20
192.924917
 40
7.270132
 50
63.611341
 51
92.611342
  0
ARC
  8
0
  6
CONTINUOUS
 62
1
 10
255.661845
 20
194.909383
 40
5.215591
 50
358.248827
 51
60.248826
  0
LINE
  8
0
  6
CONTINUOUS
 62
1
 10
240.062500
 20
200.000000
 11
242.125000
 21
200.000000
  0
LINE
  8
0
  6
CONTINUOUS
 62
1
 10
242.125000
 20
200.000000
 11
242.125000
 21
193.250000
  0
LINE
  8
0
  6
CONTINUOUS
 62
1
 10
242.125000
 20
193.250000
 11
242.125000
 21
186.687500
  0
LINE
  8
0
  6
CONTINUOUS
 62
1
 10
242.125000
 20
186.687500
 11
247.187500
 21
186.687500
  0
LINE
  8
0
  6
CONTINUOUS
 62
1
 10
247.187500
 20
186.687500
 11
247.187500
 21
185.000000
  0
LINE
  8
0
  6
CONTINUOUS
 62
1
 10
247.187500
 20
185.000000
 11
241.000000
 21
185.000000
  0
LINE
  8
0
  6
CONTINUOUS
 62
1
 10
241.000000
 20
185.000000
 11
235.187500
 21
185.000000
  0
LINE
  8
0
  6
CONTINUOUS
 62
1
 10
235.187500
 20
185.000000
 11
235.187500
 21
186.687500
  0
LINE
  8
0
  6
CONTINUOUS
 62
1
 10
235.187500
 20
186.687500
 11
240.062500
 21
186.687500
  0
LINE
  8
0
  6
CONTINUOUS
 62
1
 10
240.062500
 20
186.687500
 11
240.062500
 21
193.625000
  0
LINE
  8
0
  6
CONTINUOUS
 62
1
 10
240.062500
 20
193.625000
 11
240.062500
 21
200.000000
  0
LINE
  8
0
  6
CONTINUOUS
 62
1
 10
232.562500
 20
191.937500
 11
232.562500
 21
185.000000
  0
LINE
  8
0
  6
CONTINUOUS
 62
1
 10
232.562500
 20
185.000000
 11
221.875000
 21
185.000000
  0
LINE
  8
0
  6
CONTINUOUS
 62
1
 10
221.875000
 20
185.000000
 11
221.875000
 21
186.687500
  0
LINE
  8
0
  6
CONTINUOUS
 62
1
 10
221.875000
 20
186.687500
 11
230.500000
 21
186.687500
  0
LINE
  8
0
  6
CONTINUOUS
 62
1
 10
230.500000
 20
186.687500
 11
230.500000
 21
191.375000
  0
LINE
  8
0
  6
CONTINUOUS
 62
1
 10
230.500000
 20
191.375000
 11
222.437500
 21
191.375000
  0
LINE
  8
0
  6
CONTINUOUS
 62
1
 10
222.437500
 20
191.375000
 11
222.437500
 21
193.062500
  0
LINE
  8
0
  6
CONTINUOUS
 62
1
 10
222.437500
 20
193.062500
 11
230.500000
 21
193.062500
  0
LINE
  8
0
  6
CONTINUOUS
 62
1
 10
230.500000
 20
193.062500
 11
230.500000
 21
198.312500
  0
LINE
  8
0
  6
CONTINUOUS
 62
1
 10
230.500000
 20
198.312500
 11
221.312500
 21
198.312500
  0
LINE
  8
0
  6
CONTINUOUS
 62
1
 10
221.312500
 20
198.312500
 11
221.312500
 21
200.000000
  0
LINE
  8
0
  6
CONTINUOUS
 62
1
 10
221.312500
 20
200.000000
 11
232.562500
 21
200.000000
  0
LINE
  8
0
  6
CONTINUOUS
 62
1
 10
232.562500
 20
200.000000
 11
232.562500
 21
191.937500
  0
LINE
  8
0
  6
CONTINUOUS
 62
1
 10
218.125000
 20
191.937500
 11
218.125000
 21
185.000000
  0
LINE
  8
0
  6
CONTINUOUS
 62
1
 10
218.125000
 20
185.000000
 11
207.437500
 21
185.000000
  0
LINE
  8
0
  6
CONTINUOUS
 62
1
 10
207.437500
 20
185.000000
 11
207.437500
 21
186.687500
  0
LINE
  8
0
  6
CONTINUOUS
 62
1
 10
207.437500
 20
186.687500
 11
216.062500
 21
186.687500
  0
LINE
  8
0
  6
CONTINUOUS
 62
1
 10
216.062500
 20
186.687500
 11
216.062500
 21
191.375000
  0
LINE
  8
0
  6
CONTINUOUS
 62
1
 10
216.062500
 20
191.375000
 11
208.000000
 21
191.375000
  0
LINE
  8
0
  6
CONTINUOUS
 62
1
 10
208.000000
 20
191.375000
 11
208.000000
 21
193.062500
  0
LINE
  8
0
  6
CONTINUOUS
 62
1
 10
208.000000
 20
193.062500
 11
216.062500
 21
193.062500
  0
LINE
  8
0
  6
CONTINUOUS
 62
1
 10
216.062500
 20
193.062500
 11
216.062500
 21
198.312500
  0
LINE
  8
0
  6
CONTINUOUS
 62
1
 10
216.062500
 20
198.312500
 11
206.875000
 21
198.312500
  0
LINE
  8
0
  6
CONTINUOUS
 62
1
 10
206.875000
 20
198.312500
 11
206.875000
 21
200.000000
  0
LINE
  8
0
  6
CONTINUOUS
 62
1
 10
206.875000
 20
200.000000
 11
218.125000
 21
200.000000
  0
LINE
  8
0
  6
CONTINUOUS
 62
1
 10
218.125000
 20
200.000000
 11
218.125000
 21
191.937500
  0
LINE
  8
0
  6
CONTINUOUS
 62
1
 10
203.687500
 20
192.125000
 11
203.687500
 21
185.000000
  0
LINE
  8
0
  6
CONTINUOUS
 62
1
 10
203.687500
 20
185.000000
 11
201.625000
 21
185.000000
  0
LINE
  8
0
  6
CONTINUOUS
 62
1
 10
201.625000
 20
185.000000
 11
201.625000
 21
191.562500
  0
LINE
  8
0
  6
CONTINUOUS
 62
1
 10
201.625000
 20
191.562500
 11
201.625000
 21
198.312500
  0
LINE
  8
0
  6
CONTINUOUS
 62
1
 10
201.625000
 20
198.312500
 11
194.500000
 21
198.312500
  0
LINE
  8
0
  6
CONTINUOUS
 62
1
 10
194.500000
 20
198.312500
 11
194.500000
 21
200.000000
  0
LINE
  8
0
  6
CONTINUOUS
 62
1
 10
194.500000
 20
200.000000
 11
203.687500
 21
200.000000
  0
LINE
  8
0
  6
CONTINUOUS
 62
1
 10
203.687500
 20
200.000000
 11
203.687500
 21
192.125000
  0
TEXT
  8
0
  6
CONTINUOUS
 62
1
 10
20.000000
 20
20.843750
 40
6.000000
  1
Homelight 'L' Windows
 50
90.000000
 41
1.000000
 51
0.000000
  7
STANDARD
  0
TEXT
  8
0
  6
CONTINUOUS
 62
1
 10
277.476378
 20
19.947503
 40
2.000000
  1
This drawing is the property of Crittall Windows Ltd and is a
 50
90.000000
 41
1.000000
 51
0.000000
  7
STANDARD
  0
TEXT
  8
0
  6
CONTINUOUS
 62
1
 10
281.476378
 20
19.947503
 40
2.000000
  1
confidential document and must not be copied or its contents
 50
90.000000
 41
1.000000
 51
0.000000
  7
STANDARD
  0
TEXT
  8
0
  6
CONTINUOUS
 62
1
 10
285.476378
 20
19.947503
 40
2.000000
  1
divulged without prior consent.
 50
90.000000
 41
1.000000
 51
0.000000
  7
STANDARD
  0
LINE
  8
0
  6
CONTINUOUS
 62
1
 10
46.919222
 20
112.097517
 11
80.264222
 21
112.097517
  0
LINE
  8
0
  6
CONTINUOUS
 62
1
 10
81.054222
 20
111.307517
 11
81.054222
 21
110.395413
  0
LINE
  8
0
  6
CONTINUOUS
 62
1
 10
46.129222
 20
110.395413
 11
46.129222
 21
111.307517
  0
LINE
  8
0
  6
CONTINUOUS
 62
1
 10
62.004222
 20
104.786100
 11
62.004222
 21
100.985017
  0
LINE
  8
0
  6
CONTINUOUS
 62
1
 10
65.179222
 20
100.985017
 11
65.179222
 21
104.786100
  0
LINE
  8
0
  6
CONTINUOUS
 62
1
 10
62.797972
 20
82.728767
 11
64.385472
 21
82.728767
  0
LINE
  8
0
  6
CONTINUOUS
 62
1
 10
59.427619
 20
96.072918
 11
61.402985
 21
95.579077
  0
LINE
  8
0
  6
CONTINUOUS
 62
1
 10
67.755826
 20
96.072918
 11
65.780460
 21
95.579077
  0
LINE
  8
0
  6
CONTINUOUS
 62
1
 10
58.829222
 20
96.839331
 11
58.829222
 21
97.810017
  0
LINE
  8
0
  6
CONTINUOUS
 62
1
 10
68.354222
 20
96.839331
 11
68.354222
 21
97.810017
  0
LINE
  8
0
  6
CONTINUOUS
 62
1
 10
59.066680
 20
107.952208
 11
47.597993
 21
108.812359
  0
LINE
  8
0
  6
CONTINUOUS
 62
1
 10
68.116764
 20
107.952208
 11
79.585451
 21
108.812359
  0
LINE
  8
0
  6
CONTINUOUS
 62
1
 10
62.004222
 20
94.809026
 11
62.004222
 21
83.522517
  0
LINE
  8
0
  6
CONTINUOUS
 62
1
 10
65.179222
 20
83.522517
 11
65.179222
 21
94.809026
  0
ARC
  8
0
  6
CONTINUOUS
 62
1
 10
58.829222
 20
104.786100
 40
3.175000
 50
0.000000
 51
85.710847
  0
ARC
  8
0
  6
CONTINUOUS
 62
1
 10
68.354222
 20
104.786100
 40
3.175000
 50
94.289153
 51
180.000000
  0
ARC
  8
0
  6
CONTINUOUS
 62
1
 10
47.716722
 20
110.395413
 40
1.587500
 50
180.000000
 51
265.710847
  0
ARC
  8
0
  6
CONTINUOUS
 62
1
 10
79.466722
 20
110.395413
 40
1.587500
 50
274.289153
 51
0.000000
  0
ARC
  8
0
  6
CONTINUOUS
 62
1
 10
61.210472
 20
94.809026
 40
0.793750
 50
0.000000
 51
75.963757
  0
ARC
  8
0
  6
CONTINUOUS
 62
1
 10
65.972972
 20
94.809026
 40
0.793750
 50
104.036243
 51
180.000000
  0
ARC
  8
0
  6
CONTINUOUS
 62
1
 10
62.797972
 20
83.522517
 40
0.793750
 50
180.000000
 51
270.000000
  0
ARC
  8
0
  6
CONTINUOUS
 62
1
 10
64.385472
 20
83.522517
 40
0.793750
 50
270.000000
 51
0.000000
  0
ARC
  8
0
  6
CONTINUOUS
 62
1
 10
60.416722
 20
100.985017
 40
1.587500
 50
270.000000
 51
0.000000
  0
ARC
  8
0
  6
CONTINUOUS
 62
1
 10
60.416722
 20
97.810017
 40
1.587500
 50
90.000000
 51
180.000000
  0
ARC
  8
0
  6
CONTINUOUS
 62
1
 10
66.766722
 20
100.985017
 40
1.587500
 50
180.000000
 51
270.000000
  0
ARC
  8
0
  6
CONTINUOUS
 62
1
 10
66.766722
 20
97.810017
 40
1.587500
 50
0.000000
 51
90.000000
  0
ARC
  8
0
  6
CONTINUOUS
 62
1
 10
59.619222
 20
96.839331
 40
0.790000
 50
180.000000
 51
255.963757
  0
ARC
  8
0
  6
CONTINUOUS
 62
1
 10
67.564222
 20
96.839331
 40
0.790000
 50
284.036243
 51
0.000000
  0
ARC
  8
0
  6
CONTINUOUS
 62
1
 10
46.919222
 20
111.307517
 40
0.790000
 50
90.000000
 51
180.000000
  0
ARC
  8
0
  6
CONTINUOUS
 62
1
 10
80.264222
 20
111.307517
 40
0.790000
 50
0.000000
 51
90.000000
  0
LINE
  8
0
  6
CONTINUOUS
 62
1
 10
81.054222
 20
177.729312
 11
81.054222
 21
176.817208
  0
LINE
  8
0
  6
CONTINUOUS
 62
1
 10
46.129222
 20
176.817208
 11
46.129222
 21
177.729312
  0
LINE
  8
0
  6
CONTINUOUS
 62
1
 10
62.004222
 20
171.207894
 11
62.004222
 21
167.406812
  0
LINE
  8
0
  6
CONTINUOUS
 62
1
 10
65.179222
 20
167.406812
 11
65.179222
 21
171.207894
  0
LINE
  8
0
  6
CONTINUOUS
 62
1
 10
59.427619
 20
162.494712
 11
61.402985
 21
162.000871
  0
LINE
  8
0
  6
CONTINUOUS
 62
1
 10
67.755826
 20
162.494712
 11
65.780460
 21
162.000871
  0
LINE
  8
0
  6
CONTINUOUS
 62
1
 10
58.829222
 20
163.261125
 11
58.829222
 21
164.231812
  0
LINE
  8
0
  6
CONTINUOUS
 62
1
 10
68.354222
 20
163.261125
 11
68.354222
 21
164.231812
  0
LINE
  8
0
  6
CONTINUOUS
 62
1
 10
59.066680
 20
174.374002
 11
47.597993
 21
175.234154
  0
LINE
  8
0
  6
CONTINUOUS
 62
1
 10
68.116764
 20
174.374002
 11
79.585451
 21
175.234154
  0
ARC
  8
0
  6
CONTINUOUS
 62
1
 10
58.829222
 20
171.207894
 40
3.175000
 50
0.000000
 51
85.710847
  0
ARC
  8
0
  6
CONTINUOUS
 62
1
 10
68.354222
 20
171.207894
 40
3.175000
 50
94.289153
 51
180.000000
  0
ARC
  8
0
  6
CONTINUOUS
 62
1
 10
47.716722
 20
176.817208
 40
1.587500
 50
180.000000
 51
265.710847
  0
ARC
  8
0
  6
CONTINUOUS
 62
1
 10
79.466722
 20
176.817208
 40
1.587500
 50
274.289153
 51
0.000000
  0
ARC
  8
0
  6
CONTINUOUS
 62
1
 10
61.210472
 20
161.230820
 40
0.793750
 50
0.000000
 51
75.963757
  0
ARC
  8
0
  6
CONTINUOUS
 62
1
 10
65.972972
 20
161.230820
 40
0.793750
 50
104.036243
 51
180.000000
  0
ARC
  8
0
  6
CONTINUOUS
 62
1
 10
60.416722
 20
167.406812
 40
1.587500
 50
270.000000
 51
0.000000
  0
ARC
  8
0
  6
CONTINUOUS
 62
1
 10
60.416722
 20
164.231812
 40
1.587500
 50
90.000000
 51
180.000000
  0
ARC
  8
0
  6
CONTINUOUS
 62
1
 10
66.766722
 20
167.406812
 40
1.587500
 50
180.000000
 51
270.000000
  0
ARC
  8
0
  6
CONTINUOUS
 62
1
 10
66.766722
 20
164.231812
 40
1.587500
 50
0.000000
 51
90.000000
  0
ARC
  8
0
  6
CONTINUOUS
 62
1
 10
59.619222
 20
163.261125
 40
0.790000
 50
180.000000
 51
255.963757
  0
ARC
  8
0
  6
CONTINUOUS
 62
1
 10
67.564222
 20
163.261125
 40
0.790000
 50
284.036243
 51
0.000000
  0
ARC
  8
0
  6
CONTINUOUS
 62
1
 10
46.919222
 20
177.729312
 40
0.790000
 50
90.000000
 51
180.000000
  0
ARC
  8
0
  6
CONTINUOUS
 62
1
 10
80.264222
 20
177.729312
 40
0.790000
 50
0.000000
 51
90.000000
  0
LINE
  8
0
  6
CONTINUOUS
 62
1
 10
46.919222
 20
178.519312
 11
80.264222
 21
178.519312
  0
LINE
  8
0
  6
CONTINUOUS
 62
1
 10
69.385551
 20
127.715117
 11
70.735254
 21
127.715117
  0
LINE
  8
0
  6
CONTINUOUS
 62
1
 10
70.735254
 20
127.715117
 11
70.735254
 21
130.096367
  0
LINE
  8
0
  6
CONTINUOUS
 62
1
 10
62.004004
 20
155.496367
 11
65.424479
 21
131.158425
  0
LINE
  8
0
  6
CONTINUOUS
 62
1
 10
65.179004
 20
155.496367
 11
68.566181
 21
131.395355
  0
LINE
  8
0
  6
CONTINUOUS
 62
1
 10
70.735254
 20
130.096367
 11
70.060495
 21
130.096367
  0
ARC
  8
0
  6
CONTINUOUS
 62
1
 10
70.060495
 20
131.605367
 40
1.509000
 50
188.000000
 51
270.000000
  0
ARC
  8
0
  6
CONTINUOUS
 62
1
 10
69.385551
 20
131.715117
 40
4.000000
 50
188.000000
 51
270.000000
  0
LINE
  8
0
  6
CONTINUOUS
 62
1
 10
62.004004
 20
161.226626
 11
62.004004
 21
155.496367
  0
LINE
  8
0
  6
CONTINUOUS
 62
1
 10
65.179004
 20
155.496367
 11
65.179004
 21
161.226626
  0
LINE
  8
0
  6
CONTINUOUS
 62
1
 10
46.129222
 20
34.138754
 11
46.129222
 21
67.476004
  0
LINE
  8
0
  6
CONTINUOUS
 62
1
 10
48.585775
 20
33.344879
 11
46.923097
 21
33.344879
  0
LINE
  8
0
  6
CONTINUOUS
 62
1
 10
46.923097
 20
68.269879
 11
48.585775
 21
68.269879
  0
LINE
  8
0
  6
CONTINUOUS
 62
1
 10
53.046724
 20
49.219879
 11
57.415731
 21
49.219879
  0
LINE
  8
0
  6
CONTINUOUS
 62
1
 10
57.415731
 20
52.394879
 11
53.046724
 21
52.394879
  0
LINE
  8
0
  6
CONTINUOUS
 62
1
 10
50.677292
 20
54.539186
 11
49.375711
 21
67.554998
  0
LINE
  8
0
  6
CONTINUOUS
 62
1
 10
50.677292
 20
47.075573
 11
49.375711
 21
34.059761
  0
LINE
  8
0
  6
CONTINUOUS
 62
1
 10
62.079377
 20
55.269261
 11
62.647639
 21
52.996211
  0
LINE
  8
0
  6
CONTINUOUS
 62
1
 10
61.694352
 20
55.569879
 11
59.139093
 21
55.569879
  0
LINE
  8
0
  6
CONTINUOUS
 62
1
 10
58.185782
 20
52.996117
 11
58.754068
 21
55.269261
  0
LINE
  8
0
  6
CONTINUOUS
 62
1
 10
58.185782
 20
48.618642
 11
58.754068
 21
46.345498
  0
LINE
  8
0
  6
CONTINUOUS
 62
1
 10
61.694352
 20
46.044879
 11
59.139093
 21
46.044879
  0
ARC
  8
0
  6
CONTINUOUS
 62
1
 10
57.415731
 20
48.426129
 40
0.793750
 50
14.036243
 51
90.000000
  0
ARC
  8
0
  6
CONTINUOUS
 62
1
 10
57.415731
 20
53.188629
 40
0.793750
 50
270.000000
 51
345.963757
  0
LINE
  8
0
  6
CONTINUOUS
 62
1
 10
63.417811
 20
49.219879
 11
96.600389
 21
49.219879
  0
LINE
  8
0
  6
CONTINUOUS
 62
1
 10
63.417811
 20
52.394879
 11
96.600389
 21
52.394879
  0
ARC
  8
0
  6
CONTINUOUS
 62
1
 10
53.046724
 20
46.838629
 40
2.381250
 50
90.000000
 51
174.289407
  0
ARC
  8
0
  6
CONTINUOUS
 62
1
 10
53.046724
 20
54.776129
 40
2.381250
 50
185.710593
 51
270.000000
  0
ARC
  8
0
  6
CONTINUOUS
 62
1
 10
59.139093
 20
55.173004
 40
0.396875
 50
90.000000
 51
165.963757
  0
ARC
  8
0
  6
CONTINUOUS
 62
1
 10
61.694352
 20
55.173004
 40
0.396875
 50
14.036243
 51
90.000000
  0
ARC
  8
0
  6
CONTINUOUS
 62
1
 10
61.694352
 20
46.441754
 40
0.396875
 50
270.000000
 51
349.907604
  0
ARC
  8
0
  6
CONTINUOUS
 62
1
 10
48.585775
 20
34.138754
 40
0.793875
 50
270.000000
 51
354.289407
  0
ARC
  8
0
  6
CONTINUOUS
 62
1
 10
46.923097
 20
67.476004
 40
0.793875
 50
90.000000
 51
180.000000
  0
ARC
  8
0
  6
CONTINUOUS
 62
1
 10
48.585775
 20
67.476004
 40
0.793875
 50
5.710593
 51
90.000000
  0
LINE
  8
0
  6
CONTINUOUS
 62
1
 10
106.454222
 20
50.807379
 11
106.454222
 21
53.188629
  0
LINE
  8
0
  6
CONTINUOUS
 62
1
 10
104.866722
 20
54.776129
 11
99.639306
 21
54.776129
  0
LINE
  8
0
  6
CONTINUOUS
 62
1
 10
106.454222
 20
50.807379
 11
106.454222
 21
48.426129
  0
LINE
  8
0
  6
CONTINUOUS
 62
1
 10
104.866722
 20
46.838629
 11
99.639306
 21
46.838629
  0
LINE
  8
0
  6
CONTINUOUS
 62
1
 10
97.161743
 20
52.627400
 11
99.077952
 21
54.543609
  0
LINE
  8
0
  6
CONTINUOUS
 62
1
 10
97.161743
 20
48.987359
 11
99.077952
 21
47.071150
  0
ARC
  8
0
  6
CONTINUOUS
 62
1
 10
99.639306
 20
47.632504
 40
0.793875
 50
225.000000
 51
270.000000
  0
ARC
  8
0
  6
CONTINUOUS
 62
1
 10
99.639306
 20
53.982254
 40
0.793875
 50
90.000000
 51
135.000000
  0
ARC
  8
0
  6
CONTINUOUS
 62
1
 10
96.600389
 20
53.188754
 40
0.793875
 50
270.000000
 51
315.000000
  0
ARC
  8
0
  6
CONTINUOUS
 62
1
 10
96.600389
 20
48.426004
 40
0.793875
 50
45.000000
 51
90.000000
  0
ARC
  8
0
  6
CONTINUOUS
 62
1
 10
104.866722
 20
48.426129
 40
1.587500
 50
270.000000
 51
0.000000
  0
ARC
  8
0
  6
CONTINUOUS
 62
1
 10
104.866722
 20
53.188629
 40
1.587500
 50
0.000000
 51
90.000000
  0
ARC
  8
0
  6
CONTINUOUS
 62
1
 10
46.919222
 20
34.138754
 40
0.790000
 50
180.000000
 51
270.000000
  0
LINE
  8
0
  6
CONTINUOUS
 62
1
 10
62.085086
 20
46.372208
 11
62.647663
 21
48.622517
  0
ARC
  8
0
  6
CONTINUOUS
 62
1
 10
63.417714
 20
48.430004
 40
0.793750
 50
90.000000
 51
165.963757
  0
ARC
  8
0
  6
CONTINUOUS
 62
1
 10
63.417714
 20
53.192504
 40
0.793750
 50
194.036243
 51
270.000000
  0
ARC
  8
0
  6
CONTINUOUS
 62
1
 10
59.139093
 20
46.441754
 40
0.396875
 50
194.036243
 51
270.000000
  0
LINE
  8
0
  6
CONTINUOUS
 62
1
 10
46.129222
 20
29.959186
 11
46.129222
 21
23.702645
  0
LINE
  8
0
  6
CONTINUOUS
 62
1
 10
46.129222
 20
26.186853
 11
106.454222
 21
26.186853
  0
LINE
  8
0
  6
CONTINUOUS
 62
1
 10
46.129222
 20
26.186853
 11
49.129222
 21
25.758282
  0
LINE
  8
0
  6
CONTINUOUS
 62
1
 10
49.129222
 20
25.758282
 11
49.129222
 21
26.401139
  0
LINE
  8
0
  6
CONTINUOUS
 62
1
 10
49.129222
 20
26.401139
 11
47.414937
 21
26.186853
  0
LINE
  8
0
  6
CONTINUOUS
 62
1
 10
47.414937
 20
26.186853
 11
49.129222
 21
25.972567
  0
LINE
  8
0
  6
CONTINUOUS
 62
1
 10
49.129222
 20
25.972567
 11
49.129222
 21
26.615424
  0
LINE
  8
0
  6
CONTINUOUS
 62
1
 10
49.129222
 20
26.615424
 11
46.129222
 21
26.186853
  0
LINE
  8
0
  6
CONTINUOUS
 62
1
 10
106.454222
 20
26.186853
 11
103.454222
 21
26.615424
  0
LINE
  8
0
  6
CONTINUOUS
 62
1
 10
103.454222
 20
26.615424
 11
103.454222
 21
25.972567
  0
LINE
  8
0
  6
CONTINUOUS
 62
1
 10
103.454222
 20
25.972567
 11
105.168508
 21
26.186853
  0
LINE
  8
0
  6
CONTINUOUS
 62
1
 10
105.168508
 20
26.186853
 11
103.454222
 21
26.401139
  0
LINE
  8
0
  6
CONTINUOUS
 62
1
 10
103.454222
 20
26.401139
 11
103.454222
 21
25.758282
  0
LINE
  8
0
  6
CONTINUOUS
 62
1
 10
103.454222
 20
25.758282
 11
106.454222
 21
26.186853
  0
LINE
  8
0
  6
CONTINUOUS
 62
1
 10
106.454222
 20
29.959186
 11
106.454222
 21
23.702645
  0
LINE
  8
0
  6
CONTINUOUS
 62
1
 10
46.129222
 20
79.945739
 11
46.129222
 21
73.689198
  0
LINE
  8
0
  6
CONTINUOUS
 62
1
 10
46.129222
 20
76.173406
 11
62.004222
 21
76.173406
  0
LINE
  8
0
  6
CONTINUOUS
 62
1
 10
46.129222
 20
76.173406
 11
49.129222
 21
75.744834
  0
LINE
  8
0
  6
CONTINUOUS
 62
1
 10
49.129222
 20
75.744834
 11
49.129222
 21
76.387691
  0
LINE
  8
0
  6
CONTINUOUS
 62
1
 10
49.129222
 20
76.387691
 11
47.414937
 21
76.173406
  0
LINE
  8
0
  6
CONTINUOUS
 62
1
 10
47.414937
 20
76.173406
 11
49.129222
 21
75.959120
  0
LINE
  8
0
  6
CONTINUOUS
 62
1
 10
49.129222
 20
75.959120
 11
49.129222
 21
76.601977
  0
LINE
  8
0
  6
CONTINUOUS
 62
1
 10
49.129222
 20
76.601977
 11
46.129222
 21
76.173406
  0
LINE
  8
0
  6
CONTINUOUS
 62
1
 10
62.004222
 20
76.173406
 11
59.004222
 21
76.601977
  0
LINE
  8
0
  6
CONTINUOUS
 62
1
 10
59.004222
 20
76.601977
 11
59.004222
 21
75.959120
  0
LINE
  8
0
  6
CONTINUOUS
 62
1
 10
59.004222
 20
75.959120
 11
60.718508
 21
76.173406
  0
LINE
  8
0
  6
CONTINUOUS
 62
1
 10
60.718508
 20
76.173406
 11
59.004222
 21
76.387691
  0
LINE
  8
0
  6
CONTINUOUS
 62
1
 10
59.004222
 20
76.387691
 11
59.004222
 21
75.744834
  0
LINE
  8
0
  6
CONTINUOUS
 62
1
 10
59.004222
 20
75.744834
 11
62.004222
 21
76.173406
  0
LINE
  8
0
  6
CONTINUOUS
 62
1
 10
62.004222
 20
79.945739
 11
62.004222
 21
65.195739
  0
LINE
  8
0
  6
CONTINUOUS
 62
1
 10
65.168235
 20
79.945739
 11
65.168235
 21
65.195739
  0
LINE
  8
0
  6
CONTINUOUS
 62
1
 10
65.168235
 20
76.173406
 11
81.054222
 21
76.173406
  0
LINE
  8
0
  6
CONTINUOUS
 62
1
 10
65.168235
 20
76.173406
 11
68.168235
 21
75.744834
  0
LINE
  8
0
  6
CONTINUOUS
 62
1
 10
68.168235
 20
75.744834
 11
68.168235
 21
76.387691
  0
LINE
  8
0
  6
CONTINUOUS
 62
1
 10
68.168235
 20
76.387691
 11
66.453949
 21
76.173406
  0
LINE
  8
0
  6
CONTINUOUS
 62
1
 10
66.453949
 20
76.173406
 11
68.168235
 21
75.959120
  0
LINE
  8
0
  6
CONTINUOUS
 62
1
 10
68.168235
 20
75.959120
 11
68.168235
 21
76.601977
  0
LINE
  8
0
  6
CONTINUOUS
 62
1
 10
68.168235
 20
76.601977
 11
65.168235
 21
76.173406
  0
LINE
  8
0
  6
CONTINUOUS
 62
1
 10
81.054222
 20
76.173406
 11
78.054222
 21
76.601977
  0
LINE
  8
0
  6
CONTINUOUS
 62
1
 10
78.054222
 20
76.601977
 11
78.054222
 21
75.959120
  0
LINE
  8
0
  6
CONTINUOUS
 62
1
 10
78.054222
 20
75.959120
 11
79.768508
 21
76.173406
  0
LINE
  8
0
  6
CONTINUOUS
 62
1
 10
79.768508
 20
76.173406
 11
78.054222
 21
76.387691
  0
LINE
  8
0
  6
CONTINUOUS
 62
1
 10
78.054222
 20
76.387691
 11
78.054222
 21
75.744834
  0
LINE
  8
0
  6
CONTINUOUS
 62
1
 10
78.054222
 20
75.744834
 11
81.054222
 21
76.173406
  0
LINE
  8
0
  6
CONTINUOUS
 62
1
 10
81.054222
 20
79.945739
 11
81.054222
 21
73.689198
  0
LINE
  8
0
  6
CONTINUOUS
 62
1
 10
81.054222
 20
181.089103
 11
81.054222
 21
187.345644
  0
LINE
  8
0
  6
CONTINUOUS
 62
1
 10
81.054222
 20
184.861436
 11
46.129222
 21
184.861436
  0
LINE
  8
0
  6
CONTINUOUS
 62
1
 10
81.054222
 20
184.861436
 11
78.054222
 21
185.290008
  0
LINE
  8
0
  6
CONTINUOUS
 62
1
 10
78.054222
 20
185.290008
 11
78.054222
 21
184.647151
  0
LINE
  8
0
  6
CONTINUOUS
 62
1
 10
78.054222
 20
184.647151
 11
79.768508
 21
184.861436
  0
LINE
  8
0
  6
CONTINUOUS
 62
1
 10
79.768508
 20
184.861436
 11
78.054222
 21
185.075722
  0
LINE
  8
0
  6
CONTINUOUS
 62
1
 10
78.054222
 20
185.075722
 11
78.054222
 21
184.432865
  0
LINE
  8
0
  6
CONTINUOUS
 62
1
 10
78.054222
 20
184.432865
 11
81.054222
 21
184.861436
  0
LINE
  8
0
  6
CONTINUOUS
 62
1
 10
46.129222
 20
184.861436
 11
49.129222
 21
184.432865
  0
LINE
  8
0
  6
CONTINUOUS
 62
1
 10
49.129222
 20
184.432865
 11
49.129222
 21
185.075722
  0
LINE
  8
0
  6
CONTINUOUS
 62
1
 10
49.129222
 20
185.075722
 11
47.414937
 21
184.861436
  0
LINE
  8
0
  6
CONTINUOUS
 62
1
 10
47.414937
 20
184.861436
 11
49.129222
 21
184.647151
  0
LINE
  8
0
  6
CONTINUOUS
 62
1
 10
49.129222
 20
184.647151
 11
49.129222
 21
185.290008
  0
LINE
  8
0
  6
CONTINUOUS
 62
1
 10
49.129222
 20
185.290008
 11
46.129222
 21
184.861436
  0
LINE
  8
0
  6
CONTINUOUS
 62
1
 10
46.129222
 20
181.089103
 11
46.129222
 21
187.345644
  0
LINE
  8
0
  6
CONTINUOUS
 62
1
 10
81.054222
 20
115.192744
 11
81.054222
 21
121.449284
  0
LINE
  8
0
  6
CONTINUOUS
 62
1
 10
81.054222
 20
118.965077
 11
46.129222
 21
118.965077
  0
LINE
  8
0
  6
CONTINUOUS
 62
1
 10
81.054222
 20
118.965077
 11
78.054222
 21
119.393648
  0
LINE
  8
0
  6
CONTINUOUS
 62
1
 10
78.054222
 20
119.393648
 11
78.054222
 21
118.750791
  0
LINE
  8
0
  6
CONTINUOUS
 62
1
 10
78.054222
 20
118.750791
 11
79.768508
 21
118.965077
  0
LINE
  8
0
  6
CONTINUOUS
 62
1
 10
79.768508
 20
118.965077
 11
78.054222
 21
119.179363
  0
LINE
  8
0
  6
CONTINUOUS
 62
1
 10
78.054222
 20
119.179363
 11
78.054222
 21
118.536505
  0
LINE
  8
0
  6
CONTINUOUS
 62
1
 10
78.054222
 20
118.536505
 11
81.054222
 21
118.965077
  0
LINE
  8
0
  6
CONTINUOUS
 62
1
 10
46.129222
 20
118.965077
 11
49.129222
 21
118.536505
  0
LINE
  8
0
  6
CONTINUOUS
 62
1
 10
49.129222
 20
118.536505
 11
49.129222
 21
119.179363
  0
LINE
  8
0
  6
CONTINUOUS
 62
1
 10
49.129222
 20
119.179363
 11
47.414937
 21
118.965077
  0
LINE
  8
0
  6
CONTINUOUS
 62
1
 10
47.414937
 20
118.965077
 11
49.129222
 21
118.750791
  0
LINE
  8
0
  6
CONTINUOUS
 62
1
 10
49.129222
 20
118.750791
 11
49.129222
 21
119.393648
  0
LINE
  8
0
  6
CONTINUOUS
 62
1
 10
49.129222
 20
119.393648
 11
46.129222
 21
118.965077
  0
LINE
  8
0
  6
CONTINUOUS
 62
1
 10
46.129222
 20
115.192744
 11
46.129222
 21
121.449284
  0
LINE
  8
0
  6
CONTINUOUS
 62
1
 10
36.496931
 20
68.269879
 11
37.183626
 21
68.269879
  0
LINE
  8
0
  6
CONTINUOUS
 62
1
 10
39.213541
 20
68.269879
 11
39.213541
 21
33.344879
  0
LINE
  8
0
  6
CONTINUOUS
 62
1
 10
39.213541
 20
68.269879
 11
38.784969
 21
65.269879
  0
LINE
  8
0
  6
CONTINUOUS
 62
1
 10
38.784969
 20
65.269879
 11
39.427826
 21
65.269879
  0
LINE
  8
0
  6
CONTINUOUS
 62
1
 10
39.427826
 20
65.269879
 11
39.213541
 21
66.984165
  0
LINE
  8
0
  6
CONTINUOUS
 62
1
 10
39.213541
 20
66.984165
 11
38.999255
 21
65.269879
  0
LINE
  8
0
  6
CONTINUOUS
 62
1
 10
38.999255
 20
65.269879
 11
39.642112
 21
65.269879
  0
LINE
  8
0
  6
CONTINUOUS
 62
1
 10
39.642112
 20
65.269879
 11
39.213541
 21
68.269879
  0
LINE
  8
0
  6
CONTINUOUS
 62
1
 10
39.213541
 20
33.344879
 11
39.642112
 21
36.344879
  0
LINE
  8
0
  6
CONTINUOUS
 62
1
 10
39.642112
 20
36.344879
 11
38.999255
 21
36.344879
  0
LINE
  8
0
  6
CONTINUOUS
 62
1
 10
38.999255
 20
36.344879
 11
39.213541
 21
34.630594
  0
LINE
  8
0
  6
CONTINUOUS
 62
1
 10
39.213541
 20
34.630594
 11
39.427826
 21
36.344879
  0
LINE
  8
0
  6
CONTINUOUS
 62
1
 10
39.427826
 20
36.344879
 11
38.784969
 21
36.344879
  0
LINE
  8
0
  6
CONTINUOUS
 62
1
 10
38.784969
 20
36.344879
 11
39.213541
 21
33.344879
  0
LINE
  8
0
  6
CONTINUOUS
 62
1
 10
42.993754
 20
68.269879
 11
37.183626
 21
68.269879
  0
LINE
  8
0
  6
CONTINUOUS
 62
1
 10
37.183626
 20
33.344879
 11
42.993754
 21
33.344879
  0
LINE
  8
0
  6
CONTINUOUS
 62
1
 10
43.278565
 20
112.097517
 11
37.183626
 21
112.097517
  0
LINE
  8
0
  6
CONTINUOUS
 62
1
 10
39.213541
 20
112.097517
 11
39.213541
 21
82.728767
  0
LINE
  8
0
  6
CONTINUOUS
 62
1
 10
39.213541
 20
112.097517
 11
38.784969
 21
109.097517
  0
LINE
  8
0
  6
CONTINUOUS
 62
1
 10
38.784969
 20
109.097517
 11
39.427826
 21
109.097517
  0
LINE
  8
0
  6
CONTINUOUS
 62
1
 10
39.427826
 20
109.097517
 11
39.213541
 21
110.811803
  0
LINE
  8
0
  6
CONTINUOUS
 62
1
 10
39.213541
 20
110.811803
 11
38.999255
 21
109.097517
  0
LINE
  8
0
  6
CONTINUOUS
 62
1
 10
38.999255
 20
109.097517
 11
39.642112
 21
109.097517
  0
LINE
  8
0
  6
CONTINUOUS
 62
1
 10
39.642112
 20
109.097517
 11
39.213541
 21
112.097517
  0
LINE
  8
0
  6
CONTINUOUS
 62
1
 10
39.213541
 20
82.728767
 11
39.642112
 21
85.728767
  0
LINE
  8
0
  6
CONTINUOUS
 62
1
 10
39.642112
 20
85.728767
 11
38.999255
 21
85.728767
  0
LINE
  8
0
  6
CONTINUOUS
 62
1
 10
38.999255
 20
85.728767
 11
39.213541
 21
84.014482
  0
LINE
  8
0
  6
CONTINUOUS
 62
1
 10
39.213541
 20
84.014482
 11
39.427826
 21
85.728767
  0
LINE
  8
0
  6
CONTINUOUS
 62
1
 10
39.427826
 20
85.728767
 11
38.784969
 21
85.728767
  0
LINE
  8
0
  6
CONTINUOUS
 62
1
 10
38.784969
 20
85.728767
 11
39.213541
 21
82.728767
  0
LINE
  8
0
  6
CONTINUOUS
 62
1
 10
42.993754
 20
112.097517
 11
37.183626
 21
112.097517
  0
LINE
  8
0
  6
CONTINUOUS
 62
1
 10
37.183626
 20
82.728767
 11
42.993754
 21
82.728767
  0
LINE
  8
0
  6
CONTINUOUS
 62
1
 10
43.563376
 20
178.519312
 11
37.468438
 21
178.519312
  0
LINE
  8
0
  6
CONTINUOUS
 62
1
 10
39.498352
 20
178.519312
 11
39.498352
 21
127.715117
  0
LINE
  8
0
  6
CONTINUOUS
 62
1
 10
39.498352
 20
178.519312
 11
39.069780
 21
175.519312
  0
LINE
  8
0
  6
CONTINUOUS
 62
1
 10
39.069780
 20
175.519312
 11
39.712637
 21
175.519312
  0
LINE
  8
0
  6
CONTINUOUS
 62
1
 10
39.712637
 20
175.519312
 11
39.498352
 21
177.233597
  0
LINE
  8
0
  6
CONTINUOUS
 62
1
 10
39.498352
 20
177.233597
 11
39.284066
 21
175.519312
  0
LINE
  8
0
  6
CONTINUOUS
 62
1
 10
39.284066
 20
175.519312
 11
39.926923
 21
175.519312
  0
LINE
  8
0
  6
CONTINUOUS
 62
1
 10
39.926923
 20
175.519312
 11
39.498352
 21
178.519312
  0
LINE
  8
0
  6
CONTINUOUS
 62
1
 10
39.498352
 20
127.715117
 11
39.926923
 21
130.715117
  0
LINE
  8
0
  6
CONTINUOUS
 62
1
 10
39.926923
 20
130.715117
 11
39.284066
 21
130.715117
  0
LINE
  8
0
  6
CONTINUOUS
 62
1
 10
39.284066
 20
130.715117
 11
39.498352
 21
129.000831
  0
LINE
  8
0
  6
CONTINUOUS
 62
1
 10
39.498352
 20
129.000831
 11
39.712637
 21
130.715117
  0
LINE
  8
0
  6
CONTINUOUS
 62
1
 10
39.712637
 20
130.715117
 11
39.069780
 21
130.715117
  0
LINE
  8
0
  6
CONTINUOUS
 62
1
 10
39.069780
 20
130.715117
 11
39.498352
 21
127.715117
  0
LINE
  8
0
  6
CONTINUOUS
 62
1
 10
43.278565
 20
178.519312
 11
37.468438
 21
178.519312
  0
LINE
  8
0
  6
CONTINUOUS
 62
1
 10
37.468438
 20
127.715117
 11
43.278565
 21
127.715117
  0
LINE
  8
0
  6
CONTINUOUS
 62
1
 10
119.316883
 20
147.728247
 11
166.941883
 21
147.728247
  0
LINE
  8
0
  6
CONTINUOUS
 62
1
 10
167.735633
 20
146.934497
 11
167.735633
 21
145.346997
  0
LINE
  8
0
  6
CONTINUOUS
 62
1
 10
143.923133
 20
123.915747
 11
142.335633
 21
123.915747
  0
LINE
  8
0
  6
CONTINUOUS
 62
1
 10
118.523133
 20
145.346997
 11
118.523133
 21
146.934497
  0
LINE
  8
0
  6
CONTINUOUS
 62
1
 10
141.541883
 20
124.709497
 11
141.541883
 21
142.171997
  0
LINE
  8
0
  6
CONTINUOUS
 62
1
 10
144.716883
 20
124.709497
 11
144.716883
 21
142.171997
  0
LINE
  8
0
  6
CONTINUOUS
 62
1
 10
166.941883
 20
144.553247
 11
147.098133
 21
144.553247
  0
LINE
  8
0
  6
CONTINUOUS
 62
1
 10
139.160633
 20
144.553247
 11
119.316883
 21
144.553247
  0
ARC
  8
0
  6
CONTINUOUS
 62
1
 10
147.098133
 20
142.171997
 40
2.381250
 50
90.000000
 51
180.000000
  0
ARC
  8
0
  6
CONTINUOUS
 62
1
 10
139.160633
 20
142.171997
 40
2.381250
 50
0.000000
 51
90.000000
  0
ARC
  8
0
  6
CONTINUOUS
 62
1
 10
119.316883
 20
145.346997
 40
0.793750
 50
180.000000
 51
270.000000
  0
ARC
  8
0
  6
CONTINUOUS
 62
1
 10
119.316883
 20
146.934497
 40
0.793750
 50
90.000000
 51
180.000000
  0
ARC
  8
0
  6
CONTINUOUS
 62
1
 10
166.941883
 20
146.934497
 40
0.793750
 50
0.000000
 51
90.000000
  0
ARC
  8
0
  6
CONTINUOUS
 62
1
 10
166.941883
 20
145.346997
 40
0.793750
 50
270.000000
 51
0.000000
  0
ARC
  8
0
  6
CONTINUOUS
 62
1
 10
142.335633
 20
124.709497
 40
0.793750
 50
180.000000
 51
270.000000
  0
ARC
  8
0
  6
CONTINUOUS
 62
1
 10
143.923133
 20
124.709497
 40
0.793750
 50
270.000000
 51
0.000000
  0
LINE
  8
0
  6
CONTINUOUS
 62
1
 10
118.523133
 20
120.904102
 11
118.523133
 21
114.647561
  0
LINE
  8
0
  6
CONTINUOUS
 62
1
 10
118.523133
 20
117.131768
 11
141.541883
 21
117.131768
  0
LINE
  8
0
  6
CONTINUOUS
 62
1
 10
118.523133
 20
117.131768
 11
121.523133
 21
116.703197
  0
LINE
  8
0
  6
CONTINUOUS
 62
1
 10
121.523133
 20
116.703197
 11
121.523133
 21
117.346054
  0
LINE
  8
0
  6
CONTINUOUS
 62
1
 10
121.523133
 20
117.346054
 11
119.808847
 21
117.131768
  0
LINE
  8
0
  6
CONTINUOUS
 62
1
 10
119.808847
 20
117.131768
 11
121.523133
 21
116.917483
  0
LINE
  8
0
  6
CONTINUOUS
 62
1
 10
121.523133
 20
116.917483
 11
121.523133
 21
117.560340
  0
LINE
  8
0
  6
CONTINUOUS
 62
1
 10
121.523133
 20
117.560340
 11
118.523133
 21
117.131768
  0
LINE
  8
0
  6
CONTINUOUS
 62
1
 10
141.541883
 20
117.131768
 11
138.541883
 21
117.560340
  0
LINE
  8
0
  6
CONTINUOUS
 62
1
 10
138.541883
 20
117.560340
 11
138.541883
 21
116.917483
  0
LINE
  8
0
  6
CONTINUOUS
 62
1
 10
138.541883
 20
116.917483
 11
140.256168
 21
117.131768
  0
LINE
  8
0
  6
CONTINUOUS
 62
1
 10
140.256168
 20
117.131768
 11
138.541883
 21
117.346054
  0
LINE
  8
0
  6
CONTINUOUS
 62
1
 10
138.541883
 20
117.346054
 11
138.541883
 21
116.703197
  0
LINE
  8
0
  6
CONTINUOUS
 62
1
 10
138.541883
 20
116.703197
 11
141.541883
 21
117.131768
  0
LINE
  8
0
  6
CONTINUOUS
 62
1
 10
141.541883
 20
120.904102
 11
141.541883
 21
106.131768
  0
LINE
  8
0
  6
CONTINUOUS
 62
1
 10
144.716883
 20
120.904102
 11
144.716883
 21
106.131768
  0
LINE
  8
0
  6
CONTINUOUS
 62
1
 10
144.716883
 20
117.131768
 11
167.735633
 21
117.131768
  0
LINE
  8
0
  6
CONTINUOUS
 62
1
 10
144.716883
 20
117.131768
 11
147.716883
 21
116.703197
  0
LINE
  8
0
  6
CONTINUOUS
 62
1
 10
147.716883
 20
116.703197
 11
147.716883
 21
117.346054
  0
LINE
  8
0
  6
CONTINUOUS
 62
1
 10
147.716883
 20
117.346054
 11
146.002597
 21
117.131768
  0
LINE
  8
0
  6
CONTINUOUS
 62
1
 10
146.002597
 20
117.131768
 11
147.716883
 21
116.917483
  0
LINE
  8
0
  6
CONTINUOUS
 62
1
 10
147.716883
 20
116.917483
 11
147.716883
 21
117.560340
  0
LINE
  8
0
  6
CONTINUOUS
 62
1
 10
147.716883
 20
117.560340
 11
144.716883
 21
117.131768
  0
LINE
  8
0
  6
CONTINUOUS
 62
1
 10
167.735633
 20
117.131768
 11
164.735633
 21
117.560340
  0
LINE
  8
0
  6
CONTINUOUS
 62
1
 10
164.735633
 20
117.560340
 11
164.735633
 21
116.917483
  0
LINE
  8
0
  6
CONTINUOUS
 62
1
 10
164.735633
 20
116.917483
 11
166.449918
 21
117.131768
  0
LINE
  8
0
  6
CONTINUOUS
 62
1
 10
166.449918
 20
117.131768
 11
164.735633
 21
117.346054
  0
LINE
  8
0
  6
CONTINUOUS
 62
1
 10
164.735633
 20
117.346054
 11
164.735633
 21
116.703197
  0
LINE
  8
0
  6
CONTINUOUS
 62
1
 10
164.735633
 20
116.703197
 11
167.735633
 21
117.131768
  0
LINE
  8
0
  6
CONTINUOUS
 62
1
 10
167.735633
 20
120.904102
 11
167.735633
 21
114.647561
  0
LINE
  8
0
  6
CONTINUOUS
 62
1
 10
167.735633
 20
150.691060
 11
167.735633
 21
156.947601
  0
LINE
  8
0
  6
CONTINUOUS
 62
1
 10
167.735633
 20
154.463394
 11
118.523133
 21
154.463394
  0
LINE
  8
0
  6
CONTINUOUS
 62
1
 10
167.735633
 20
154.463394
 11
164.735633
 21
154.891965
  0
LINE
  8
0
  6
CONTINUOUS
 62
1
 10
164.735633
 20
154.891965
 11
164.735633
 21
154.249108
  0
LINE
  8
0
  6
CONTINUOUS
 62
1
 10
164.735633
 20
154.249108
 11
166.449918
 21
154.463394
  0
LINE
  8
0
  6
CONTINUOUS
 62
1
 10
166.449918
 20
154.463394
 11
164.735633
 21
154.677679
  0
LINE
  8
0
  6
CONTINUOUS
 62
1
 10
164.735633
 20
154.677679
 11
164.735633
 21
154.034822
  0
LINE
  8
0
  6
CONTINUOUS
 62
1
 10
164.735633
 20
154.034822
 11
167.735633
 21
154.463394
  0
LINE
  8
0
  6
CONTINUOUS
 62
1
 10
118.523133
 20
154.463394
 11
121.523133
 21
154.034822
  0
LINE
  8
0
  6
CONTINUOUS
 62
1
 10
121.523133
 20
154.034822
 11
121.523133
 21
154.677679
  0
LINE
  8
0
  6
CONTINUOUS
 62
1
 10
121.523133
 20
154.677679
 11
119.808847
 21
154.463394
  0
LINE
  8
0
  6
CONTINUOUS
 62
1
 10
119.808847
 20
154.463394
 11
121.523133
 21
154.249108
  0
LINE
  8
0
  6
CONTINUOUS
 62
1
 10
121.523133
 20
154.249108
 11
121.523133
 21
154.891965
  0
LINE
  8
0
  6
CONTINUOUS
 62
1
 10
121.523133
 20
154.891965
 11
118.523133
 21
154.463394
  0
LINE
  8
0
  6
CONTINUOUS
 62
1
 10
118.523133
 20
150.691060
 11
118.523133
 21
156.947601
  0
LINE
  8
0
  6
CONTINUOUS
 62
1
 10
116.854041
 20
147.728247
 11
111.857300
 21
147.728247
  0
LINE
  8
0
  6
CONTINUOUS
 62
1
 10
113.887214
 20
147.728247
 11
113.887214
 21
123.915747
  0
LINE
  8
0
  6
CONTINUOUS
 62
1
 10
113.887214
 20
147.728247
 11
113.458643
 21
144.728247
  0
LINE
  8
0
  6
CONTINUOUS
 62
1
 10
113.458643
 20
144.728247
 11
114.101500
 21
144.728247
  0
LINE
  8
0
  6
CONTINUOUS
 62
1
 10
114.101500
 20
144.728247
 11
113.887214
 21
146.442533
  0
LINE
  8
0
  6
CONTINUOUS
 62
1
 10
113.887214
 20
146.442533
 11
113.672929
 21
144.728247
  0
LINE
  8
0
  6
CONTINUOUS
 62
1
 10
113.672929
 20
144.728247
 11
114.315786
 21
144.728247
  0
LINE
  8
0
  6
CONTINUOUS
 62
1
 10
114.315786
 20
144.728247
 11
113.887214
 21
147.728247
  0
LINE
  8
0
  6
CONTINUOUS
 62
1
 10
113.887214
 20
123.915747
 11
114.315786
 21
126.915747
  0
LINE
  8
0
  6
CONTINUOUS
 62
1
 10
114.315786
 20
126.915747
 11
113.672929
 21
126.915747
  0
LINE
  8
0
  6
CONTINUOUS
 62
1
 10
113.672929
 20
126.915747
 11
113.887214
 21
125.201461
  0
LINE
  8
0
  6
CONTINUOUS
 62
1
 10
113.887214
 20
125.201461
 11
114.101500
 21
126.915747
  0
LINE
  8
0
  6
CONTINUOUS
 62
1
 10
114.101500
 20
126.915747
 11
113.458643
 21
126.915747
  0
LINE
  8
0
  6
CONTINUOUS
 62
1
 10
113.458643
 20
126.915747
 11
113.887214
 21
123.915747
  0
LINE
  8
0
  6
CONTINUOUS
 62
1
 10
116.569230
 20
147.728247
 11
111.857300
 21
147.728247
  0
LINE
  8
0
  6
CONTINUOUS
 62
1
 10
111.857300
 20
123.915747
 11
116.569230
 21
123.915747
  0
LINE
  8
0
  6
CONTINUOUS
 62
1
 10
157.183289
 20
107.131768
 11
144.716883
 21
107.131768
  0
LINE
  8
0
  6
CONTINUOUS
 62
1
 10
144.716883
 20
107.131768
 11
147.716883
 21
106.703197
  0
LINE
  8
0
  6
CONTINUOUS
 62
1
 10
147.716883
 20
106.703197
 11
147.716883
 21
107.346054
  0
LINE
  8
0
  6
CONTINUOUS
 62
1
 10
147.716883
 20
107.346054
 11
146.002597
 21
107.131768
  0
LINE
  8
0
  6
CONTINUOUS
 62
1
 10
146.002597
 20
107.131768
 11
147.716883
 21
106.917483
  0
LINE
  8
0
  6
CONTINUOUS
 62
1
 10
147.716883
 20
106.917483
 11
147.716883
 21
107.560340
  0
LINE
  8
0
  6
CONTINUOUS
 62
1
 10
147.716883
 20
107.560340
 11
144.716883
 21
107.131768
  0
LINE
  8
0
  6
CONTINUOUS
 62
1
 10
240.494943
 20
81.306453
 11
197.632443
 21
81.306453
  0
LINE
  8
0
  6
CONTINUOUS
 62
1
 10
196.044943
 20
79.718953
 11
196.044943
 21
79.103003
  0
LINE
  8
0
  6
CONTINUOUS
 62
1
 10
196.838693
 20
78.309253
 11
205.569943
 21
78.309253
  0
LINE
  8
0
  6
CONTINUOUS
 62
1
 10
242.082443
 20
79.718953
 11
242.082443
 21
79.274017
  0
LINE
  8
0
  6
CONTINUOUS
 62
1
 10
230.870917
 20
77.827607
 11
241.338205
 21
78.481813
  0
LINE
  8
0
  6
CONTINUOUS
 62
1
 10
210.332443
 20
56.084253
 11
227.794943
 21
56.084253
  0
LINE
  8
0
  6
CONTINUOUS
 62
1
 10
229.382443
 20
76.243199
 11
229.382443
 21
57.671753
  0
LINE
  8
0
  6
CONTINUOUS
 62
1
 10
208.744943
 20
57.671753
 11
208.744943
 21
58.103888
  0
LINE
  8
0
  6
CONTINUOUS
 62
1
 10
226.207443
 20
61.173108
 11
226.207443
 21
73.781604
  0
LINE
  8
0
  6
CONTINUOUS
 62
1
 10
209.502650
 20
58.896819
 11
224.692027
 21
59.587245
  0
ARC
  8
0
  6
CONTINUOUS
 62
1
 10
224.619943
 20
61.173108
 40
1.587500
 50
272.602562
 51
0.000000
  0
ARC
  8
0
  6
CONTINUOUS
 62
1
 10
227.794943
 20
57.671753
 40
1.587500
 50
270.000000
 51
0.000000
  0
LINE
  8
0
  6
CONTINUOUS
 62
1
 10
223.275954
 20
76.947252
 11
205.569943
 21
78.309253
  0
ARC
  8
0
  6
CONTINUOUS
 62
1
 10
230.969943
 20
76.243199
 40
1.587500
 50
93.576334
 51
180.000000
  0
ARC
  8
0
  6
CONTINUOUS
 62
1
 10
223.032443
 20
73.781604
 40
3.175000
 50
0.000000
 51
85.601295
  0
ARC
  8
0
  6
CONTINUOUS
 62
1
 10
210.332443
 20
57.671753
 40
1.587500
 50
180.000000
 51
270.000000
  0
ARC
  8
0
  6
CONTINUOUS
 62
1
 10
197.632443
 20
79.718953
 40
1.587500
 50
90.000000
 51
180.000000
  0
ARC
  8
0
  6
CONTINUOUS
 62
1
 10
240.494943
 20
79.718953
 40
1.587500
 50
0.000000
 51
90.000000
  0
ARC
  8
0
  6
CONTINUOUS
 62
1
 10
241.288693
 20
79.274017
 40
0.793750
 50
273.576334
 51
0.000000
  0
ARC
  8
0
  6
CONTINUOUS
 62
1
 10
196.838693
 20
79.103003
 40
0.793750
 50
180.000000
 51
270.000000
  0
ARC
  8
0
  6
CONTINUOUS
 62
1
 10
209.538693
 20
58.103888
 40
0.793750
 50
92.602562
 51
180.000000
  0
LINE
  8
0
  6
CONTINUOUS
 62
1
 10
132.016883
 20
81.306453
 11
149.479383
 21
81.306453
  0
LINE
  8
0
  6
CONTINUOUS
 62
1
 10
162.592899
 20
55.906453
 11
119.316883
 21
55.906453
  0
LINE
  8
0
  6
CONTINUOUS
 62
1
 10
118.523133
 20
56.700203
 11
118.523133
 21
58.350210
  0
LINE
  8
0
  6
CONTINUOUS
 62
1
 10
131.223133
 20
80.512703
 11
131.223133
 21
79.765873
  0
LINE
  8
0
  6
CONTINUOUS
 62
1
 10
137.573133
 20
61.413774
 11
137.573133
 21
75.936286
  0
LINE
  8
0
  6
CONTINUOUS
 62
1
 10
134.398133
 20
76.458862
 11
134.398133
 21
61.387688
  0
LINE
  8
0
  6
CONTINUOUS
 62
1
 10
131.595530
 20
79.093192
 11
133.653339
 21
77.804225
  0
LINE
  8
0
  6
CONTINUOUS
 62
1
 10
150.273133
 20
80.512703
 11
150.273133
 21
79.625911
  0
LINE
  8
0
  6
CONTINUOUS
 62
1
 10
149.577835
 20
78.838291
 11
138.963727
 21
77.511527
  0
LINE
  8
0
  6
CONTINUOUS
 62
1
 10
162.154224
 20
59.105529
 11
139.110950
 21
59.827051
  0
LINE
  8
0
  6
CONTINUOUS
 62
1
 10
119.278490
 20
59.143031
 11
132.887418
 21
59.802046
  0
ARC
  8
0
  6
CONTINUOUS
 62
1
 10
139.160633
 20
61.413774
 40
1.587500
 50
180.000000
 51
268.206561
  0
ARC
  8
0
  6
CONTINUOUS
 62
1
 10
139.160633
 20
75.936286
 40
1.587500
 50
97.125016
 51
180.000000
  0
ARC
  8
0
  6
CONTINUOUS
 62
1
 10
132.810633
 20
76.458862
 40
1.587500
 50
0.000000
 51
57.937878
  0
ARC
  8
0
  6
CONTINUOUS
 62
1
 10
132.810633
 20
61.387688
 40
1.587500
 50
272.772394
 51
0.000000
  0
ARC
  8
0
  6
CONTINUOUS
 62
1
 10
119.316883
 20
58.350210
 40
0.793750
 50
92.772394
 51
180.000000
  0
ARC
  8
0
  6
CONTINUOUS
 62
1
 10
119.316883
 20
56.700203
 40
0.793750
 50
180.000000
 51
270.000000
  0
ARC
  8
0
  6
CONTINUOUS
 62
1
 10
149.479383
 20
79.625911
 40
0.793750
 50
277.125016
 51
0.000000
  0
ARC
  8
0
  6
CONTINUOUS
 62
1
 10
149.479383
 20
80.512703
 40
0.793750
 50
0.000000
 51
90.000000
  0
ARC
  8
0
  6
CONTINUOUS
 62
1
 10
132.016883
 20
80.512703
 40
0.793750
 50
90.000000
 51
180.000000
  0
ARC
  8
0
  6
CONTINUOUS
 62
1
 10
132.016883
 20
79.765873
 40
0.793750
 50
180.000000
 51
237.937878
  0
LINE
  8
0
  6
CONTINUOUS
 62
1
 10
163.185745
 20
58.286322
 11
163.185745
 21
56.674357
  0
ARC
  8
0
  6
CONTINUOUS
 62
1
 10
162.391995
 20
56.674357
 40
0.793750
 50
284.661465
 51
0.000000
  0
ARC
  8
0
  6
CONTINUOUS
 62
1
 10
162.391995
 20
58.286322
 40
0.793750
 50
0.000000
 51
88.206561
  0
LINE
  8
0
  6
CONTINUOUS
 62
1
 10
118.523133
 20
48.627649
 11
118.523133
 21
43.659234
  0
LINE
  8
0
  6
CONTINUOUS
 62
1
 10
118.523133
 20
46.143442
 11
163.185745
 21
46.143442
  0
LINE
  8
0
  6
CONTINUOUS
 62
1
 10
118.523133
 20
46.143442
 11
121.523133
 21
45.714870
  0
LINE
  8
0
  6
CONTINUOUS
 62
1
 10
121.523133
 20
45.714870
 11
121.523133
 21
46.357727
  0
LINE
  8
0
  6
CONTINUOUS
 62
1
 10
121.523133
 20
46.357727
 11
119.808847
 21
46.143442
  0
LINE
  8
0
  6
CONTINUOUS
 62
1
 10
119.808847
 20
46.143442
 11
121.523133
 21
45.929156
  0
LINE
  8
0
  6
CONTINUOUS
 62
1
 10
121.523133
 20
45.929156
 11
121.523133
 21
46.572013
  0
LINE
  8
0
  6
CONTINUOUS
 62
1
 10
121.523133
 20
46.572013
 11
118.523133
 21
46.143442
  0
LINE
  8
0
  6
CONTINUOUS
 62
1
 10
163.185745
 20
46.143442
 11
160.185745
 21
46.572013
  0
LINE
  8
0
  6
CONTINUOUS
 62
1
 10
160.185745
 20
46.572013
 11
160.185745
 21
45.929156
  0
LINE
  8
0
  6
CONTINUOUS
 62
1
 10
160.185745
 20
45.929156
 11
161.900031
 21
46.143442
  0
LINE
  8
0
  6
CONTINUOUS
 62
1
 10
161.900031
 20
46.143442
 11
160.185745
 21
46.357727
  0
LINE
  8
0
  6
CONTINUOUS
 62
1
 10
160.185745
 20
46.357727
 11
160.185745
 21
45.714870
  0
LINE
  8
0
  6
CONTINUOUS
 62
1
 10
160.185745
 20
45.714870
 11
163.185745
 21
46.143442
  0
LINE
  8
0
  6
CONTINUOUS
 62
1
 10
163.185745
 20
48.627649
 11
163.185745
 21
43.659234
  0
LINE
  8
0
  6
CONTINUOUS
 62
1
 10
208.744943
 20
49.348733
 11
208.744943
 21
44.369633
  0
LINE
  8
0
  6
CONTINUOUS
 62
1
 10
208.744943
 20
46.853840
 11
229.382443
 21
46.853840
  0
LINE
  8
0
  6
CONTINUOUS
 62
1
 10
208.744943
 20
46.853840
 11
211.744943
 21
46.425269
  0
LINE
  8
0
  6
CONTINUOUS
 62
1
 10
211.744943
 20
46.425269
 11
211.744943
 21
47.068126
  0
LINE
  8
0
  6
CONTINUOUS
 62
1
 10
211.744943
 20
47.068126
 11
210.030657
 21
46.853840
  0
LINE
  8
0
  6
CONTINUOUS
 62
1
 10
210.030657
 20
46.853840
 11
211.744943
 21
46.639555
  0
LINE
  8
0
  6
CONTINUOUS
 62
1
 10
211.744943
 20
46.639555
 11
211.744943
 21
47.282412
  0
LINE
  8
0
  6
CONTINUOUS
 62
1
 10
211.744943
 20
47.282412
 11
208.744943
 21
46.853840
  0
LINE
  8
0
  6
CONTINUOUS
 62
1
 10
229.382443
 20
46.853840
 11
226.382443
 21
47.282412
  0
LINE
  8
0
  6
CONTINUOUS
 62
1
 10
226.382443
 20
47.282412
 11
226.382443
 21
46.639555
  0
LINE
  8
0
  6
CONTINUOUS
 62
1
 10
226.382443
 20
46.639555
 11
228.096728
 21
46.853840
  0
LINE
  8
0
  6
CONTINUOUS
 62
1
 10
228.096728
 20
46.853840
 11
226.382443
 21
47.068126
  0
LINE
  8
0
  6
CONTINUOUS
 62
1
 10
226.382443
 20
47.068126
 11
226.382443
 21
46.425269
  0
LINE
  8
0
  6
CONTINUOUS
 62
1
 10
226.382443
 20
46.425269
 11
229.382443
 21
46.853840
  0
LINE
  8
0
  6
CONTINUOUS
 62
1
 10
229.382443
 20
49.348733
 11
229.382443
 21
44.369633
  0
LINE
  8
0
  6
CONTINUOUS
 62
1
 10
242.082443
 20
82.315505
 11
242.082443
 21
88.572046
  0
LINE
  8
0
  6
CONTINUOUS
 62
1
 10
242.082443
 20
86.087839
 11
196.044943
 21
86.087839
  0
LINE
  8
0
  6
CONTINUOUS
 62
1
 10
242.082443
 20
86.087839
 11
239.082443
 21
86.516410
  0
LINE
  8
0
  6
CONTINUOUS
 62
1
 10
239.082443
 20
86.516410
 11
239.082443
 21
85.873553
  0
LINE
  8
0
  6
CONTINUOUS
 62
1
 10
239.082443
 20
85.873553
 11
240.796728
 21
86.087839
  0
LINE
  8
0
  6
CONTINUOUS
 62
1
 10
240.796728
 20
86.087839
 11
239.082443
 21
86.302124
  0
LINE
  8
0
  6
CONTINUOUS
 62
1
 10
239.082443
 20
86.302124
 11
239.082443
 21
85.659267
  0
LINE
  8
0
  6
CONTINUOUS
 62
1
 10
239.082443
 20
85.659267
 11
242.082443
 21
86.087839
  0
LINE
  8
0
  6
CONTINUOUS
 62
1
 10
196.044943
 20
86.087839
 11
199.044943
 21
85.659267
  0
LINE
  8
0
  6
CONTINUOUS
 62
1
 10
199.044943
 20
85.659267
 11
199.044943
 21
86.302124
  0
LINE
  8
0
  6
CONTINUOUS
 62
1
 10
199.044943
 20
86.302124
 11
197.330657
 21
86.087839
  0
LINE
  8
0
  6
CONTINUOUS
 62
1
 10
197.330657
 20
86.087839
 11
199.044943
 21
85.873553
  0
LINE
  8
0
  6
CONTINUOUS
 62
1
 10
199.044943
 20
85.873553
 11
199.044943
 21
86.516410
  0
LINE
  8
0
  6
CONTINUOUS
 62
1
 10
199.044943
 20
86.516410
 11
196.044943
 21
86.087839
  0
LINE
  8
0
  6
CONTINUOUS
 62
1
 10
196.044943
 20
82.315505
 11
196.044943
 21
88.572046
  0
LINE
  8
0
  6
CONTINUOUS
 62
1
 10
115.752609
 20
81.306453
 11
109.657670
 21
81.306453
  0
LINE
  8
0
  6
CONTINUOUS
 62
1
 10
109.657670
 20
81.306453
 11
109.657670
 21
56.210260
  0
LINE
  8
0
  6
CONTINUOUS
 62
1
 10
109.657670
 20
81.306453
 11
109.229099
 21
78.306453
  0
LINE
  8
0
  6
CONTINUOUS
 62
1
 10
109.229099
 20
78.306453
 11
109.871956
 21
78.306453
  0
LINE
  8
0
  6
CONTINUOUS
 62
1
 10
109.871956
 20
78.306453
 11
109.657670
 21
80.020739
  0
LINE
  8
0
  6
CONTINUOUS
 62
1
 10
109.657670
 20
80.020739
 11
109.443385
 21
78.306453
  0
LINE
  8
0
  6
CONTINUOUS
 62
1
 10
109.443385
 20
78.306453
 11
110.086242
 21
78.306453
  0
LINE
  8
0
  6
CONTINUOUS
 62
1
 10
110.086242
 20
78.306453
 11
109.657670
 21
81.306453
  0
LINE
  8
0
  6
CONTINUOUS
 62
1
 10
109.657670
 20
56.210260
 11
110.086242
 21
59.210260
  0
LINE
  8
0
  6
CONTINUOUS
 62
1
 10
110.086242
 20
59.210260
 11
109.443385
 21
59.210260
  0
LINE
  8
0
  6
CONTINUOUS
 62
1
 10
109.443385
 20
59.210260
 11
109.657670
 21
57.495975
  0
LINE
  8
0
  6
CONTINUOUS
 62
1
 10
109.657670
 20
57.495975
 11
109.871956
 21
59.210260
  0
LINE
  8
0
  6
CONTINUOUS
 62
1
 10
109.871956
 20
59.210260
 11
109.229099
 21
59.210260
  0
LINE
  8
0
  6
CONTINUOUS
 62
1
 10
109.229099
 20
59.210260
 11
109.657670
 21
56.210260
  0
LINE
  8
0
  6
CONTINUOUS
 62
1
 10
113.437884
 20
81.306453
 11
107.627756
 21
81.306453
  0
LINE
  8
0
  6
CONTINUOUS
 62
1
 10
107.627756
 20
56.210260
 11
113.437884
 21
56.210260
  0
LINE
  8
0
  6
CONTINUOUS
 62
1
 10
195.121202
 20
81.306453
 11
186.996348
 21
81.306453
  0
LINE
  8
0
  6
CONTINUOUS
 62
1
 10
189.026263
 20
81.306453
 11
189.026263
 21
56.084253
  0
LINE
  8
0
  6
CONTINUOUS
 62
1
 10
189.026263
 20
81.306453
 11
188.597691
 21
78.306453
  0
LINE
  8
0
  6
CONTINUOUS
 62
1
 10
188.597691
 20
78.306453
 11
189.240548
 21
78.306453
  0
LINE
  8
0
  6
CONTINUOUS
 62
1
 10
189.240548
 20
78.306453
 11
189.026263
 21
80.020739
  0
LINE
  8
0
  6
CONTINUOUS
 62
1
 10
189.026263
 20
80.020739
 11
188.811977
 21
78.306453
  0
LINE
  8
0
  6
CONTINUOUS
 62
1
 10
188.811977
 20
78.306453
 11
189.454834
 21
78.306453
  0
LINE
  8
0
  6
CONTINUOUS
 62
1
 10
189.454834
 20
78.306453
 11
189.026263
 21
81.306453
  0
LINE
  8
0
  6
CONTINUOUS
 62
1
 10
189.026263
 20
56.084253
 11
189.454834
 21
59.084253
  0
LINE
  8
0
  6
CONTINUOUS
 62
1
 10
189.454834
 20
59.084253
 11
188.811977
 21
59.084253
  0
LINE
  8
0
  6
CONTINUOUS
 62
1
 10
188.811977
 20
59.084253
 11
189.026263
 21
57.369967
  0
LINE
  8
0
  6
CONTINUOUS
 62
1
 10
189.026263
 20
57.369967
 11
189.240548
 21
59.084253
  0
LINE
  8
0
  6
CONTINUOUS
 62
1
 10
189.240548
 20
59.084253
 11
188.597691
 21
59.084253
  0
LINE
  8
0
  6
CONTINUOUS
 62
1
 10
188.597691
 20
59.084253
 11
189.026263
 21
56.084253
  0
LINE
  8
0
  6
CONTINUOUS
 62
1
 10
192.806476
 20
81.306453
 11
186.996348
 21
81.306453
  0
LINE
  8
0
  6
CONTINUOUS
 62
1
 10
186.996348
 20
56.084253
 11
192.806476
 21
56.084253
  0
LINE
  8
0
  6
CONTINUOUS
 62
1
 10
242.082443
 20
49.348733
 11
242.082443
 21
44.369633
  0
LINE
  8
0
  6
CONTINUOUS
 62
1
 10
257.082443
 20
46.853840
 11
242.082443
 21
46.853840
  0
LINE
  8
0
  6
CONTINUOUS
 62
1
 10
242.082443
 20
46.853840
 11
245.082443
 21
46.425269
  0
LINE
  8
0
  6
CONTINUOUS
 62
1
 10
245.082443
 20
46.425269
 11
245.082443
 21
47.068126
  0
LINE
  8
0
  6
CONTINUOUS
 62
1
 10
245.082443
 20
47.068126
 11
243.368157
 21
46.853840
  0
LINE
  8
0
  6
CONTINUOUS
 62
1
 10
243.368157
 20
46.853840
 11
245.082443
 21
46.639555
  0
LINE
  8
0
  6
CONTINUOUS
 62
1
 10
245.082443
 20
46.639555
 11
245.082443
 21
47.282412
  0
LINE
  8
0
  6
CONTINUOUS
 62
1
 10
245.082443
 20
47.282412
 11
242.082443
 21
46.853840
  0
LINE
  8
0
  6
CONTINUOUS
 62
1
 10
229.382443
 20
49.348733
 11
229.382443
 21
44.369633
  0
LINE
  8
0
  6
CONTINUOUS
 62
1
 10
150.273133
 20
82.437722
 11
150.273133
 21
87.611432
  0
LINE
  8
0
  6
CONTINUOUS
 62
1
 10
150.273133
 20
86.228867
 11
131.223133
 21
86.228867
  0
LINE
  8
0
  6
CONTINUOUS
 62
1
 10
150.273133
 20
86.228867
 11
147.273133
 21
86.657438
  0
LINE
  8
0
  6
CONTINUOUS
 62
1
 10
147.273133
 20
86.657438
 11
147.273133
 21
86.014581
  0
LINE
  8
0
  6
CONTINUOUS
 62
1
 10
147.273133
 20
86.014581
 11
148.987418
 21
86.228867
  0
LINE
  8
0
  6
CONTINUOUS
 62
1
 10
148.987418
 20
86.228867
 11
147.273133
 21
86.443153
  0
LINE
  8
0
  6
CONTINUOUS
 62
1
 10
147.273133
 20
86.443153
 11
147.273133
 21
85.800295
  0
LINE
  8
0
  6
CONTINUOUS
 62
1
 10
147.273133
 20
85.800295
 11
150.273133
 21
86.228867
  0
LINE
  8
0
  6
CONTINUOUS
 62
1
 10
131.223133
 20
86.228867
 11
134.223133
 21
85.800295
  0
LINE
  8
0
  6
CONTINUOUS
 62
1
 10
134.223133
 20
85.800295
 11
134.223133
 21
86.443153
  0
LINE
  8
0
  6
CONTINUOUS
 62
1
 10
134.223133
 20
86.443153
 11
132.508847
 21
86.228867
  0
LINE
  8
0
  6
CONTINUOUS
 62
1
 10
132.508847
 20
86.228867
 11
134.223133
 21
86.014581
  0
LINE
  8
0
  6
CONTINUOUS
 62
1
 10
134.223133
 20
86.014581
 11
134.223133
 21
86.657438
  0
LINE
  8
0
  6
CONTINUOUS
 62
1
 10
134.223133
 20
86.657438
 11
131.223133
 21
86.228867
  0
LINE
  8
0
  6
CONTINUOUS
 62
1
 10
131.223133
 20
82.437722
 11
131.223133
 21
87.611432
  0
LINE
  8
0
  6
CONTINUOUS
 62
1
 10
240.494943
 20
147.728247
 11
214.698068
 21
147.728247
  0
LINE
  8
0
  6
CONTINUOUS
 62
1
 10
242.082443
 20
146.140747
 11
242.082443
 21
145.524797
  0
LINE
  8
0
  6
CONTINUOUS
 62
1
 10
241.288693
 20
144.731047
 11
222.635568
 21
144.731047
  0
LINE
  8
0
  6
CONTINUOUS
 62
1
 10
213.904318
 20
146.934497
 11
213.904318
 21
146.494254
  0
LINE
  8
0
  6
CONTINUOUS
 62
1
 10
217.873068
 20
141.861859
 11
217.873068
 21
127.884497
  0
LINE
  8
0
  6
CONTINUOUS
 62
1
 10
219.460568
 20
122.506047
 11
202.791818
 21
122.506047
  0
LINE
  8
0
  6
CONTINUOUS
 62
1
 10
221.048068
 20
143.143547
 11
221.048068
 21
124.093547
  0
LINE
  8
0
  6
CONTINUOUS
 62
1
 10
201.998068
 20
125.503247
 11
215.491818
 21
125.503247
  0
LINE
  8
0
  6
CONTINUOUS
 62
1
 10
217.347549
 20
143.041839
 11
214.167077
 21
145.904264
  0
LINE
  8
0
  6
CONTINUOUS
 62
1
 10
201.204318
 20
124.709497
 11
201.204318
 21
124.093547
  0
ARC
  8
0
  6
CONTINUOUS
 62
1
 10
202.791818
 20
124.093547
 40
1.587500
 50
180.000000
 51
270.000000
  0
ARC
  8
0
  6
CONTINUOUS
 62
1
 10
219.460568
 20
124.093547
 40
1.587500
 50
270.000000
 51
0.000000
  0
ARC
  8
0
  6
CONTINUOUS
 62
1
 10
222.635568
 20
143.143547
 40
1.587500
 50
90.000000
 51
180.000000
  0
ARC
  8
0
  6
CONTINUOUS
 62
1
 10
240.494943
 20
146.140747
 40
1.587500
 50
0.000000
 51
90.000000
  0
ARC
  8
0
  6
CONTINUOUS
 62
1
 10
216.285568
 20
141.861859
 40
1.587500
 50
0.000000
 51
48.012788
  0
ARC
  8
0
  6
CONTINUOUS
 62
1
 10
215.491818
 20
127.884497
 40
2.381250
 50
270.000000
 51
0.000000
  0
ARC
  8
0
  6
CONTINUOUS
 62
1
 10
201.998068
 20
124.709497
 40
0.793750
 50
90.000000
 51
180.000000
  0
ARC
  8
0
  6
CONTINUOUS
 62
1
 10
241.288693
 20
145.524797
 40
0.793750
 50
270.000000
 51
0.000000
  0
ARC
  8
0
  6
CONTINUOUS
 62
1
 10
214.698068
 20
146.494254
 40
0.793750
 50
180.000000
 51
228.012788
  0
ARC
  8
0
  6
CONTINUOUS
 62
1
 10
214.698068
 20
146.934497
 40
0.793750
 50
90.000000
 51
180.000000
  0
LINE
  8
0
  6
CONTINUOUS
 62
1
 10
200.854705
 20
118.324570
 11
200.854705
 21
113.803689
  0
LINE
  8
0
  6
CONTINUOUS
 62
1
 10
200.854705
 20
116.287896
 11
221.048068
 21
116.287896
  0
LINE
  8
0
  6
CONTINUOUS
 62
1
 10
200.854705
 20
116.287896
 11
203.854705
 21
115.859325
  0
LINE
  8
0
  6
CONTINUOUS
 62
1
 10
203.854705
 20
115.859325
 11
203.854705
 21
116.502182
  0
LINE
  8
0
  6
CONTINUOUS
 62
1
 10
203.854705
 20
116.502182
 11
202.140420
 21
116.287896
  0
LINE
  8
0
  6
CONTINUOUS
 62
1
 10
202.140420
 20
116.287896
 11
203.854705
 21
116.073611
  0
LINE
  8
0
  6
CONTINUOUS
 62
1
 10
203.854705
 20
116.073611
 11
203.854705
 21
116.716468
  0
LINE
  8
0
  6
CONTINUOUS
 62
1
 10
203.854705
 20
116.716468
 11
200.854705
 21
116.287896
  0
LINE
  8
0
  6
CONTINUOUS
 62
1
 10
221.048068
 20
116.287896
 11
218.048068
 21
116.716468
  0
LINE
  8
0
  6
CONTINUOUS
 62
1
 10
218.048068
 20
116.716468
 11
218.048068
 21
116.073611
  0
LINE
  8
0
  6
CONTINUOUS
 62
1
 10
218.048068
 20
116.073611
 11
219.762353
 21
116.287896
  0
LINE
  8
0
  6
CONTINUOUS
 62
1
 10
219.762353
 20
116.287896
 11
218.048068
 21
116.502182
  0
LINE
  8
0
  6
CONTINUOUS
 62
1
 10
218.048068
 20
116.502182
 11
218.048068
 21
115.859325
  0
LINE
  8
0
  6
CONTINUOUS
 62
1
 10
218.048068
 20
115.859325
 11
221.048068
 21
116.287896
  0
LINE
  8
0
  6
CONTINUOUS
 62
1
 10
221.048068
 20
118.324570
 11
221.048068
 21
113.803689
  0
LINE
  8
0
  6
CONTINUOUS
 62
1
 10
196.185441
 20
147.728247
 11
190.090502
 21
147.728247
  0
LINE
  8
0
  6
CONTINUOUS
 62
1
 10
192.120416
 20
147.728247
 11
192.120416
 21
122.506047
  0
LINE
  8
0
  6
CONTINUOUS
 62
1
 10
192.120416
 20
147.728247
 11
191.691845
 21
144.728247
  0
LINE
  8
0
  6
CONTINUOUS
 62
1
 10
191.691845
 20
144.728247
 11
192.334702
 21
144.728247
  0
LINE
  8
0
  6
CONTINUOUS
 62
1
 10
192.334702
 20
144.728247
 11
192.120416
 21
146.442533
  0
LINE
  8
0
  6
CONTINUOUS
 62
1
 10
192.120416
 20
146.442533
 11
191.906130
 21
144.728247
  0
LINE
  8
0
  6
CONTINUOUS
 62
1
 10
191.906130
 20
144.728247
 11
192.548987
 21
144.728247
  0
LINE
  8
0
  6
CONTINUOUS
 62
1
 10
192.548987
 20
144.728247
 11
192.120416
 21
147.728247
  0
LINE
  8
0
  6
CONTINUOUS
 62
1
 10
192.120416
 20
122.506047
 11
192.548987
 21
125.506047
  0
LINE
  8
0
  6
CONTINUOUS
 62
1
 10
192.548987
 20
125.506047
 11
191.906130
 21
125.506047
  0
LINE
  8
0
  6
CONTINUOUS
 62
1
 10
191.906130
 20
125.506047
 11
192.120416
 21
123.791761
  0
LINE
  8
0
  6
CONTINUOUS
 62
1
 10
192.120416
 20
123.791761
 11
192.334702
 21
125.506047
  0
LINE
  8
0
  6
CONTINUOUS
 62
1
 10
192.334702
 20
125.506047
 11
191.691845
 21
125.506047
  0
LINE
  8
0
  6
CONTINUOUS
 62
1
 10
191.691845
 20
125.506047
 11
192.120416
 21
122.506047
  0
LINE
  8
0
  6
CONTINUOUS
 62
1
 10
195.900630
 20
147.728247
 11
190.090502
 21
147.728247
  0
LINE
  8
0
  6
CONTINUOUS
 62
1
 10
190.090502
 20
122.506047
 11
195.900630
 21
122.506047
  0
LINE
  8
0
  6
CONTINUOUS
 62
1
 10
242.082443
 20
118.324570
 11
242.082443
 21
113.803689
  0
LINE
  8
0
  6
CONTINUOUS
 62
1
 10
242.082443
 20
116.287896
 11
221.048068
 21
116.287896
  0
LINE
  8
0
  6
CONTINUOUS
 62
1
 10
242.082443
 20
116.287896
 11
239.082443
 21
116.716468
  0
LINE
  8
0
  6
CONTINUOUS
 62
1
 10
239.082443
 20
116.716468
 11
239.082443
 21
116.073611
  0
LINE
  8
0
  6
CONTINUOUS
 62
1
 10
239.082443
 20
116.073611
 11
240.796728
 21
116.287896
  0
LINE
  8
0
  6
CONTINUOUS
 62
1
 10
240.796728
 20
116.287896
 11
239.082443
 21
116.502182
  0
LINE
  8
0
  6
CONTINUOUS
 62
1
 10
239.082443
 20
116.502182
 11
239.082443
 21
115.859325
  0
LINE
  8
0
  6
CONTINUOUS
 62
1
 10
239.082443
 20
115.859325
 11
242.082443
 21
116.287896
  0
LINE
  8
0
  6
CONTINUOUS
 62
1
 10
221.048068
 20
116.287896
 11
224.048068
 21
115.859325
  0
LINE
  8
0
  6
CONTINUOUS
 62
1
 10
224.048068
 20
115.859325
 11
224.048068
 21
116.502182
  0
LINE
  8
0
  6
CONTINUOUS
 62
1
 10
224.048068
 20
116.502182
 11
222.333782
 21
116.287896
  0
LINE
  8
0
  6
CONTINUOUS
 62
1
 10
222.333782
 20
116.287896
 11
224.048068
 21
116.073611
  0
LINE
  8
0
  6
CONTINUOUS
 62
1
 10
224.048068
 20
116.073611
 11
224.048068
 21
116.716468
  0
LINE
  8
0
  6
CONTINUOUS
 62
1
 10
224.048068
 20
116.716468
 11
221.048068
 21
116.287896
  0
LINE
  8
0
  6
CONTINUOUS
 62
1
 10
221.048068
 20
118.324570
 11
221.048068
 21
113.803689
  0
LINE
  8
0
  6
CONTINUOUS
 62
1
 10
242.082443
 20
149.400506
 11
242.082443
 21
153.984788
  0
LINE
  8
0
  6
CONTINUOUS
 62
1
 10
242.082443
 20
151.500580
 11
213.904318
 21
151.500580
  0
LINE
  8
0
  6
CONTINUOUS
 62
1
 10
242.082443
 20
151.500580
 11
239.082443
 21
151.929152
  0
LINE
  8
0
  6
CONTINUOUS
 62
1
 10
239.082443
 20
151.929152
 11
239.082443
 21
151.286295
  0
LINE
  8
0
  6
CONTINUOUS
 62
1
 10
239.082443
 20
151.286295
 11
240.796728
 21
151.500580
  0
LINE
  8
0
  6
CONTINUOUS
 62
1
 10
240.796728
 20
151.500580
 11
239.082443
 21
151.714866
  0
LINE
  8
0
  6
CONTINUOUS
 62
1
 10
239.082443
 20
151.714866
 11
239.082443
 21
151.072009
  0
LINE
  8
0
  6
CONTINUOUS
 62
1
 10
239.082443
 20
151.072009
 11
242.082443
 21
151.500580
  0
LINE
  8
0
  6
CONTINUOUS
 62
1
 10
213.904318
 20
151.500580
 11
216.904318
 21
151.072009
  0
LINE
  8
0
  6
CONTINUOUS
 62
1
 10
216.904318
 20
151.072009
 11
216.904318
 21
151.714866
  0
LINE
  8
0
  6
CONTINUOUS
 62
1
 10
216.904318
 20
151.714866
 11
215.190032
 21
151.500580
  0
LINE
  8
0
  6
CONTINUOUS
 62
1
 10
215.190032
 20
151.500580
 11
216.904318
 21
151.286295
  0
LINE
  8
0
  6
CONTINUOUS
 62
1
 10
216.904318
 20
151.286295
 11
216.904318
 21
151.929152
  0
LINE
  8
0
  6
CONTINUOUS
 62
1
 10
216.904318
 20
151.929152
 11
213.904318
 21
151.500580
  0
LINE
  8
0
  6
CONTINUOUS
 62
1
 10
213.904318
 20
149.400506
 11
213.904318
 21
153.984788
  0
TEXT
  8
0
  6
CONTINUOUS
 62
1
 10
81.178627
 20
25.186853
 40
2.000000
  1
60.3mm
 50
180.000000
 41
1.000000
 51
0.000000
  7
STANDARD
  0
TEXT
  8
0
  6
CONTINUOUS
 62
1
 10
82.892913
 20
29.186853
 40
2.000000
  1
(2 3/8 )
 50
180.000000
 41
1.000000
 51
0.000000
  7
STANDARD
  0
TEXT
  8
0
  6
CONTINUOUS
 62
1
 10
58.477437
 20
75.173406
 40
2.000000
  1
15.9mm
 50
180.000000
 41
1.000000
 51
0.000000
  7
STANDARD
  0
TEXT
  8
0
  6
CONTINUOUS
 62
1
 10
58.763151
 20
79.173406
 40
2.000000
  1
(5/8 )
 50
180.000000
 41
1.000000
 51
0.000000
  7
STANDARD
  0
TEXT
  8
0
  6
CONTINUOUS
 62
1
 10
77.521943
 20
75.173406
 40
2.000000
  1
15.9mm
 50
180.000000
 41
1.000000
 51
0.000000
  7
STANDARD
  0
TEXT
  8
0
  6
CONTINUOUS
 62
1
 10
77.807657
 20
79.173406
 40
2.000000
  1
(5/8 )
 50
180.000000
 41
1.000000
 51
0.000000
  7
STANDARD
  0
TEXT
  8
0
  6
CONTINUOUS
 62
1
 10
68.478627
 20
117.965077
 40
2.000000
  1
34.9mm
 50
180.000000
 41
1.000000
 51
0.000000
  7
STANDARD
  0
TEXT
  8
0
  6
CONTINUOUS
 62
1
 10
69.859580
 20
121.965077
 40
2.000000
  1
(1 3/8 )
 50
180.000000
 41
1.000000
 51
0.000000
  7
STANDARD
  0
TEXT
  8
0
  6
CONTINUOUS
 62
1
 10
68.478627
 20
183.861436
 40
2.000000
  1
34.9mm
 50
180.000000
 41
1.000000
 51
0.000000
  7
STANDARD
  0
TEXT
  8
0
  6
CONTINUOUS
 62
1
 10
69.859580
 20
187.861436
 40
2.000000
  1
(1 3/8 )
 50
180.000000
 41
1.000000
 51
0.000000
  7
STANDARD
  0
TEXT
  8
0
  6
CONTINUOUS
 62
1
 10
145.931820
 20
45.143442
 40
2.000000
  1
44.5mm
 50
180.000000
 41
1.000000
 51
0.000000
  7
STANDARD
  0
TEXT
  8
0
  6
CONTINUOUS
 62
1
 10
147.169915
 20
49.143442
 40
2.000000
  1
(1 3/4 )
 50
180.000000
 41
1.000000
 51
0.000000
  7
STANDARD
  0
TEXT
  8
0
  6
CONTINUOUS
 62
1
 10
145.158847
 20
85.228867
 40
2.000000
  1
19.0mm
 50
180.000000
 41
1.000000
 51
0.000000
  7
STANDARD
  0
TEXT
  8
0
  6
CONTINUOUS
 62
1
 10
145.444561
 20
89.228867
 40
2.000000
  1
(3/4 )
 50
180.000000
 41
1.000000
 51
0.000000
  7
STANDARD
  0
TEXT
  8
0
  6
CONTINUOUS
 62
1
 10
134.443222
 20
116.131768
 40
2.000000
  1
21.4mm
 50
180.000000
 41
1.000000
 51
0.000000
  7
STANDARD
  0
TEXT
  8
0
  6
CONTINUOUS
 62
1
 10
136.205127
 20
120.131768
 40
2.000000
  1
(27/32 )
 50
180.000000
 41
1.000000
 51
0.000000
  7
STANDARD
  0
TEXT
  8
0
  6
CONTINUOUS
 62
1
 10
160.636972
 20
116.131768
 40
2.000000
  1
21.4mm
 50
180.000000
 41
1.000000
 51
0.000000
  7
STANDARD
  0
TEXT
  8
0
  6
CONTINUOUS
 62
1
 10
162.398877
 20
120.131768
 40
2.000000
  1
(27/32 )
 50
180.000000
 41
1.000000
 51
0.000000
  7
STANDARD
  0
TEXT
  8
0
  6
CONTINUOUS
 62
1
 10
160.113162
 20
106.131768
 40
2.000000
  1
3.2mm
 50
180.000000
 41
1.000000
 51
0.000000
  7
STANDARD
  0
TEXT
  8
0
  6
CONTINUOUS
 62
1
 10
160.446496
 20
110.131768
 40
2.000000
  1
(1/8 )
 50
180.000000
 41
1.000000
 51
0.000000
  7
STANDARD
  0
TEXT
  8
0
  6
CONTINUOUS
 62
1
 10
148.111525
 20
153.463394
 40
2.000000
  1
46.0mm
 50
180.000000
 41
1.000000
 51
0.000000
  7
STANDARD
  0
TEXT
  8
0
  6
CONTINUOUS
 62
1
 10
150.206763
 20
157.463394
 40
2.000000
  1
(1 13/16 )
 50
180.000000
 41
1.000000
 51
0.000000
  7
STANDARD
  0
TEXT
  8
0
  6
CONTINUOUS
 62
1
 10
224.045836
 20
85.087839
 40
2.000000
  1
46.0mm
 50
180.000000
 41
1.000000
 51
0.000000
  7
STANDARD
  0
TEXT
  8
0
  6
CONTINUOUS
 62
1
 10
226.141074
 20
89.087839
 40
2.000000
  1
(1 13/16 )
 50
180.000000
 41
1.000000
 51
0.000000
  7
STANDARD
  0
TEXT
  8
0
  6
CONTINUOUS
 62
1
 10
223.855359
 20
45.853840
 40
2.000000
  1
20.6mm
 50
180.000000
 41
1.000000
 51
0.000000
  7
STANDARD
  0
TEXT
  8
0
  6
CONTINUOUS
 62
1
 10
224.522026
 20
49.853840
 40
2.000000
  1
(13/16 )
 50
180.000000
 41
1.000000
 51
0.000000
  7
STANDARD
  0
TEXT
  8
0
  6
CONTINUOUS
 62
1
 10
235.928350
 20
115.287896
 40
2.000000
  1
21.0mm
 50
180.000000
 41
1.000000
 51
0.000000
  7
STANDARD
  0
TEXT
  8
0
  6
CONTINUOUS
 62
1
 10
237.023588
 20
119.287896
 40
2.000000
  1
(13/16 )
 50
180.000000
 41
1.000000
 51
0.000000
  7
STANDARD
  0
TEXT
  8
0
  6
CONTINUOUS
 62
1
 10
232.832666
 20
150.500580
 40
2.000000
  1
28.5mm
 50
180.000000
 41
1.000000
 51
0.000000
  7
STANDARD
  0
TEXT
  8
0
  6
CONTINUOUS
 62
1
 10
233.832666
 20
154.500580
 40
2.000000
  1
(1 1/8 )
 50
180.000000
 41
1.000000
 51
0.000000
  7
STANDARD
  0
TEXT
  8
0
  6
CONTINUOUS
 62
1
 10
215.362101
 20
115.287896
 40
2.000000
  1
19.8mm
 50
180.000000
 41
1.000000
 51
0.000000
  7
STANDARD
  0
TEXT
  8
0
  6
CONTINUOUS
 62
1
 10
217.124006
 20
119.287896
 40
2.000000
  1
(25/32 )
 50
180.000000
 41
1.000000
 51
0.000000
  7
STANDARD
  0
TEXT
  8
0
  6
CONTINUOUS
 62
1
 10
255.288426
 20
45.853840
 40
2.000000
  1
12.7mm
 50
180.000000
 41
1.000000
 51
0.000000
  7
STANDARD
  0
TEXT
  8
0
  6
CONTINUOUS
 62
1
 10
256.193188
 20
49.853840
 40
2.000000
  1
(1 /2 )
 50
180.000000
 41
1.000000
 51
0.000000
  7
STANDARD
  0
LINE
  8
0
  6
CONTINUOUS
 62
1
 10
77.645628
 20
66.195739
 11
65.179222
 21
66.195739
  0
LINE
  8
0
  6
CONTINUOUS
 62
1
 10
65.179222
 20
66.195739
 11
68.179222
 21
65.767167
  0
LINE
  8
0
  6
CONTINUOUS
 62
1
 10
68.179222
 20
65.767167
 11
68.179222
 21
66.410025
  0
LINE
  8
0
  6
CONTINUOUS
 62
1
 10
68.179222
 20
66.410025
 11
66.464937
 21
66.195739
  0
LINE
  8
0
  6
CONTINUOUS
 62
1
 10
66.464937
 20
66.195739
 11
68.179222
 21
65.981453
  0
LINE
  8
0
  6
CONTINUOUS
 62
1
 10
68.179222
 20
65.981453
 11
68.179222
 21
66.624310
  0
LINE
  8
0
  6
CONTINUOUS
 62
1
 10
68.179222
 20
66.624310
 11
65.179222
 21
66.195739
  0
TEXT
  8
0
  6
CONTINUOUS
 62
1
 10
80.575502
 20
65.195739
 40
2.000000
  1
3.2mm
 50
180.000000
 41
1.000000
 51
0.000000
  7
STANDARD
  0
TEXT
  8
0
  6
CONTINUOUS
 62
1
 10
80.908835
 20
69.195739
 40
2.000000
  1
(1/8 )
 50
180.000000
 41
1.000000
 51
0.000000
  7
STANDARD
  0
LINE
  8
0
  6
CONTINUOUS
 62
1
 10
141.541883
 20
107.131768
 11
136.541883
 21
107.131768
  0
LINE
  8
0
  6
CONTINUOUS
 62
1
 10
141.541883
 20
107.131768
 11
138.541883
 21
107.560340
  0
LINE
  8
0
  6
CONTINUOUS
 62
1
 10
138.541883
 20
107.560340
 11
138.541883
 21
106.917483
  0
LINE
  8
0
  6
CONTINUOUS
 62
1
 10
138.541883
 20
106.917483
 11
140.256168
 21
107.131768
  0
LINE
  8
0
  6
CONTINUOUS
 62
1
 10
140.256168
 20
107.131768
 11
138.541883
 21
107.346054
  0
LINE
  8
0
  6
CONTINUOUS
 62
1
 10
138.541883
 20
107.346054
 11
138.541883
 21
106.703197
  0
LINE
  8
0
  6
CONTINUOUS
 62
1
 10
138.541883
 20
106.703197
 11
141.541883
 21
107.131768
  0
LINE
  8
0
  6
CONTINUOUS
 62
1
 10
62.004222
 20
66.195739
 11
57.004222
 21
66.195739
  0
LINE
  8
0
  6
CONTINUOUS
 62
1
 10
62.004222
 20
66.195739
 11
59.004222
 21
66.624310
  0
LINE
  8
0
  6
CONTINUOUS
 62
1
 10
59.004222
 20
66.624310
 11
59.004222
 21
65.981453
  0
LINE
  8
0
  6
CONTINUOUS
 62
1
 10
59.004222
 20
65.981453
 11
60.718508
 21
66.195739
  0
LINE
  8
0
  6
CONTINUOUS
 62
1
 10
60.718508
 20
66.195739
 11
59.004222
 21
66.410025
  0
LINE
  8
0
  6
CONTINUOUS
 62
1
 10
59.004222
 20
66.410025
 11
59.004222
 21
65.767167
  0
LINE
  8
0
  6
CONTINUOUS
 62
1
 10
59.004222
 20
65.767167
 11
62.004222
 21
66.195739
  0
TEXT
  8
0
  6
CONTINUOUS
 62
1
 10
38.498352
 20
148.135072
 40
2.000000
  1
50.8mm
 50
90.000000
 41
1.000000
 51
0.000000
  7
STANDARD
  0
TEXT
  8
0
  6
CONTINUOUS
 62
1
 10
42.498352
 20
150.563643
 40
2.000000
  1
(2 )
 50
90.000000
 41
1.000000
 51
0.000000
  7
STANDARD
  0
TEXT
  8
0
  6
CONTINUOUS
 62
1
 10
38.213541
 20
92.621476
 40
2.000000
  1
29.4mm
 50
90.000000
 41
1.000000
 51
0.000000
  7
STANDARD
  0
TEXT
  8
0
  6
CONTINUOUS
 62
1
 10
42.213541
 20
90.383380
 40
2.000000
  1
(1 5/32 )
 50
90.000000
 41
1.000000
 51
0.000000
  7
STANDARD
  0
TEXT
  8
0
  6
CONTINUOUS
 62
1
 10
38.213541
 20
45.920475
 40
2.000000
  1
34.9mm
 50
90.000000
 41
1.000000
 51
0.000000
  7
STANDARD
  0
TEXT
  8
0
  6
CONTINUOUS
 62
1
 10
42.213541
 20
44.539522
 40
2.000000
  1
(1 3/8 )
 50
90.000000
 41
1.000000
 51
0.000000
  7
STANDARD
  0
TEXT
  8
0
  6
CONTINUOUS
 62
1
 10
108.657670
 20
63.871452
 40
2.000000
  1
25.4mm
 50
90.000000
 41
1.000000
 51
0.000000
  7
STANDARD
  0
TEXT
  8
0
  6
CONTINUOUS
 62
1
 10
112.657670
 20
66.538119
 40
2.000000
  1
(1 )
 50
90.000000
 41
1.000000
 51
0.000000
  7
STANDARD
  0
TEXT
  8
0
  6
CONTINUOUS
 62
1
 10
188.026263
 20
63.808448
 40
2.000000
  1
25.4mm
 50
90.000000
 41
1.000000
 51
0.000000
  7
STANDARD
  0
TEXT
  8
0
  6
CONTINUOUS
 62
1
 10
192.026263
 20
66.475115
 40
2.000000
  1
(1 )
 50
90.000000
 41
1.000000
 51
0.000000
  7
STANDARD
  0
TEXT
  8
0
  6
CONTINUOUS
 62
1
 10
191.120416
 20
130.230242
 40
2.000000
  1
25.4mm
 50
90.000000
 41
1.000000
 51
0.000000
  7
STANDARD
  0
TEXT
  8
0
  6
CONTINUOUS
 62
1
 10
195.120416
 20
132.896909
 40
2.000000
  1
(1 )
 50
90.000000
 41
1.000000
 51
0.000000
  7
STANDARD
  0
TEXT
  8
0
  6
CONTINUOUS
 62
1
 10
112.887214
 20
131.030330
 40
2.000000
  1
23.8mm
 50
90.000000
 41
1.000000
 51
0.000000
  7
STANDARD
  0
TEXT
  8
0
  6
CONTINUOUS
 62
1
 10
116.887214
 20
130.316045
 40
2.000000
  1
(15/16 )
 50
90.000000
 41
1.000000
 51
0.000000
  7
STANDARD
  0
TEXT
  8
0
  6
CONTINUOUS
 62
1
 10
50.075565
 20
149.735454
 40
2.000000
  1
K12
 50
90.000000
 41
1.000000
 51
0.000000
  7
STANDARD
  0
TEXT
  8
0
  6
CONTINUOUS
 62
1
 10
54.075565
 20
149.735454
 40
2.000000
  1
TRANSOME
 50
90.000000
 41
1.000000
 51
0.000000
  7
STANDARD
  0
TEXT
  8
0
  6
CONTINUOUS
 62
1
 10
50.075565
 20
87.403632
 40
2.000000
  1
K11
 50
90.000000
 41
1.000000
 51
0.000000
  7
STANDARD
  0
TEXT
  8
0
  6
CONTINUOUS
 62
1
 10
54.075565
 20
87.403632
 40
2.000000
  1
COUPLING
 50
90.000000
 41
1.000000
 51
0.000000
  7
STANDARD
  0
TEXT
  8
0
  6
CONTINUOUS
 62
1
 10
55.678425
 20
30.206613
 40
2.000000
  1
K11X
 50
90.000000
 41
1.000000
 51
0.000000
  7
STANDARD
  0
TEXT
  8
0
  6
CONTINUOUS
 62
1
 10
59.678425
 20
30.206613
 40
2.000000
  1
MULLION
 50
90.000000
 41
1.000000
 51
0.000000
  7
STANDARD
  0
TEXT
  8
0
  6
CONTINUOUS
 62
1
 10
126.179213
 20
131.667219
 40
2.000000
  1
9849
 50
90.000000
 41
1.000000
 51
0.000000
  7
STANDARD
  0
TEXT
  8
0
  6
CONTINUOUS
 62
1
 10
126.179213
 20
68.284861
 40
2.000000
  1
F3
 50
90.000000
 41
1.000000
 51
0.000000
  7
STANDARD
  0
TEXT
  8
0
  6
CONTINUOUS
 62
1
 10
210.107264
 20
131.667219
 40
2.000000
  1
F7G
 50
90.000000
 41
1.000000
 51
0.000000
  7
STANDARD
  0
TEXT
  8
0
  6
CONTINUOUS
 62
1
 10
210.107264
 20
68.284861
 40
2.000000
  1
FZ4
 50
90.000000
 41
1.000000
 51
0.000000
  7
STANDARD
  0
LINE
  8
0
  6
CONTINUOUS
 62
1
 10
58.835695
 20
186.263646
 11
58.835695
 21
185.717755
  0
LINE
  8
0
  6
CONTINUOUS
 62
1
 10
58.335695
 20
185.717755
 11
58.335695
 21
186.263646
  0
LINE
  8
0
  6
CONTINUOUS
 62
1
 10
58.888151
 20
120.342886
 11
58.888151
 21
119.796996
  0
LINE
  8
0
  6
CONTINUOUS
 62
1
 10
58.388151
 20
119.796996
 11
58.388151
 21
120.342886
  0
LINE
  8
0
  6
CONTINUOUS
 62
1
 10
50.889953
 20
77.592013
 11
50.889953
 21
77.046122
  0
LINE
  8
0
  6
CONTINUOUS
 62
1
 10
50.389953
 20
77.046122
 11
50.389953
 21
77.592013
  0
LINE
  8
0
  6
CONTINUOUS
 62
1
 10
69.930672
 20
77.585487
 11
69.930672
 21
77.039596
  0
LINE
  8
0
  6
CONTINUOUS
 62
1
 10
69.430672
 20
77.039596
 11
69.430672
 21
77.585487
  0
LINE
  8
0
  6
CONTINUOUS
 62
1
 10
74.010678
 20
67.606693
 11
74.010678
 21
67.060803
  0
LINE
  8
0
  6
CONTINUOUS
 62
1
 10
73.510678
 20
67.060803
 11
73.510678
 21
67.606693
  0
LINE
  8
0
  6
CONTINUOUS
 62
1
 10
71.217593
 20
27.630088
 11
71.217593
 21
27.084197
  0
LINE
  8
0
  6
CONTINUOUS
 62
1
 10
70.717593
 20
27.084197
 11
70.717593
 21
27.630088
  0
LINE
  8
0
  6
CONTINUOUS
 62
1
 10
137.575168
 20
155.869516
 11
137.575168
 21
155.323626
  0
LINE
  8
0
  6
CONTINUOUS
 62
1
 10
137.075168
 20
155.323626
 11
137.075168
 21
155.869516
  0
LINE
  8
0
  6
CONTINUOUS
 62
1
 10
125.367911
 20
118.577316
 11
125.367911
 21
118.031426
  0
LINE
  8
0
  6
CONTINUOUS
 62
1
 10
124.867911
 20
118.031426
 11
124.867911
 21
118.577316
  0
LINE
  8
0
  6
CONTINUOUS
 62
1
 10
151.601458
 20
118.574924
 11
151.601458
 21
118.029034
  0
LINE
  8
0
  6
CONTINUOUS
 62
1
 10
151.101458
 20
118.029034
 11
151.101458
 21
118.574924
  0
LINE
  8
0
  6
CONTINUOUS
 62
1
 10
153.566791
 20
108.551895
 11
153.566791
 21
108.006004
  0
LINE
  8
0
  6
CONTINUOUS
 62
1
 10
153.066791
 20
108.006004
 11
153.066791
 21
108.551895
  0
LINE
  8
0
  6
CONTINUOUS
 62
1
 10
136.090228
 20
47.566236
 11
136.090228
 21
47.020345
  0
LINE
  8
0
  6
CONTINUOUS
 62
1
 10
135.590228
 20
47.020345
 11
135.590228
 21
47.566236
  0
LINE
  8
0
  6
CONTINUOUS
 62
1
 10
213.560956
 20
87.514476
 11
213.560956
 21
86.968586
  0
LINE
  8
0
  6
CONTINUOUS
 62
1
 10
213.060956
 20
86.968586
 11
213.060956
 21
87.514476
  0
LINE
  8
0
  6
CONTINUOUS
 62
1
 10
215.162716
 20
48.317020
 11
215.162716
 21
47.771130
  0
LINE
  8
0
  6
CONTINUOUS
 62
1
 10
214.662716
 20
47.771130
 11
214.662716
 21
48.317020
  0
LINE
  8
0
  6
CONTINUOUS
 62
1
 10
247.198184
 20
48.316316
 11
247.198184
 21
47.770425
  0
LINE
  8
0
  6
CONTINUOUS
 62
1
 10
246.698184
 20
47.770425
 11
246.698184
 21
48.316316
  0
LINE
  8
0
  6
CONTINUOUS
 62
1
 10
206.365284
 20
117.627747
 11
206.365284
 21
117.081856
  0
LINE
  8
0
  6
CONTINUOUS
 62
1
 10
205.865284
 20
117.081856
 11
205.865284
 21
117.627747
  0
LINE
  8
0
  6
CONTINUOUS
 62
1
 10
227.686562
 20
117.627747
 11
227.686562
 21
117.081856
  0
LINE
  8
0
  6
CONTINUOUS
 62
1
 10
227.186562
 20
117.081856
 11
227.186562
 21
117.627747
  0
LINE
  8
0
  6
CONTINUOUS
 62
1
 10
223.711252
 20
152.936717
 11
223.711252
 21
152.390826
  0
LINE
  8
0
  6
CONTINUOUS
 62
1
 10
223.211252
 20
152.390826
 11
223.211252
 21
152.936717
  0
LINE
  8
0
  6
CONTINUOUS
 62
1
 10
137.606510
 20
87.675032
 11
137.606510
 21
87.129141
  0
LINE
  8
0
  6
CONTINUOUS
 62
1
 10
137.106510
 20
87.129141
 11
137.106510
 21
87.675032
  0
LINE
  8
0
  6
CONTINUOUS
 62
1
 10
40.886254
 20
154.086022
 11
40.340363
 21
154.086022
  0
LINE
  8
0
  6
CONTINUOUS
 62
1
 10
40.340363
 20
154.586022
 11
40.886254
 21
154.586022
  0
LINE
  8
0
  6
CONTINUOUS
 62
1
 10
40.582618
 20
102.837616
 11
40.036728
 21
102.837616
  0
LINE
  8
0
  6
CONTINUOUS
 62
1
 10
40.036728
 20
103.337616
 11
40.582618
 21
103.337616
  0
LINE
  8
0
  6
CONTINUOUS
 62
1
 10
40.617035
 20
55.466004
 11
40.071144
 21
55.466004
  0
LINE
  8
0
  6
CONTINUOUS
 62
1
 10
40.071144
 20
55.966004
 11
40.617035
 21
55.966004
  0
LINE
  8
0
  6
CONTINUOUS
 62
1
 10
115.349324
 20
139.715959
 11
114.803433
 21
139.715959
  0
LINE
  8
0
  6
CONTINUOUS
 62
1
 10
114.803433
 20
140.215959
 11
115.349324
 21
140.215959
  0
LINE
  8
0
  6
CONTINUOUS
 62
1
 10
111.072106
 20
69.362729
 11
110.526216
 21
69.362729
  0
LINE
  8
0
  6
CONTINUOUS
 62
1
 10
110.526216
 20
69.862729
 11
111.072106
 21
69.862729
  0
LINE
  8
0
  6
CONTINUOUS
 62
1
 10
193.554511
 20
135.712856
 11
193.008620
 21
135.712856
  0
LINE
  8
0
  6
CONTINUOUS
 62
1
 10
193.008620
 20
136.212856
 11
193.554511
 21
136.212856
  0
LINE
  8
0
  6
CONTINUOUS
 62
1
 10
190.423831
 20
69.324747
 11
189.877940
 21
69.324747
  0
LINE
  8
0
  6
CONTINUOUS
 62
1
 10
189.877940
 20
69.824747
 11
190.423831
 21
69.824747
  0
LINE
  8
0
  6
CONTINUOUS
 62
1
 10
284.747785
 20
187.705955
 11
286.997785
 21
186.862205
  0
LINE
  8
0
  6
CONTINUOUS
 62
1
 10
286.997785
 20
186.862205
 11
286.997785
 21
185.830955
  0
LINE
  8
0
  6
CONTINUOUS
 62
1
 10
286.997785
 20
185.830955
 11
282.872785
 21
187.518455
  0
LINE
  8
0
  6
CONTINUOUS
 62
1
 10
282.872785
 20
187.518455
 11
279.497785
 21
188.830955
  0
LINE
  8
0
  6
CONTINUOUS
 62
1
 10
279.497785
 20
188.830955
 11
279.497785
 21
189.862205
  0
LINE
  8
0
  6
CONTINUOUS
 62
1
 10
279.497785
 20
189.862205
 11
283.341535
 21
191.362205
  0
LINE
  8
0
  6
CONTINUOUS
 62
1
 10
283.341535
 20
191.362205
 11
286.997785
 21
192.862205
  0
LINE
  8
0
  6
CONTINUOUS
 62
1
 10
286.997785
 20
192.862205
 11
286.997785
 21
191.830955
  0
LINE
  8
0
  6
CONTINUOUS
 62
1
 10
286.997785
 20
191.830955
 11
284.747785
 21
190.987205
  0
LINE
  8
0
  6
CONTINUOUS
 62
1
 10
284.747785
 20
190.987205
 11
284.747785
 21
187.705955
  0
LINE
  8
0
  6
CONTINUOUS
 62
1
 10
283.810285
 20
190.612205
 11
280.341535
 21
189.299705
  0
LINE
  8
0
  6
CONTINUOUS
 62
1
 10
280.341535
 20
189.299705
 11
283.810285
 21
188.080955
  0
LINE
  8
0
  6
CONTINUOUS
 62
1
 10
283.810285
 20
188.080955
 11
283.810285
 21
190.612205
  0
LINE
  8
0
  6
CONTINUOUS
 62
1
 10
282.216535
 20
194.268455
 11
281.372785
 21
194.268455
  0
ARC
  8
0
  6
CONTINUOUS
 62
1
 10
276.953843
 20
192.134758
 40
4.907108
 50
25.773689
 51
58.773690
  0
LINE
  8
0
  6
CONTINUOUS
 62
1
 10
279.497785
 20
196.330955
 11
279.497785
 21
196.987205
  0
LINE
  8
0
  6
CONTINUOUS
 62
1
 10
279.497785
 20
196.987205
 11
283.247785
 21
196.987205
  0
LINE
  8
0
  6
CONTINUOUS
 62
1
 10
283.247785
 20
196.987205
 11
286.997785
 21
196.987205
  0
LINE
  8
0
  6
CONTINUOUS
 62
1
 10
286.997785
 20
196.987205
 11
286.997785
 21
195.955955
  0
LINE
  8
0
  6
CONTINUOUS
 62
1
 10
286.997785
 20
195.955955
 11
281.185285
 21
195.955955
  0
ARC
  8
0
  6
CONTINUOUS
 62
1
 10
278.316813
 20
193.044146
 40
4.087390
 50
17.429565
 51
45.429566
  0
ENDSEC
  0
EOF
