  0
SECTION
  2
HEADER
  9
$LIMMIN
 10
0.000000
 20
0.000000
  9
$LIMMAX
 10
297.301779
 20
210.224104
  9
$EXTMIN
 10
0.000000
 20
0.000000
  9
$EXTMAX
 10
297.301779
 20
210.224104
  9
$ANGBASE
 50
0.0
  9
$ANGDIR
 70
0
  9
$DIMRND
 40
0.100000
  9
$DIMSE1
 70
0
  9
$DIMSE2
 70
0
  9
$DIMTXT
 40
3.000000
  9
$LTSCALE
 40
1.000000
  9
$LUPREC
 70
3
  9
$AUPREC
 70
3
  9
$PDMODE
 70
2
  9
$PDSIZE
 40
1.486509
  0
ENDSEC
  0
SECTION
  2
TABLES
  0
TABLE
  2
VPORT
  70
1
  0
VPORT
  2
*ACTIVE
 70
0
  10
0.0
 20
0.0
 11
1.0
 21
1.0
 12
594.0
 22
420.0
 13
0.0
 23
0.0
 14
10.0
 24
10.0
 15
10.0
 25
10.0
 16
0.0
 26
0.0
 36
1.0
 17
594.0
 27
420.0
 37
100.0
 40
1000.0
 41
1.0
 42
50.0
 43
0.0
 44
0.0
 50
0.0
 51
0.0
 71
0
 72
2000
 73
1
 74
3
 75
0
 76
0
 77
0
 78
1
  0
ENDTAB
  0
TABLE
  2
LTYPE
 70
5
  0
LTYPE
  2
CONTINUOUS
 70
0
  3
Solid line
 72
65
 73
0
 40
0.0
  0
LTYPE
  2
DASHED
 70
0
  3
Dashed line
 72
65
 73
2
 40
6.000000
 49
3.000000
 49
-3.000000
  0
LTYPE
  2
CENTER
 70
0
  3
Chain line
 72
65
 73
4
 40
24.000000
 49
15.000000
 49
-3.000000
 49
3.000000
 49
-3.000000
  0
LTYPE
  2
RANDOM
 70
0
  3
Random line
 72
65
 73
4
 40
22.500000
 49
6.000000
 49
-3.000000
 49
4.500000
 49
-9.000000
  0
LTYPE
  2
DASH_2_33555077
  3
DASH_2_33555077
 70
0
 72
65
 73
2
 40
1.200000
 49
0.600000
 49
-0.600000
  0
ENDTAB
  0
TABLE
  2
STYLE
 70
9
  0
STYLE
  2
STANDARD
 40
0
 41
1.0
 50
0.0
 71
0
 42
0
  3
simplex
  4

 70
0
  0
ENDTAB
  0
TABLE
  2
LAYER
 70
2
  0
LAYER
  2
0
 70
0
 62
7
  6
CONTINUOUS
  0
LAYER
  2
0
 62
1
  6
CONTINUOUS
 70
0
  0
ENDTAB
  0
ENDSEC
  0
SECTION
  2
BLOCKS
  0
ENDSEC
  0
SECTION
  2
ENTITIES
  0
LINE
  8
0
  6
CONTINUOUS
 62
1
 10
17.709024
 20
175.875224
 11
22.771524
 21
175.875224
  0
LINE
  8
0
  6
CONTINUOUS
 62
1
 10
17.709024
 20
188.868974
 11
22.771524
 21
188.868974
  0
LINE
  8
0
  6
CONTINUOUS
 62
1
 10
22.771524
 20
189.881474
 11
18.813570
 21
189.881474
  0
LINE
  8
0
  6
CONTINUOUS
 62
1
 10
22.771524
 20
174.862724
 11
18.813570
 21
174.862724
  0
LINE
  8
0
  6
CONTINUOUS
 62
1
 10
13.152774
 20
184.692412
 11
13.152774
 21
180.051787
  0
LINE
  8
0
  6
CONTINUOUS
 62
1
 10
14.165274
 20
179.123662
 11
14.165274
 21
181.865849
  0
LINE
  8
0
  6
CONTINUOUS
 62
1
 10
14.165274
 20
182.878349
 11
14.165274
 21
185.620537
  0
LINE
  8
0
  6
CONTINUOUS
 62
1
 10
13.152774
 20
180.051787
 11
10.621524
 21
182.372099
  0
LINE
  8
0
  6
CONTINUOUS
 62
1
 10
22.771524
 20
171.234599
 11
18.813570
 21
174.862724
  0
LINE
  8
0
  6
CONTINUOUS
 62
1
 10
16.696524
 20
176.803349
 11
14.165274
 21
179.123662
  0
LINE
  8
0
  6
CONTINUOUS
 62
1
 10
18.813570
 20
189.881474
 11
22.771524
 21
193.509599
  0
LINE
  8
0
  6
CONTINUOUS
 62
1
 10
10.621524
 20
182.372099
 11
13.152774
 21
184.692412
  0
LINE
  8
0
  6
CONTINUOUS
 62
1
 10
14.165274
 20
185.620537
 11
16.696524
 21
187.940849
  0
LINE
  8
0
  6
CONTINUOUS
 62
1
 10
22.771524
 20
174.862724
 11
22.771524
 21
171.234599
  0
LINE
  8
0
  6
CONTINUOUS
 62
1
 10
22.771524
 20
181.865849
 11
22.771524
 21
175.875224
  0
LINE
  8
0
  6
CONTINUOUS
 62
1
 10
22.771524
 20
193.509599
 11
22.771524
 21
189.881474
  0
LINE
  8
0
  6
CONTINUOUS
 62
1
 10
22.771524
 20
188.868974
 11
22.771524
 21
182.878349
  0
LINE
  8
0
  6
CONTINUOUS
 62
1
 10
22.771524
 20
181.865849
 11
17.709024
 21
181.865849
  0
LINE
  8
0
  6
CONTINUOUS
 62
1
 10
16.696524
 20
181.865849
 11
14.165274
 21
181.865849
  0
LINE
  8
0
  6
CONTINUOUS
 62
1
 10
22.771524
 20
182.878349
 11
17.709024
 21
182.878349
  0
LINE
  8
0
  6
CONTINUOUS
 62
1
 10
16.696524
 20
182.878349
 11
14.165274
 21
182.878349
  0
LINE
  8
0
  6
CONTINUOUS
 62
1
 10
16.696524
 20
187.940849
 11
16.696524
 21
182.878349
  0
LINE
  8
0
  6
CONTINUOUS
 62
1
 10
16.696524
 20
181.865849
 11
16.696524
 21
176.803349
  0
LINE
  8
0
  6
CONTINUOUS
 62
1
 10
17.709024
 20
175.875224
 11
17.709024
 21
181.865849
  0
LINE
  8
0
  6
CONTINUOUS
 62
1
 10
17.709024
 20
182.878349
 11
17.709024
 21
188.868974
  0
LINE
  8
0
  6
CONTINUOUS
 62
1
 10
12.950274
 20
180.237412
 11
12.950274
 21
184.506787
  0
LINE
  8
0
  6
CONTINUOUS
 62
1
 10
12.747774
 20
184.321162
 11
12.747774
 21
180.423037
  0
LINE
  8
0
  6
CONTINUOUS
 62
1
 10
12.545274
 20
180.608662
 11
12.545274
 21
184.135537
  0
LINE
  8
0
  6
CONTINUOUS
 62
1
 10
12.342774
 20
183.949912
 11
12.342774
 21
180.794287
  0
LINE
  8
0
  6
CONTINUOUS
 62
1
 10
12.140274
 20
180.979912
 11
12.140274
 21
183.764287
  0
LINE
  8
0
  6
CONTINUOUS
 62
1
 10
11.937774
 20
183.578662
 11
11.937774
 21
181.165537
  0
LINE
  8
0
  6
CONTINUOUS
 62
1
 10
11.735274
 20
181.351162
 11
11.735274
 21
183.393037
  0
LINE
  8
0
  6
CONTINUOUS
 62
1
 10
11.532774
 20
183.207412
 11
11.532774
 21
181.536787
  0
LINE
  8
0
  6
CONTINUOUS
 62
1
 10
11.330274
 20
181.722412
 11
11.330274
 21
183.021787
  0
LINE
  8
0
  6
CONTINUOUS
 62
1
 10
11.127774
 20
182.836162
 11
11.127774
 21
181.908037
  0
LINE
  8
0
  6
CONTINUOUS
 62
1
 10
10.925274
 20
182.093662
 11
10.925274
 21
182.650537
  0
LINE
  8
0
  6
CONTINUOUS
 62
1
 10
10.722774
 20
182.464912
 11
10.722774
 21
182.279287
  0
LINE
  8
0
  6
CONTINUOUS
 62
1
 10
22.366524
 20
175.875224
 11
22.366524
 21
181.865849
  0
LINE
  8
0
  6
CONTINUOUS
 62
1
 10
21.961524
 20
181.865849
 11
21.961524
 21
175.875224
  0
LINE
  8
0
  6
CONTINUOUS
 62
1
 10
21.556524
 20
175.875224
 11
21.556524
 21
181.865849
  0
LINE
  8
0
  6
CONTINUOUS
 62
1
 10
21.151524
 20
181.865849
 11
21.151524
 21
175.875224
  0
LINE
  8
0
  6
CONTINUOUS
 62
1
 10
20.746524
 20
175.875224
 11
20.746524
 21
181.865849
  0
LINE
  8
0
  6
CONTINUOUS
 62
1
 10
20.341524
 20
181.865849
 11
20.341524
 21
175.875224
  0
LINE
  8
0
  6
CONTINUOUS
 62
1
 10
19.936524
 20
175.875224
 11
19.936524
 21
181.865849
  0
LINE
  8
0
  6
CONTINUOUS
 62
1
 10
19.531524
 20
181.865849
 11
19.531524
 21
175.875224
  0
LINE
  8
0
  6
CONTINUOUS
 62
1
 10
19.126524
 20
175.875224
 11
19.126524
 21
181.865849
  0
LINE
  8
0
  6
CONTINUOUS
 62
1
 10
18.721524
 20
181.865849
 11
18.721524
 21
175.875224
  0
LINE
  8
0
  6
CONTINUOUS
 62
1
 10
18.316524
 20
175.875224
 11
18.316524
 21
181.865849
  0
LINE
  8
0
  6
CONTINUOUS
 62
1
 10
17.911524
 20
181.865849
 11
17.911524
 21
175.875224
  0
LINE
  8
0
  6
CONTINUOUS
 62
1
 10
22.366524
 20
182.878349
 11
22.366524
 21
188.868974
  0
LINE
  8
0
  6
CONTINUOUS
 62
1
 10
21.961524
 20
188.868974
 11
21.961524
 21
182.878349
  0
LINE
  8
0
  6
CONTINUOUS
 62
1
 10
21.556524
 20
182.878349
 11
21.556524
 21
188.868974
  0
LINE
  8
0
  6
CONTINUOUS
 62
1
 10
21.151524
 20
188.868974
 11
21.151524
 21
182.878349
  0
LINE
  8
0
  6
CONTINUOUS
 62
1
 10
21.151524
 20
188.868974
 11
21.151524
 21
182.878349
  0
LINE
  8
0
  6
CONTINUOUS
 62
1
 10
20.746524
 20
182.878349
 11
20.746524
 21
188.868974
  0
LINE
  8
0
  6
CONTINUOUS
 62
1
 10
20.341524
 20
188.868974
 11
20.341524
 21
182.878349
  0
LINE
  8
0
  6
CONTINUOUS
 62
1
 10
19.936524
 20
182.878349
 11
19.936524
 21
188.868974
  0
LINE
  8
0
  6
CONTINUOUS
 62
1
 10
19.531524
 20
188.868974
 11
19.531524
 21
182.878349
  0
LINE
  8
0
  6
CONTINUOUS
 62
1
 10
19.126524
 20
182.878349
 11
19.126524
 21
188.868974
  0
LINE
  8
0
  6
CONTINUOUS
 62
1
 10
18.721524
 20
188.868974
 11
18.721524
 21
182.878349
  0
LINE
  8
0
  6
CONTINUOUS
 62
1
 10
18.316524
 20
182.878349
 11
18.316524
 21
188.868974
  0
LINE
  8
0
  6
CONTINUOUS
 62
1
 10
17.911524
 20
188.868974
 11
17.911524
 21
182.878349
  0
LINE
  8
0
  6
CONTINUOUS
 62
1
 10
16.291524
 20
182.878349
 11
16.291524
 21
187.569599
  0
LINE
  8
0
  6
CONTINUOUS
 62
1
 10
15.886524
 20
187.198349
 11
15.886524
 21
182.878349
  0
LINE
  8
0
  6
CONTINUOUS
 62
1
 10
15.481524
 20
182.878349
 11
15.481524
 21
186.827099
  0
LINE
  8
0
  6
CONTINUOUS
 62
1
 10
15.076524
 20
186.455849
 11
15.076524
 21
182.878349
  0
LINE
  8
0
  6
CONTINUOUS
 62
1
 10
14.671524
 20
182.878349
 11
14.671524
 21
186.084599
  0
LINE
  8
0
  6
CONTINUOUS
 62
1
 10
14.266524
 20
185.713349
 11
14.266524
 21
182.878349
  0
LINE
  8
0
  6
CONTINUOUS
 62
1
 10
16.291524
 20
177.174599
 11
16.291524
 21
181.865849
  0
LINE
  8
0
  6
CONTINUOUS
 62
1
 10
15.886524
 20
181.865849
 11
15.886524
 21
177.545849
  0
LINE
  8
0
  6
CONTINUOUS
 62
1
 10
15.481524
 20
177.917099
 11
15.481524
 21
181.865849
  0
LINE
  8
0
  6
CONTINUOUS
 62
1
 10
15.076524
 20
181.865849
 11
15.076524
 21
178.288349
  0
LINE
  8
0
  6
CONTINUOUS
 62
1
 10
14.671524
 20
178.659599
 11
14.671524
 21
181.865849
  0
LINE
  8
0
  6
CONTINUOUS
 62
1
 10
14.266524
 20
181.865849
 11
14.266524
 21
179.030849
  0
LINE
  8
0
  6
CONTINUOUS
 62
1
 10
22.366524
 20
171.605849
 11
22.366524
 21
174.862724
  0
LINE
  8
0
  6
CONTINUOUS
 62
1
 10
21.961524
 20
174.862724
 11
21.961524
 21
171.977099
  0
LINE
  8
0
  6
CONTINUOUS
 62
1
 10
21.556524
 20
172.348349
 11
21.556524
 21
174.862724
  0
LINE
  8
0
  6
CONTINUOUS
 62
1
 10
21.151524
 20
174.862724
 11
21.151524
 21
172.719599
  0
LINE
  8
0
  6
CONTINUOUS
 62
1
 10
20.746524
 20
173.090849
 11
20.746524
 21
174.862724
  0
LINE
  8
0
  6
CONTINUOUS
 62
1
 10
20.341524
 20
174.862724
 11
20.341524
 21
173.462099
  0
LINE
  8
0
  6
CONTINUOUS
 62
1
 10
19.936524
 20
173.833349
 11
19.936524
 21
174.862724
  0
LINE
  8
0
  6
CONTINUOUS
 62
1
 10
19.531524
 20
174.862724
 11
19.531524
 21
174.204599
  0
LINE
  8
0
  6
CONTINUOUS
 62
1
 10
19.126524
 20
174.575849
 11
19.126524
 21
174.862724
  0
LINE
  8
0
  6
CONTINUOUS
 62
1
 10
22.366524
 20
189.881474
 11
22.366524
 21
193.138349
  0
LINE
  8
0
  6
CONTINUOUS
 62
1
 10
21.961524
 20
192.767099
 11
21.961524
 21
189.881474
  0
LINE
  8
0
  6
CONTINUOUS
 62
1
 10
21.556524
 20
189.881474
 11
21.556524
 21
192.395849
  0
LINE
  8
0
  6
CONTINUOUS
 62
1
 10
21.151524
 20
192.024599
 11
21.151524
 21
189.881474
  0
LINE
  8
0
  6
CONTINUOUS
 62
1
 10
20.746524
 20
189.881474
 11
20.746524
 21
191.653349
  0
LINE
  8
0
  6
CONTINUOUS
 62
1
 10
20.341524
 20
191.282099
 11
20.341524
 21
189.881474
  0
LINE
  8
0
  6
CONTINUOUS
 62
1
 10
19.936524
 20
189.881474
 11
19.936524
 21
190.910849
  0
LINE
  8
0
  6
CONTINUOUS
 62
1
 10
19.531524
 20
190.539599
 11
19.531524
 21
189.881474
  0
LINE
  8
0
  6
CONTINUOUS
 62
1
 10
19.126524
 20
189.881474
 11
19.126524
 21
190.168349
  0
LINE
  8
0
  6
CONTINUOUS
 62
1
 10
22.569024
 20
175.875224
 11
22.569024
 21
181.865849
  0
LINE
  8
0
  6
CONTINUOUS
 62
1
 10
22.164024
 20
181.865849
 11
22.164024
 21
175.875224
  0
LINE
  8
0
  6
CONTINUOUS
 62
1
 10
21.759024
 20
181.865849
 11
21.759024
 21
175.875224
  0
LINE
  8
0
  6
CONTINUOUS
 62
1
 10
21.354024
 20
175.875224
 11
21.354024
 21
181.865849
  0
LINE
  8
0
  6
CONTINUOUS
 62
1
 10
19.329024
 20
175.875224
 11
19.329024
 21
181.865849
  0
LINE
  8
0
  6
CONTINUOUS
 62
1
 10
18.924024
 20
181.865849
 11
18.924024
 21
175.875224
  0
LINE
  8
0
  6
CONTINUOUS
 62
1
 10
18.519024
 20
175.875224
 11
18.519024
 21
181.865849
  0
LINE
  8
0
  6
CONTINUOUS
 62
1
 10
18.114024
 20
181.865849
 11
18.114024
 21
175.875224
  0
LINE
  8
0
  6
CONTINUOUS
 62
1
 10
19.734024
 20
181.865849
 11
19.734024
 21
175.875224
  0
LINE
  8
0
  6
CONTINUOUS
 62
1
 10
20.139024
 20
175.875224
 11
20.139024
 21
181.865849
  0
LINE
  8
0
  6
CONTINUOUS
 62
1
 10
20.544024
 20
181.865849
 11
20.544024
 21
175.875224
  0
LINE
  8
0
  6
CONTINUOUS
 62
1
 10
20.949024
 20
175.875224
 11
20.949024
 21
181.865849
  0
LINE
  8
0
  6
CONTINUOUS
 62
1
 10
22.569024
 20
182.878349
 11
22.569024
 21
188.868974
  0
LINE
  8
0
  6
CONTINUOUS
 62
1
 10
22.164024
 20
188.868974
 11
22.164024
 21
182.878349
  0
LINE
  8
0
  6
CONTINUOUS
 62
1
 10
18.114024
 20
182.878349
 11
18.114024
 21
188.868974
  0
LINE
  8
0
  6
CONTINUOUS
 62
1
 10
18.519024
 20
188.868974
 11
18.519024
 21
182.878349
  0
LINE
  8
0
  6
CONTINUOUS
 62
1
 10
18.924024
 20
188.868974
 11
18.924024
 21
182.878349
  0
LINE
  8
0
  6
CONTINUOUS
 62
1
 10
19.329024
 20
182.878349
 11
19.329024
 21
188.868974
  0
LINE
  8
0
  6
CONTINUOUS
 62
1
 10
19.734024
 20
182.878349
 11
19.734024
 21
188.868974
  0
LINE
  8
0
  6
CONTINUOUS
 62
1
 10
20.139024
 20
182.878349
 11
20.139024
 21
188.868974
  0
LINE
  8
0
  6
CONTINUOUS
 62
1
 10
20.544024
 20
182.878349
 11
20.544024
 21
188.868974
  0
LINE
  8
0
  6
CONTINUOUS
 62
1
 10
20.949024
 20
188.868974
 11
20.949024
 21
182.878349
  0
LINE
  8
0
  6
CONTINUOUS
 62
1
 10
21.354024
 20
188.868974
 11
21.354024
 21
182.878349
  0
LINE
  8
0
  6
CONTINUOUS
 62
1
 10
21.759024
 20
182.878349
 11
21.759024
 21
188.868974
  0
LINE
  8
0
  6
CONTINUOUS
 62
1
 10
22.569024
 20
189.881474
 11
22.569024
 21
193.323974
  0
LINE
  8
0
  6
CONTINUOUS
 62
1
 10
22.164024
 20
192.952724
 11
22.164024
 21
189.881474
  0
LINE
  8
0
  6
CONTINUOUS
 62
1
 10
21.759024
 20
189.881474
 11
21.759024
 21
192.581474
  0
LINE
  8
0
  6
CONTINUOUS
 62
1
 10
21.354024
 20
192.210224
 11
21.354024
 21
189.881474
  0
LINE
  8
0
  6
CONTINUOUS
 62
1
 10
20.949024
 20
189.881474
 11
20.949024
 21
191.838974
  0
LINE
  8
0
  6
CONTINUOUS
 62
1
 10
20.544024
 20
191.467724
 11
20.544024
 21
189.881474
  0
LINE
  8
0
  6
CONTINUOUS
 62
1
 10
20.139024
 20
191.096474
 11
20.139024
 21
189.881474
  0
LINE
  8
0
  6
CONTINUOUS
 62
1
 10
19.734024
 20
190.725224
 11
19.734024
 21
189.881474
  0
LINE
  8
0
  6
CONTINUOUS
 62
1
 10
19.329024
 20
189.881474
 11
19.329024
 21
190.353974
  0
LINE
  8
0
  6
CONTINUOUS
 62
1
 10
18.924024
 20
189.982724
 11
18.924024
 21
189.881474
  0
LINE
  8
0
  6
CONTINUOUS
 62
1
 10
22.569024
 20
171.420224
 11
22.569024
 21
174.862724
  0
LINE
  8
0
  6
CONTINUOUS
 62
1
 10
22.164024
 20
174.862724
 11
22.164024
 21
171.791474
  0
LINE
  8
0
  6
CONTINUOUS
 62
1
 10
21.759024
 20
172.162724
 11
21.759024
 21
174.862724
  0
LINE
  8
0
  6
CONTINUOUS
 62
1
 10
21.354024
 20
174.862724
 11
21.354024
 21
172.533974
  0
LINE
  8
0
  6
CONTINUOUS
 62
1
 10
20.949024
 20
172.905224
 11
20.949024
 21
174.862724
  0
LINE
  8
0
  6
CONTINUOUS
 62
1
 10
20.544024
 20
174.862724
 11
20.544024
 21
173.276474
  0
LINE
  8
0
  6
CONTINUOUS
 62
1
 10
20.139024
 20
173.647724
 11
20.139024
 21
174.862724
  0
LINE
  8
0
  6
CONTINUOUS
 62
1
 10
19.734024
 20
174.862724
 11
19.734024
 21
174.018974
  0
LINE
  8
0
  6
CONTINUOUS
 62
1
 10
19.329024
 20
174.390224
 11
19.329024
 21
174.862724
  0
LINE
  8
0
  6
CONTINUOUS
 62
1
 10
18.924024
 20
174.862724
 11
18.924024
 21
174.761474
  0
LINE
  8
0
  6
CONTINUOUS
 62
1
 10
16.494024
 20
182.878349
 11
16.494024
 21
187.755224
  0
LINE
  8
0
  6
CONTINUOUS
 62
1
 10
16.089024
 20
187.383974
 11
16.089024
 21
182.878349
  0
LINE
  8
0
  6
CONTINUOUS
 62
1
 10
15.684024
 20
182.878349
 11
15.684024
 21
187.012724
  0
LINE
  8
0
  6
CONTINUOUS
 62
1
 10
15.279024
 20
186.641474
 11
15.279024
 21
182.878349
  0
LINE
  8
0
  6
CONTINUOUS
 62
1
 10
14.874024
 20
182.878349
 11
14.874024
 21
186.270224
  0
LINE
  8
0
  6
CONTINUOUS
 62
1
 10
14.469024
 20
185.898974
 11
14.469024
 21
182.878349
  0
LINE
  8
0
  6
CONTINUOUS
 62
1
 10
14.469024
 20
181.865849
 11
14.469024
 21
178.845224
  0
LINE
  8
0
  6
CONTINUOUS
 62
1
 10
14.874024
 20
178.473974
 11
14.874024
 21
181.865849
  0
LINE
  8
0
  6
CONTINUOUS
 62
1
 10
15.279024
 20
181.865849
 11
15.279024
 21
178.102724
  0
LINE
  8
0
  6
CONTINUOUS
 62
1
 10
15.684024
 20
177.731474
 11
15.684024
 21
181.865849
  0
LINE
  8
0
  6
CONTINUOUS
 62
1
 10
16.089024
 20
181.865849
 11
16.089024
 21
177.360224
  0
LINE
  8
0
  6
CONTINUOUS
 62
1
 10
16.494024
 20
176.988974
 11
16.494024
 21
181.865849
  0
LINE
  8
0
  6
CONTINUOUS
 62
1
 10
33.571524
 20
198.957126
 11
33.571524
 21
165.787045
  0
LINE
  8
0
  6
CONTINUOUS
 62
1
 10
24.796524
 20
165.787045
 11
24.796524
 21
198.957126
  0
ARC
  8
0
  6
CONTINUOUS
 62
1
 10
27.461923
 20
168.074104
 40
1.075798
 50
101.065051
 51
132.065051
  0
ARC
  8
0
  6
CONTINUOUS
 62
1
 10
27.572266
 20
168.135782
 40
1.110793
 50
138.434949
 51
168.434949
  0
ARC
  8
0
  6
CONTINUOUS
 62
1
 10
28.788962
 20
167.972760
 40
2.336988
 50
170.500000
 51
189.499999
  0
ARC
  8
0
  6
CONTINUOUS
 62
1
 10
28.208722
 20
167.511743
 40
1.726341
 50
177.500000
 51
272.499999
  0
LINE
  8
0
  6
CONTINUOUS
 62
1
 10
28.284024
 20
165.787045
 11
29.826881
 21
165.787045
  0
ARC
  8
0
  6
CONTINUOUS
 62
1
 10
29.701546
 20
168.734479
 40
2.950098
 50
272.434949
 51
304.434949
  0
ARC
  8
0
  6
CONTINUOUS
 62
1
 10
30.617539
 20
167.320288
 40
1.266522
 50
306.434949
 51
0.434948
  0
LINE
  8
0
  6
CONTINUOUS
 62
1
 10
31.884024
 20
167.329902
 11
31.884024
 21
167.844188
  0
ARC
  8
0
  6
CONTINUOUS
 62
1
 10
30.643121
 20
167.905751
 40
1.242430
 50
357.159808
 51
80.159810
  0
LINE
  8
0
  6
CONTINUOUS
 62
1
 10
31.884024
 20
170.415617
 11
26.484024
 21
170.415617
  0
LINE
  8
0
  6
CONTINUOUS
 62
1
 10
26.484024
 20
170.415617
 11
26.484024
 21
172.729902
  0
ARC
  8
0
  6
CONTINUOUS
 62
1
 10
27.512596
 20
172.729902
 40
1.028571
 50
90.000000
 51
180.000000
  0
ARC
  8
0
  6
CONTINUOUS
 62
1
 10
27.512596
 20
172.472760
 40
1.285714
 50
0.000001
 51
90.000000
  0
LINE
  8
0
  6
CONTINUOUS
 62
1
 10
28.798310
 20
172.472760
 11
28.798310
 21
170.158474
  0
LINE
  8
0
  6
CONTINUOUS
 62
1
 10
28.798310
 20
171.958474
 11
31.884024
 21
173.758474
  0
LINE
  8
0
  6
CONTINUOUS
 62
1
 10
31.884024
 20
175.044188
 11
26.484024
 21
175.044188
  0
LINE
  8
0
  6
CONTINUOUS
 62
1
 10
26.484024
 20
178.129902
 11
31.884024
 21
178.129902
  0
LINE
  8
0
  6
CONTINUOUS
 62
1
 10
26.484024
 20
176.329902
 11
26.484024
 21
179.929902
  0
LINE
  8
0
  6
CONTINUOUS
 62
1
 10
26.484024
 20
183.015617
 11
31.884024
 21
183.015617
  0
LINE
  8
0
  6
CONTINUOUS
 62
1
 10
26.484024
 20
181.215617
 11
26.484024
 21
184.815617
  0
LINE
  8
0
  6
CONTINUOUS
 62
1
 10
31.884024
 20
186.101331
 11
26.484024
 21
188.158474
  0
LINE
  8
0
  6
CONTINUOUS
 62
1
 10
26.484024
 20
188.158474
 11
31.884024
 21
190.215617
  0
LINE
  8
0
  6
CONTINUOUS
 62
1
 10
30.084024
 20
186.872760
 11
30.084024
 21
189.701331
  0
LINE
  8
0
  6
CONTINUOUS
 62
1
 10
31.884024
 20
191.501331
 11
26.484024
 21
191.501331
  0
LINE
  8
0
  6
CONTINUOUS
 62
1
 10
31.884024
 20
191.501331
 11
31.884024
 21
194.587045
  0
LINE
  8
0
  6
CONTINUOUS
 62
1
 10
31.884024
 20
195.872760
 11
26.484024
 21
195.872760
  0
LINE
  8
0
  6
CONTINUOUS
 62
1
 10
31.884024
 20
195.872760
 11
31.884024
 21
198.958474
  0
LINE
  8
0
  6
CONTINUOUS
 62
1
 10
260.875000
 20
194.750000
 11
259.000000
 21
194.750000
  0
ARC
  8
0
  6
CONTINUOUS
 62
1
 10
254.625723
 20
194.428881
 40
4.386048
 50
4.198591
 51
42.198592
  0
ARC
  8
0
  6
CONTINUOUS
 62
1
 10
254.692799
 20
193.436889
 40
5.063114
 50
51.059965
 51
90.059967
  0
ARC
  8
0
  6
CONTINUOUS
 62
1
 10
254.579736
 20
194.224870
 40
4.276488
 50
88.556045
 51
132.556044
  0
ARC
  8
0
  6
CONTINUOUS
 62
1
 10
253.273673
 20
195.942506
 40
2.137285
 50
137.914383
 51
213.914386
  0
ARC
  8
0
  6
CONTINUOUS
 62
1
 10
254.168697
 20
197.072828
 40
3.538004
 50
221.036243
 51
257.036244
  0
LINE
  8
0
  6
CONTINUOUS
 62
1
 10
253.375000
 20
193.625000
 11
256.750000
 21
192.687500
  0
ARC
  8
0
  6
CONTINUOUS
 62
1
 10
255.816959
 20
187.982879
 40
4.796251
 50
30.782407
 51
78.782407
  0
ARC
  8
0
  6
CONTINUOUS
 62
1
 10
256.367410
 20
188.900759
 40
3.886787
 50
325.289408
 51
23.289407
  0
ARC
  8
0
  6
CONTINUOUS
 62
1
 10
255.630344
 20
189.864312
 40
5.055095
 50
272.065052
 51
321.065051
  0
ARC
  8
0
  6
CONTINUOUS
 62
1
 10
254.979959
 20
191.370312
 40
6.610448
 50
238.235225
 51
277.235226
  0
ARC
  8
0
  6
CONTINUOUS
 62
1
 10
253.984249
 20
189.332171
 40
4.359294
 50
180.258542
 51
235.258541
  0
LINE
  8
0
  6
CONTINUOUS
 62
1
 10
249.625000
 20
189.312500
 11
251.500000
 21
189.312500
  0
ARC
  8
0
  6
CONTINUOUS
 62
1
 10
254.743573
 20
189.696772
 40
3.266256
 50
186.756437
 51
233.756439
  0
ARC
  8
0
  6
CONTINUOUS
 62
1
 10
255.189611
 20
192.048557
 40
5.523714
 50
244.510447
 51
290.510447
  0
ARC
  8
0
  6
CONTINUOUS
 62
1
 10
256.167150
 20
188.760175
 40
2.114560
 50
296.934949
 51
9.934947
  0
ARC
  8
0
  6
CONTINUOUS
 62
1
 10
256.345101
 20
188.720101
 40
1.947455
 50
12.000000
 51
78.000002
  0
LINE
  8
0
  6
CONTINUOUS
 62
1
 10
256.750000
 20
190.625000
 11
251.687500
 21
192.125000
  0
ARC
  8
0
  6
CONTINUOUS
 62
1
 10
253.113522
 20
195.823385
 40
3.963785
 50
192.914382
 51
248.914383
  0
ARC
  8
0
  6
CONTINUOUS
 62
1
 10
253.532236
 20
195.697588
 40
4.349170
 50
133.065052
 51
190.065051
  0
ARC
  8
0
  6
CONTINUOUS
 62
1
 10
254.380220
 20
194.014843
 40
6.180300
 50
87.150123
 51
128.150124
  0
ARC
  8
0
  6
CONTINUOUS
 62
1
 10
255.018733
 20
192.924917
 40
7.270132
 50
63.611341
 51
92.611342
  0
ARC
  8
0
  6
CONTINUOUS
 62
1
 10
255.661845
 20
194.909383
 40
5.215591
 50
358.248827
 51
60.248826
  0
LINE
  8
0
  6
CONTINUOUS
 62
1
 10
240.062500
 20
200.000000
 11
242.125000
 21
200.000000
  0
LINE
  8
0
  6
CONTINUOUS
 62
1
 10
242.125000
 20
200.000000
 11
242.125000
 21
193.250000
  0
LINE
  8
0
  6
CONTINUOUS
 62
1
 10
242.125000
 20
193.250000
 11
242.125000
 21
186.687500
  0
LINE
  8
0
  6
CONTINUOUS
 62
1
 10
242.125000
 20
186.687500
 11
247.187500
 21
186.687500
  0
LINE
  8
0
  6
CONTINUOUS
 62
1
 10
247.187500
 20
186.687500
 11
247.187500
 21
185.000000
  0
LINE
  8
0
  6
CONTINUOUS
 62
1
 10
247.187500
 20
185.000000
 11
241.000000
 21
185.000000
  0
LINE
  8
0
  6
CONTINUOUS
 62
1
 10
241.000000
 20
185.000000
 11
235.187500
 21
185.000000
  0
LINE
  8
0
  6
CONTINUOUS
 62
1
 10
235.187500
 20
185.000000
 11
235.187500
 21
186.687500
  0
LINE
  8
0
  6
CONTINUOUS
 62
1
 10
235.187500
 20
186.687500
 11
240.062500
 21
186.687500
  0
LINE
  8
0
  6
CONTINUOUS
 62
1
 10
240.062500
 20
186.687500
 11
240.062500
 21
193.625000
  0
LINE
  8
0
  6
CONTINUOUS
 62
1
 10
240.062500
 20
193.625000
 11
240.062500
 21
200.000000
  0
LINE
  8
0
  6
CONTINUOUS
 62
1
 10
232.562500
 20
191.937500
 11
232.562500
 21
185.000000
  0
LINE
  8
0
  6
CONTINUOUS
 62
1
 10
232.562500
 20
185.000000
 11
221.875000
 21
185.000000
  0
LINE
  8
0
  6
CONTINUOUS
 62
1
 10
221.875000
 20
185.000000
 11
221.875000
 21
186.687500
  0
LINE
  8
0
  6
CONTINUOUS
 62
1
 10
221.875000
 20
186.687500
 11
230.500000
 21
186.687500
  0
LINE
  8
0
  6
CONTINUOUS
 62
1
 10
230.500000
 20
186.687500
 11
230.500000
 21
191.375000
  0
LINE
  8
0
  6
CONTINUOUS
 62
1
 10
230.500000
 20
191.375000
 11
222.437500
 21
191.375000
  0
LINE
  8
0
  6
CONTINUOUS
 62
1
 10
222.437500
 20
191.375000
 11
222.437500
 21
193.062500
  0
LINE
  8
0
  6
CONTINUOUS
 62
1
 10
222.437500
 20
193.062500
 11
230.500000
 21
193.062500
  0
LINE
  8
0
  6
CONTINUOUS
 62
1
 10
230.500000
 20
193.062500
 11
230.500000
 21
198.312500
  0
LINE
  8
0
  6
CONTINUOUS
 62
1
 10
230.500000
 20
198.312500
 11
221.312500
 21
198.312500
  0
LINE
  8
0
  6
CONTINUOUS
 62
1
 10
221.312500
 20
198.312500
 11
221.312500
 21
200.000000
  0
LINE
  8
0
  6
CONTINUOUS
 62
1
 10
221.312500
 20
200.000000
 11
232.562500
 21
200.000000
  0
LINE
  8
0
  6
CONTINUOUS
 62
1
 10
232.562500
 20
200.000000
 11
232.562500
 21
191.937500
  0
LINE
  8
0
  6
CONTINUOUS
 62
1
 10
218.125000
 20
191.937500
 11
218.125000
 21
185.000000
  0
LINE
  8
0
  6
CONTINUOUS
 62
1
 10
218.125000
 20
185.000000
 11
207.437500
 21
185.000000
  0
LINE
  8
0
  6
CONTINUOUS
 62
1
 10
207.437500
 20
185.000000
 11
207.437500
 21
186.687500
  0
LINE
  8
0
  6
CONTINUOUS
 62
1
 10
207.437500
 20
186.687500
 11
216.062500
 21
186.687500
  0
LINE
  8
0
  6
CONTINUOUS
 62
1
 10
216.062500
 20
186.687500
 11
216.062500
 21
191.375000
  0
LINE
  8
0
  6
CONTINUOUS
 62
1
 10
216.062500
 20
191.375000
 11
208.000000
 21
191.375000
  0
LINE
  8
0
  6
CONTINUOUS
 62
1
 10
208.000000
 20
191.375000
 11
208.000000
 21
193.062500
  0
LINE
  8
0
  6
CONTINUOUS
 62
1
 10
208.000000
 20
193.062500
 11
216.062500
 21
193.062500
  0
LINE
  8
0
  6
CONTINUOUS
 62
1
 10
216.062500
 20
193.062500
 11
216.062500
 21
198.312500
  0
LINE
  8
0
  6
CONTINUOUS
 62
1
 10
216.062500
 20
198.312500
 11
206.875000
 21
198.312500
  0
LINE
  8
0
  6
CONTINUOUS
 62
1
 10
206.875000
 20
198.312500
 11
206.875000
 21
200.000000
  0
LINE
  8
0
  6
CONTINUOUS
 62
1
 10
206.875000
 20
200.000000
 11
218.125000
 21
200.000000
  0
LINE
  8
0
  6
CONTINUOUS
 62
1
 10
218.125000
 20
200.000000
 11
218.125000
 21
191.937500
  0
LINE
  8
0
  6
CONTINUOUS
 62
1
 10
203.687500
 20
192.125000
 11
203.687500
 21
185.000000
  0
LINE
  8
0
  6
CONTINUOUS
 62
1
 10
203.687500
 20
185.000000
 11
201.625000
 21
185.000000
  0
LINE
  8
0
  6
CONTINUOUS
 62
1
 10
201.625000
 20
185.000000
 11
201.625000
 21
191.562500
  0
LINE
  8
0
  6
CONTINUOUS
 62
1
 10
201.625000
 20
191.562500
 11
201.625000
 21
198.312500
  0
LINE
  8
0
  6
CONTINUOUS
 62
1
 10
201.625000
 20
198.312500
 11
194.500000
 21
198.312500
  0
LINE
  8
0
  6
CONTINUOUS
 62
1
 10
194.500000
 20
198.312500
 11
194.500000
 21
200.000000
  0
LINE
  8
0
  6
CONTINUOUS
 62
1
 10
194.500000
 20
200.000000
 11
203.687500
 21
200.000000
  0
LINE
  8
0
  6
CONTINUOUS
 62
1
 10
203.687500
 20
200.000000
 11
203.687500
 21
192.125000
  0
TEXT
  8
0
  6
CONTINUOUS
 62
1
 10
20.000000
 20
20.843750
 40
6.000000
  1
Homelight Windows
 50
90.000000
 41
1.000000
 51
0.000000
  7
STANDARD
  0
TEXT
  8
0
  6
CONTINUOUS
 62
1
 10
277.476378
 20
19.947503
 40
2.000000
  1
This drawing is the property of Crittall Windows Ltd and is a
 50
90.000000
 41
1.000000
 51
0.000000
  7
STANDARD
  0
TEXT
  8
0
  6
CONTINUOUS
 62
1
 10
281.476378
 20
19.947503
 40
2.000000
  1
confidential document and must not be copied or its contents
 50
90.000000
 41
1.000000
 51
0.000000
  7
STANDARD
  0
TEXT
  8
0
  6
CONTINUOUS
 62
1
 10
285.476378
 20
19.947503
 40
2.000000
  1
divulged without prior consent.
 50
90.000000
 41
1.000000
 51
0.000000
  7
STANDARD
  0
TEXT
  8
0
  6
CONTINUOUS
 62
1
 10
28.714659
 20
32.916805
 40
3.000000
  1
U.K. GLAZING DETAILS - ALL FIXINGS AND HOLES
 50
90.000000
 41
1.000000
 51
0.000000
  7
STANDARD
  0
LINE
  8
0
  6
CONTINUOUS
 62
1
 10
30.214659
 20
145.961448
 11
30.214659
 21
32.247162
  0
TEXT
  8
0
  6
CONTINUOUS
 62
1
 10
34.714659
 20
32.916805
 40
3.000000
  1
TO BE SEALED WITH SILICONE BEFORE GLAZING
 50
90.000000
 41
1.000000
 51
0.000000
  7
STANDARD
  0
LINE
  8
0
  6
CONTINUOUS
 62
1
 10
36.214659
 20
139.961448
 11
36.214659
 21
32.247162
  0
LINE
  8
0
  6
CONTINUOUS
 62
4
 10
62.227100
 20
61.100476
 11
80.483350
 21
61.100476
  0
LINE
  8
0
  6
CONTINUOUS
 62
4
 10
82.070850
 20
59.512976
 11
82.070850
 21
58.883846
  0
LINE
  8
0
  6
CONTINUOUS
 62
4
 10
69.370850
 20
56.515776
 11
69.370850
 21
37.465776
  0
LINE
  8
0
  6
CONTINUOUS
 62
4
 10
66.195850
 20
41.256726
 11
66.195850
 21
55.234088
  0
LINE
  8
0
  6
CONTINUOUS
 62
4
 10
51.114600
 20
35.878276
 11
67.783350
 21
35.878276
  0
LINE
  8
0
  6
CONTINUOUS
 62
4
 10
49.527100
 20
38.081726
 11
49.527100
 21
37.465776
  0
LINE
  8
0
  6
CONTINUOUS
 62
4
 10
50.320850
 20
38.875476
 11
63.814600
 21
38.875476
  0
LINE
  8
0
  6
CONTINUOUS
 62
4
 10
62.227100
 20
61.100476
 11
62.227100
 21
59.512976
  0
LINE
  8
0
  6
CONTINUOUS
 62
4
 10
65.670331
 20
56.414068
 11
62.227100
 21
59.512976
  0
ARC
  8
0
  6
CONTINUOUS
 62
4
 10
67.783350
 20
37.465776
 40
1.587500
 50
270.000000
 51
0.000000
  0
ARC
  8
0
  6
CONTINUOUS
 62
4
 10
70.958350
 20
56.515776
 40
1.587500
 50
90.000000
 51
180.000000
  0
ARC
  8
0
  6
CONTINUOUS
 62
4
 10
51.114600
 20
37.465776
 40
1.587500
 50
180.000000
 51
270.000000
  0
ARC
  8
0
  6
CONTINUOUS
 62
4
 10
80.483350
 20
59.512976
 40
1.587500
 50
0.000000
 51
90.000000
  0
ARC
  8
0
  6
CONTINUOUS
 62
4
 10
64.608350
 20
55.234088
 40
1.587500
 50
0.000000
 51
48.012788
  0
ARC
  8
0
  6
CONTINUOUS
 62
4
 10
50.320850
 20
38.081726
 40
0.793750
 50
90.000000
 51
180.000000
  0
ARC
  8
0
  6
CONTINUOUS
 62
4
 10
63.814600
 20
41.256726
 40
2.381250
 50
270.000000
 51
0.000000
  0
LINE
  8
0
  6
RANDOM
 62
4
 10
118.808814
 20
50.553357
 11
118.808814
 21
55.553357
  0
LINE
  8
0
  6
CONTINUOUS
 62
4
 10
80.483350
 20
61.100476
 11
118.808814
 21
61.100476
  0
CIRCLE
  8
0
  6
CONTINUOUS
 62
4
 10
81.595967
 20
56.807823
 40
0.050000
  0
CIRCLE
  8
0
  6
CONTINUOUS
 62
4
 10
79.963931
 20
56.133248
 40
0.050000
  0
LINE
  8
0
  6
CONTINUOUS
 62
4
 10
83.706891
 20
55.553357
 11
81.948455
 21
58.473563
  0
LINE
  8
0
  6
CONTINUOUS
 62
4
 10
83.706891
 20
50.553357
 11
69.370850
 21
38.511416
  0
CIRCLE
  8
0
  6
CONTINUOUS
 62
4
 10
78.866366
 20
49.143169
 40
0.050000
  0
CIRCLE
  8
0
  6
CONTINUOUS
 62
4
 10
72.769172
 20
49.113855
 40
0.050000
  0
CIRCLE
  8
0
  6
CONTINUOUS
 62
4
 10
70.893113
 20
47.706811
 40
0.050000
  0
CIRCLE
  8
0
  6
CONTINUOUS
 62
4
 10
71.655262
 20
45.772124
 40
0.050000
  0
CIRCLE
  8
0
  6
CONTINUOUS
 62
4
 10
71.655262
 20
42.078631
 40
0.050000
  0
CIRCLE
  8
0
  6
CONTINUOUS
 62
4
 10
74.293471
 20
44.834094
 40
0.050000
  0
CIRCLE
  8
0
  6
CONTINUOUS
 62
4
 10
74.352098
 20
48.351706
 40
0.050000
  0
CIRCLE
  8
0
  6
CONTINUOUS
 62
4
 10
70.503853
 20
41.802302
 40
0.050000
  0
CIRCLE
  8
0
  6
CONTINUOUS
 62
4
 10
72.160118
 20
43.695176
 40
0.050000
  0
CIRCLE
  8
0
  6
CONTINUOUS
 62
4
 10
70.503853
 20
40.855865
 40
0.050000
  0
CIRCLE
  8
0
  6
CONTINUOUS
 62
4
 10
76.892303
 20
47.717533
 40
0.050000
  0
LINE
  8
0
  6
CONTINUOUS
 62
3
 10
118.835176
 20
55.553357
 11
71.443666
 21
55.553357
  0
LINE
  8
0
  6
CONTINUOUS
 62
3
 10
71.443666
 20
55.553357
 11
71.443666
 21
50.553357
  0
LINE
  8
0
  6
CONTINUOUS
 62
3
 10
76.443666
 20
55.553357
 11
71.443666
 21
55.553357
  0
LINE
  8
0
  6
CONTINUOUS
 62
3
 10
71.443666
 20
50.553357
 11
118.808814
 21
50.553357
  0
CIRCLE
  8
0
  6
CONTINUOUS
 62
4
 10
80.653727
 20
49.308409
 40
0.050000
  0
CIRCLE
  8
0
  6
CONTINUOUS
 62
4
 10
82.303182
 20
56.135367
 40
0.050000
  0
LINE
  8
0
  6
CONTINUOUS
 62
4
 10
81.270850
 20
58.083846
 11
70.832451
 21
58.083846
  0
LINE
  8
0
  6
CONTINUOUS
 62
4
 10
71.443666
 20
50.553357
 11
69.370850
 21
50.553357
  0
LINE
  8
0
  6
CONTINUOUS
 62
4
 10
69.370850
 20
55.553357
 11
71.443666
 21
55.553357
  0
LINE
  8
0
  6
CONTINUOUS
 62
4
 10
71.443666
 20
55.553357
 11
69.370850
 21
50.553357
  0
LINE
  8
0
  6
CONTINUOUS
 62
4
 10
71.443666
 20
50.553357
 11
69.370850
 21
55.553357
  0
LINE
  8
0
  6
CONTINUOUS
 62
1
 10
82.868309
 20
32.088183
 11
75.000491
 21
44.381650
  0
LINE
  8
0
  6
CONTINUOUS
 62
1
 10
75.837997
 20
42.542984
 11
76.319324
 21
42.851032
  0
LINE
  8
0
  6
CONTINUOUS
 62
1
 10
76.319324
 20
42.851032
 11
75.000491
 21
44.381650
  0
LINE
  8
0
  6
CONTINUOUS
 62
1
 10
75.000491
 20
44.381650
 11
75.837997
 21
42.542984
  0
LINE
  8
0
  6
CONTINUOUS
 62
1
 10
55.726861
 20
52.107692
 11
69.427453
 21
53.232945
  0
LINE
  8
0
  6
CONTINUOUS
 62
1
 10
67.410629
 20
53.353999
 11
67.457407
 21
52.784446
  0
LINE
  8
0
  6
CONTINUOUS
 62
1
 10
67.457407
 20
52.784446
 11
69.427453
 21
53.232945
  0
LINE
  8
0
  6
CONTINUOUS
 62
1
 10
69.427453
 20
53.232945
 11
67.410629
 21
53.353999
  0
CIRCLE
  8
0
  6
CONTINUOUS
 62
4
 10
78.167076
 20
57.371476
 40
0.050000
  0
CIRCLE
  8
0
  6
CONTINUOUS
 62
4
 10
76.535040
 20
56.696902
 40
0.050000
  0
CIRCLE
  8
0
  6
CONTINUOUS
 62
4
 10
78.874291
 20
56.699021
 40
0.050000
  0
CIRCLE
  8
0
  6
CONTINUOUS
 62
4
 10
73.117682
 20
57.512390
 40
0.050000
  0
CIRCLE
  8
0
  6
CONTINUOUS
 62
4
 10
71.485646
 20
56.837815
 40
0.050000
  0
CIRCLE
  8
0
  6
CONTINUOUS
 62
4
 10
73.824898
 20
56.839934
 40
0.050000
  0
TEXT
  8
0
  6
CONTINUOUS
 62
1
 10
124.240127
 20
37.420348
 40
2.000000
  1
4-6.0mm
 50
90.000000
 41
1.000000
 51
0.000000
  7
STANDARD
  0
LINE
  8
0
  6
CONTINUOUS
 62
1
 10
125.240127
 20
50.021539
 11
125.240127
 21
36.973920
  0
TEXT
  8
0
  6
CONTINUOUS
 62
1
 10
128.240127
 20
37.420348
 40
2.000000
  1
SINGLE GLASS
 50
90.000000
 41
1.000000
 51
0.000000
  7
STANDARD
  0
LINE
  8
0
  6
CONTINUOUS
 62
1
 10
129.240127
 20
57.450110
 11
129.240127
 21
36.973920
  0
TEXT
  8
0
  6
CONTINUOUS
 62
1
 10
132.240127
 20
37.420348
 40
2.000000
  1
PUTTY GLAZED
 50
90.000000
 41
1.000000
 51
0.000000
  7
STANDARD
  0
LINE
  8
0
  6
CONTINUOUS
 62
1
 10
133.240127
 20
59.450110
 11
133.240127
 21
36.973920
  0
LINE
  8
0
  6
CONTINUOUS
 62
1
 10
126.223968
 20
53.719732
 11
127.171298
 21
53.719732
  0
LINE
  8
0
  6
CONTINUOUS
 62
1
 10
127.171298
 20
54.219732
 11
126.223968
 21
54.219732
  0
ARC
  8
0
  6
CONTINUOUS
 62
4
 10
81.270850
 20
58.883846
 40
0.800000
 50
270.000000
 51
0.000000
  0
TEXT
  8
0
  6
CONTINUOUS
 62
1
 10
86.159344
 20
21.027710
 40
2.000000
  1
METAL
 50
90.000000
 41
1.000000
 51
0.000000
  7
STANDARD
  0
TEXT
  8
0
  6
CONTINUOUS
 62
1
 10
90.159344
 20
21.027710
 40
2.000000
  1
CASEMENT
 50
90.000000
 41
1.000000
 51
0.000000
  7
STANDARD
  0
TEXT
  8
0
  6
CONTINUOUS
 62
1
 10
94.159344
 20
21.027710
 40
2.000000
  1
GLAZING
 50
90.000000
 41
1.000000
 51
0.000000
  7
STANDARD
  0
TEXT
  8
0
  6
CONTINUOUS
 62
1
 10
98.159344
 20
21.027710
 40
2.000000
  1
PUTTY
 50
90.000000
 41
1.000000
 51
0.000000
  7
STANDARD
  0
TEXT
  8
0
  6
CONTINUOUS
 62
1
 10
45.582700
 20
43.042697
 40
2.000000
  1
3.0mm SETTING
 50
90.000000
 41
1.000000
 51
0.000000
  7
STANDARD
  0
TEXT
  8
0
  6
CONTINUOUS
 62
1
 10
49.582700
 20
43.042697
 40
2.000000
  1
BLOCK BY
 50
90.000000
 41
1.000000
 51
0.000000
  7
STANDARD
  0
TEXT
  8
0
  6
CONTINUOUS
 62
1
 10
53.582700
 20
43.042697
 40
2.000000
  1
GLAZIER
 50
90.000000
 41
1.000000
 51
0.000000
  7
STANDARD
  0
LINE
  8
0
  6
CONTINUOUS
 62
4
 10
89.108105
 20
175.799073
 11
63.311230
 21
175.799073
  0
LINE
  8
0
  6
CONTINUOUS
 62
4
 10
90.695605
 20
174.211573
 11
90.695605
 21
173.595623
  0
LINE
  8
0
  6
CONTINUOUS
 62
4
 10
89.901855
 20
172.801873
 11
71.248730
 21
172.801873
  0
LINE
  8
0
  6
CONTINUOUS
 62
4
 10
62.517480
 20
175.005323
 11
62.517480
 21
174.565079
  0
LINE
  8
0
  6
CONTINUOUS
 62
4
 10
66.486230
 20
169.932685
 11
66.486230
 21
155.955323
  0
LINE
  8
0
  6
CONTINUOUS
 62
4
 10
68.073730
 20
150.576873
 11
51.404980
 21
150.576873
  0
LINE
  8
0
  6
CONTINUOUS
 62
4
 10
69.661230
 20
171.214373
 11
69.661230
 21
152.164373
  0
LINE
  8
0
  6
CONTINUOUS
 62
4
 10
50.611230
 20
153.574073
 11
64.104980
 21
153.574073
  0
LINE
  8
0
  6
CONTINUOUS
 62
4
 10
65.960712
 20
171.112664
 11
62.780239
 21
173.975089
  0
LINE
  8
0
  6
CONTINUOUS
 62
4
 10
49.817480
 20
152.780323
 11
49.817480
 21
152.164373
  0
ARC
  8
0
  6
CONTINUOUS
 62
4
 10
51.404980
 20
152.164373
 40
1.587500
 50
180.000000
 51
270.000000
  0
ARC
  8
0
  6
CONTINUOUS
 62
4
 10
68.073730
 20
152.164373
 40
1.587500
 50
270.000000
 51
0.000000
  0
ARC
  8
0
  6
CONTINUOUS
 62
4
 10
71.248730
 20
171.214373
 40
1.587500
 50
90.000000
 51
180.000000
  0
ARC
  8
0
  6
CONTINUOUS
 62
4
 10
89.108105
 20
174.211573
 40
1.587500
 50
0.000000
 51
90.000000
  0
ARC
  8
0
  6
CONTINUOUS
 62
4
 10
64.898730
 20
169.932685
 40
1.587500
 50
0.000000
 51
48.012788
  0
ARC
  8
0
  6
CONTINUOUS
 62
4
 10
64.104980
 20
155.955323
 40
2.381250
 50
270.000000
 51
0.000000
  0
ARC
  8
0
  6
CONTINUOUS
 62
4
 10
50.611230
 20
152.780323
 40
0.793750
 50
90.000000
 51
180.000000
  0
ARC
  8
0
  6
CONTINUOUS
 62
4
 10
89.901855
 20
173.595623
 40
0.793750
 50
270.000000
 51
0.000000
  0
ARC
  8
0
  6
CONTINUOUS
 62
4
 10
63.311230
 20
174.565079
 40
0.793750
 50
180.000000
 51
228.012788
  0
ARC
  8
0
  6
CONTINUOUS
 62
4
 10
63.311230
 20
175.005323
 40
0.793750
 50
90.000000
 51
180.000000
  0
ARC
  8
0
  6
CONTINUOUS
 62
4
 10
69.712030
 20
152.834804
 40
0.050800
 50
180.000000
 51
270.000000
  0
LINE
  8
0
  6
DASHED
 62
4
 10
66.486230
 20
166.944004
 11
69.661230
 21
166.944004
  0
LINE
  8
0
  6
DASHED
 62
4
 10
66.486230
 20
158.944004
 11
69.661230
 21
158.944004
  0
LINE
  8
0
  6
CONTINUOUS
 62
4
 10
90.695605
 20
174.211573
 11
90.695605
 21
173.595623
  0
LINE
  8
0
  6
CONTINUOUS
 62
4
 10
89.901855
 20
172.801873
 11
71.248730
 21
172.801873
  0
LINE
  8
0
  6
CONTINUOUS
 62
4
 10
69.661230
 20
171.214373
 11
69.661230
 21
152.164373
  0
ARC
  8
0
  6
CONTINUOUS
 62
4
 10
68.073730
 20
152.164373
 40
1.587500
 50
270.000000
 51
0.000000
  0
ARC
  8
0
  6
CONTINUOUS
 62
4
 10
71.248730
 20
171.214373
 40
1.587500
 50
90.000000
 51
180.000000
  0
ARC
  8
0
  6
CONTINUOUS
 62
4
 10
89.108105
 20
174.211573
 40
1.587500
 50
0.000000
 51
90.000000
  0
ARC
  8
0
  6
CONTINUOUS
 62
4
 10
89.901855
 20
173.595623
 40
0.793750
 50
270.000000
 51
0.000000
  0
LINE
  8
0
  6
CONTINUOUS
 62
4
 10
73.161350
 20
172.627754
 11
74.609150
 21
172.627754
  0
LINE
  8
0
  6
CONTINUOUS
 62
4
 10
74.659950
 20
172.576954
 11
74.659950
 21
162.627774
  0
LINE
  8
0
  6
CONTINUOUS
 62
4
 10
72.432951
 20
155.436312
 11
72.432951
 21
153.628554
  0
LINE
  8
0
  6
CONTINUOUS
 62
4
 10
71.159830
 20
166.836554
 11
71.159830
 21
154.182996
  0
LINE
  8
0
  6
CONTINUOUS
 62
4
 10
72.346230
 20
155.472233
 11
71.246551
 21
154.147075
  0
LINE
  8
0
  6
CONTINUOUS
 62
4
 10
73.161350
 20
164.147416
 11
73.161350
 21
166.836554
  0
LINE
  8
0
  6
CONTINUOUS
 62
4
 10
74.659950
 20
162.627774
 11
73.176229
 21
164.111495
  0
LINE
  8
0
  6
CONTINUOUS
 62
4
 10
73.161350
 20
172.627754
 11
73.161350
 21
168.436754
  0
LINE
  8
0
  6
CONTINUOUS
 62
4
 10
73.110550
 20
168.385954
 11
69.661230
 21
168.385954
  0
LINE
  8
0
  6
CONTINUOUS
 62
4
 10
71.210630
 20
166.887354
 11
73.110550
 21
166.887354
  0
ARC
  8
0
  6
CONTINUOUS
 62
4
 10
73.110550
 20
166.836554
 40
0.050800
 50
0.000000
 51
90.000000
  0
ARC
  8
0
  6
CONTINUOUS
 62
4
 10
71.210630
 20
166.836554
 40
0.050800
 50
90.000000
 51
180.000000
  0
ARC
  8
0
  6
CONTINUOUS
 62
4
 10
71.210630
 20
154.182996
 40
0.050800
 50
180.000000
 51
315.000000
  0
ARC
  8
0
  6
CONTINUOUS
 62
4
 10
72.382151
 20
155.436312
 40
0.050800
 50
0.000000
 51
135.000000
  0
ARC
  8
0
  6
CONTINUOUS
 62
4
 10
69.712030
 20
153.628554
 40
0.050800
 50
180.000000
 51
270.000000
  0
ARC
  8
0
  6
CONTINUOUS
 62
4
 10
72.382151
 20
153.628554
 40
0.050800
 50
270.000000
 51
0.000000
  0
ARC
  8
0
  6
CONTINUOUS
 62
4
 10
74.609150
 20
172.576954
 40
0.050800
 50
0.000000
 51
90.000000
  0
ARC
  8
0
  6
CONTINUOUS
 62
4
 10
73.110550
 20
168.436754
 40
0.050800
 50
270.000000
 51
0.000000
  0
ARC
  8
0
  6
CONTINUOUS
 62
4
 10
73.212150
 20
164.147416
 40
0.050800
 50
180.000000
 51
225.000000
  0
LINE
  8
0
  6
CONTINUOUS
 62
4
 10
69.688394
 20
151.605064
 11
69.688394
 21
152.605062
  0
LINE
  8
0
  6
CONTINUOUS
 62
4
 10
89.514683
 20
151.605064
 11
69.688394
 21
151.605064
  0
LINE
  8
0
  6
CONTINUOUS
 62
4
 10
74.666794
 20
153.604044
 11
90.668794
 21
153.604044
  0
LINE
  8
0
  6
CONTINUOUS
 62
4
 10
90.668794
 20
153.604044
 11
89.514683
 21
151.605064
  0
LINE
  8
0
  6
CONTINUOUS
 62
4
 10
74.666794
 20
157.591844
 11
72.685594
 21
157.591844
  0
LINE
  8
0
  6
CONTINUOUS
 62
4
 10
74.666794
 20
157.591844
 11
74.666794
 21
153.604044
  0
LINE
  8
0
  6
CONTINUOUS
 62
4
 10
69.688394
 20
152.605062
 11
72.439214
 21
152.605062
  0
LINE
  8
0
  6
CONTINUOUS
 62
4
 10
72.439214
 20
155.602262
 11
71.186994
 21
154.879293
  0
LINE
  8
0
  6
CONTINUOUS
 62
4
 10
72.439214
 20
152.605062
 11
72.439214
 21
155.602262
  0
LINE
  8
0
  6
CONTINUOUS
 62
4
 10
72.685594
 20
163.226223
 11
72.685594
 21
157.591844
  0
LINE
  8
0
  6
CONTINUOUS
 62
4
 10
71.186994
 20
164.137532
 11
71.186994
 21
154.879293
  0
ARC
  8
0
  6
CONTINUOUS
 62
4
 10
72.185976
 20
164.092466
 40
0.999998
 50
90.000000
 51
182.582984
  0
ARC
  8
0
  6
CONTINUOUS
 62
4
 10
72.185976
 20
164.092466
 40
0.999998
 50
299.974796
 51
90.000000
  0
LINE
  8
0
  6
CONTINUOUS
 62
4
 10
69.712030
 20
153.577754
 11
72.382151
 21
153.577754
  0
LINE
  8
0
  6
CONTINUOUS
 62
4
 10
72.382151
 20
153.577754
 11
72.382151
 21
153.577754
  0
LINE
  8
0
  6
CONTINUOUS
 62
3
 10
118.835176
 20
156.614833
 11
79.638350
 21
156.614833
  0
LINE
  8
0
  6
CONTINUOUS
 62
3
 10
118.835176
 20
170.584833
 11
79.638350
 21
170.584833
  0
LINE
  8
0
  6
CONTINUOUS
 62
3
 10
79.638350
 20
160.602633
 11
118.835176
 21
160.602633
  0
LINE
  8
0
  6
CONTINUOUS
 62
3
 10
79.638350
 20
166.597033
 11
118.835176
 21
166.597033
  0
LINE
  8
0
  6
CONTINUOUS
 62
3
 10
79.638350
 20
156.614833
 11
79.638350
 21
170.584833
  0
LINE
  8
0
  6
CONTINUOUS
 62
4
 10
90.668794
 20
153.604044
 11
92.365061
 21
156.614833
  0
LINE
  8
0
  6
CONTINUOUS
 62
4
 10
92.365061
 20
170.584833
 11
90.695605
 21
174.389373
  0
LINE
  8
0
  6
RANDOM
 62
4
 10
118.835176
 20
156.614833
 11
118.835176
 21
170.584833
  0
LINE
  8
0
  6
CONTINUOUS
 62
4
 10
69.661230
 20
153.628554
 11
69.661230
 21
168.385954
  0
LINE
  8
0
  6
CONTINUOUS
 62
4
 10
92.313148
 20
166.597033
 11
92.313148
 21
160.602633
  0
LINE
  8
0
  6
CONTINUOUS
 62
4
 10
79.638350
 20
166.597033
 11
92.313148
 21
160.602633
  0
LINE
  8
0
  6
CONTINUOUS
 62
4
 10
92.313148
 20
166.597033
 11
79.638350
 21
160.602633
  0
LINE
  8
0
  6
CONTINUOUS
 62
4
 10
79.538350
 20
170.576532
 11
79.538350
 21
156.576532
  0
LINE
  8
0
  6
CONTINUOUS
 62
4
 10
74.759950
 20
156.576532
 11
74.759950
 21
170.576532
  0
LINE
  8
0
  6
CONTINUOUS
 62
4
 10
79.538350
 20
170.576532
 11
74.759950
 21
170.576532
  0
LINE
  8
0
  6
CONTINUOUS
 62
4
 10
74.759950
 20
156.576532
 11
79.538350
 21
156.576532
  0
LINE
  8
0
  6
CONTINUOUS
 62
4
 10
79.538350
 20
156.576532
 11
74.759950
 21
170.576532
  0
LINE
  8
0
  6
CONTINUOUS
 62
4
 10
79.538350
 20
170.576532
 11
74.759950
 21
156.576532
  0
LINE
  8
0
  6
CONTINUOUS
 62
1
 10
58.830790
 20
169.733105
 11
76.204535
 21
169.001561
  0
LINE
  8
0
  6
CONTINUOUS
 62
1
 10
74.218220
 20
169.371181
 11
74.194179
 21
168.800228
  0
LINE
  8
0
  6
CONTINUOUS
 62
1
 10
74.194179
 20
168.800228
 11
76.204535
 21
169.001561
  0
LINE
  8
0
  6
CONTINUOUS
 62
1
 10
76.204535
 20
169.001561
 11
74.218220
 21
169.371181
  0
LINE
  8
0
  6
CONTINUOUS
 62
1
 10
93.391859
 20
143.813242
 11
86.428029
 21
152.555070
  0
LINE
  8
0
  6
CONTINUOUS
 62
1
 10
87.450754
 20
150.812649
 11
87.897723
 21
151.168709
  0
LINE
  8
0
  6
CONTINUOUS
 62
1
 10
87.897723
 20
151.168709
 11
86.428029
 21
152.555070
  0
LINE
  8
0
  6
CONTINUOUS
 62
1
 10
86.428029
 20
152.555070
 11
87.450754
 21
150.812649
  0
LINE
  8
0
  6
CONTINUOUS
 62
1
 10
86.971500
 20
178.571702
 11
80.787003
 21
171.953206
  0
LINE
  8
0
  6
CONTINUOUS
 62
1
 10
82.361466
 20
173.219618
 11
81.943892
 21
173.609811
  0
LINE
  8
0
  6
CONTINUOUS
 62
1
 10
81.943892
 20
173.609811
 11
80.787003
 21
171.953206
  0
LINE
  8
0
  6
CONTINUOUS
 62
1
 10
80.787003
 20
171.953206
 11
82.361466
 21
173.219618
  0
CIRCLE
  8
0
  6
CONTINUOUS
 62
4
 10
80.876742
 20
155.329346
 40
0.050000
  0
CIRCLE
  8
0
  6
CONTINUOUS
 62
4
 10
79.244707
 20
154.654771
 40
0.050000
  0
CIRCLE
  8
0
  6
CONTINUOUS
 62
4
 10
81.583958
 20
154.656891
 40
0.050000
  0
CIRCLE
  8
0
  6
CONTINUOUS
 62
4
 10
77.447852
 20
155.893000
 40
0.050000
  0
CIRCLE
  8
0
  6
CONTINUOUS
 62
4
 10
75.815816
 20
155.218425
 40
0.050000
  0
CIRCLE
  8
0
  6
CONTINUOUS
 62
4
 10
78.155067
 20
155.220544
 40
0.050000
  0
CIRCLE
  8
0
  6
CONTINUOUS
 62
4
 10
89.211404
 20
155.384180
 40
0.050000
  0
CIRCLE
  8
0
  6
CONTINUOUS
 62
4
 10
87.579369
 20
154.709605
 40
0.050000
  0
CIRCLE
  8
0
  6
CONTINUOUS
 62
4
 10
89.918620
 20
154.711724
 40
0.050000
  0
CIRCLE
  8
0
  6
CONTINUOUS
 62
4
 10
85.782514
 20
155.947833
 40
0.050000
  0
CIRCLE
  8
0
  6
CONTINUOUS
 62
4
 10
84.150478
 20
155.273258
 40
0.050000
  0
CIRCLE
  8
0
  6
CONTINUOUS
 62
4
 10
86.489729
 20
155.275377
 40
0.050000
  0
CIRCLE
  8
0
  6
CONTINUOUS
 62
4
 10
80.931576
 20
171.943837
 40
0.050000
  0
CIRCLE
  8
0
  6
CONTINUOUS
 62
4
 10
79.299540
 20
171.269262
 40
0.050000
  0
CIRCLE
  8
0
  6
CONTINUOUS
 62
4
 10
81.638791
 20
171.271381
 40
0.050000
  0
CIRCLE
  8
0
  6
CONTINUOUS
 62
4
 10
77.502685
 20
172.507490
 40
0.050000
  0
CIRCLE
  8
0
  6
CONTINUOUS
 62
4
 10
75.870649
 20
171.832915
 40
0.050000
  0
CIRCLE
  8
0
  6
CONTINUOUS
 62
4
 10
78.209901
 20
171.835035
 40
0.050000
  0
CIRCLE
  8
0
  6
CONTINUOUS
 62
4
 10
89.869404
 20
171.669670
 40
0.050000
  0
CIRCLE
  8
0
  6
CONTINUOUS
 62
4
 10
88.237368
 20
170.995096
 40
0.050000
  0
CIRCLE
  8
0
  6
CONTINUOUS
 62
4
 10
90.576620
 20
170.997215
 40
0.050000
  0
CIRCLE
  8
0
  6
CONTINUOUS
 62
4
 10
86.440513
 20
172.233324
 40
0.050000
  0
CIRCLE
  8
0
  6
CONTINUOUS
 62
4
 10
84.808478
 20
171.558749
 40
0.050000
  0
CIRCLE
  8
0
  6
CONTINUOUS
 62
4
 10
87.147729
 20
171.560868
 40
0.050000
  0
TEXT
  8
0
  6
CONTINUOUS
 62
1
 10
124.657136
 20
151.956044
 40
2.000000
  1
14.0mm
 50
90.000000
 41
1.000000
 51
0.000000
  7
STANDARD
  0
LINE
  8
0
  6
CONTINUOUS
 62
1
 10
125.657136
 20
161.509615
 11
125.657136
 21
151.509615
  0
TEXT
  8
0
  6
CONTINUOUS
 62
1
 10
128.657136
 20
151.956044
 40
2.000000
  1
DOUBLE GLASS
 50
90.000000
 41
1.000000
 51
0.000000
  7
STANDARD
  0
LINE
  8
0
  6
CONTINUOUS
 62
1
 10
129.657136
 20
173.700092
 11
129.657136
 21
151.509615
  0
TEXT
  8
0
  6
CONTINUOUS
 62
1
 10
97.564101
 20
138.165456
 40
2.000000
  1
GLAZING
 50
90.000000
 41
1.000000
 51
0.000000
  7
STANDARD
  0
TEXT
  8
0
  6
CONTINUOUS
 62
1
 10
101.564101
 20
138.165456
 40
2.000000
  1
BEAD
 50
90.000000
 41
1.000000
 51
0.000000
  7
STANDARD
  0
TEXT
  8
0
  6
CONTINUOUS
 62
1
 10
105.564101
 20
138.165456
 40
2.000000
  1
TYPICAL
 50
90.000000
 41
1.000000
 51
0.000000
  7
STANDARD
  0
TEXT
  8
0
  6
CONTINUOUS
 62
1
 10
90.204772
 20
177.673433
 40
2.000000
  1
NON-SETTING
 50
90.000000
 41
1.000000
 51
0.000000
  7
STANDARD
  0
TEXT
  8
0
  6
CONTINUOUS
 62
1
 10
94.204772
 20
177.673433
 40
2.000000
  1
GLAZING
 50
90.000000
 41
1.000000
 51
0.000000
  7
STANDARD
  0
TEXT
  8
0
  6
CONTINUOUS
 62
1
 10
98.204772
 20
177.673433
 40
2.000000
  1
COMPOUND
 50
90.000000
 41
1.000000
 51
0.000000
  7
STANDARD
  0
TEXT
  8
0
  6
CONTINUOUS
 62
1
 10
47.404463
 20
158.113111
 40
2.000000
  1
5.0mm SETTING
 50
90.000000
 41
1.000000
 51
0.000000
  7
STANDARD
  0
TEXT
  8
0
  6
CONTINUOUS
 62
1
 10
51.404463
 20
158.113111
 40
2.000000
  1
BLOCK BY
 50
90.000000
 41
1.000000
 51
0.000000
  7
STANDARD
  0
TEXT
  8
0
  6
CONTINUOUS
 62
1
 10
55.404463
 20
158.113111
 40
2.000000
  1
GLAZIER
 50
90.000000
 41
1.000000
 51
0.000000
  7
STANDARD
  0
LINE
  8
0
  6
CONTINUOUS
 62
4
 10
62.203694
 20
109.647919
 11
80.459944
 21
109.647919
  0
LINE
  8
0
  6
CONTINUOUS
 62
4
 10
82.047444
 20
108.060419
 11
82.047444
 21
107.444469
  0
LINE
  8
0
  6
CONTINUOUS
 62
4
 10
81.253694
 20
106.650719
 11
70.934944
 21
106.650719
  0
LINE
  8
0
  6
CONTINUOUS
 62
4
 10
69.347444
 20
105.063219
 11
69.347444
 21
86.013219
  0
LINE
  8
0
  6
CONTINUOUS
 62
4
 10
66.172444
 20
89.804169
 11
66.172444
 21
103.781531
  0
LINE
  8
0
  6
CONTINUOUS
 62
4
 10
51.091194
 20
84.425719
 11
67.759944
 21
84.425719
  0
LINE
  8
0
  6
CONTINUOUS
 62
4
 10
49.503694
 20
86.629169
 11
49.503694
 21
86.013219
  0
LINE
  8
0
  6
CONTINUOUS
 62
4
 10
50.297444
 20
87.422919
 11
63.791194
 21
87.422919
  0
LINE
  8
0
  6
CONTINUOUS
 62
4
 10
62.203694
 20
109.647919
 11
62.203694
 21
108.060419
  0
LINE
  8
0
  6
CONTINUOUS
 62
4
 10
65.646926
 20
104.961510
 11
62.203694
 21
108.060419
  0
ARC
  8
0
  6
CONTINUOUS
 62
4
 10
67.759944
 20
86.013219
 40
1.587500
 50
270.000000
 51
0.000000
  0
ARC
  8
0
  6
CONTINUOUS
 62
4
 10
70.934944
 20
105.063219
 40
1.587500
 50
90.000000
 51
180.000000
  0
ARC
  8
0
  6
CONTINUOUS
 62
4
 10
51.091194
 20
86.013219
 40
1.587500
 50
180.000000
 51
270.000000
  0
ARC
  8
0
  6
CONTINUOUS
 62
4
 10
80.459944
 20
108.060419
 40
1.587500
 50
0.000000
 51
90.000000
  0
ARC
  8
0
  6
CONTINUOUS
 62
4
 10
64.584944
 20
103.781531
 40
1.587500
 50
0.000000
 51
48.012788
  0
ARC
  8
0
  6
CONTINUOUS
 62
4
 10
81.253694
 20
107.444469
 40
0.793750
 50
270.000000
 51
0.000000
  0
ARC
  8
0
  6
CONTINUOUS
 62
4
 10
50.297444
 20
86.629169
 40
0.793750
 50
90.000000
 51
180.000000
  0
ARC
  8
0
  6
CONTINUOUS
 62
4
 10
63.791194
 20
89.804169
 40
2.381250
 50
270.000000
 51
0.000000
  0
LINE
  8
0
  6
CONTINUOUS
 62
3
 10
71.393899
 20
104.130986
 11
71.393899
 21
99.130986
  0
LINE
  8
0
  6
CONTINUOUS
 62
3
 10
118.835176
 20
104.130986
 11
71.393899
 21
104.130986
  0
LINE
  8
0
  6
CONTINUOUS
 62
3
 10
71.393899
 20
99.130986
 11
118.835176
 21
99.130986
  0
LINE
  8
0
  6
CONTINUOUS
 62
4
 10
69.393899
 20
94.604474
 11
72.947330
 21
94.604474
  0
LINE
  8
0
  6
CONTINUOUS
 62
4
 10
72.947330
 20
89.104474
 11
69.397212
 21
89.104474
  0
LINE
  8
0
  6
DASH_2_33555077
 62
4
 10
66.222212
 20
90.104474
 11
72.393899
 21
90.104474
  0
LINE
  8
0
  6
DASH_2_33555077
 62
4
 10
72.393899
 20
93.604474
 11
66.222212
 21
93.604474
  0
LINE
  8
0
  6
DASH_2_33555077
 62
4
 10
72.393899
 20
90.354474
 11
66.222212
 21
90.354474
  0
LINE
  8
0
  6
DASH_2_33555077
 62
4
 10
66.222212
 20
93.354474
 11
72.393899
 21
93.354474
  0
LINE
  8
0
  6
CENTER
 62
4
 10
77.179517
 20
91.854474
 11
65.313849
 21
91.854474
  0
LINE
  8
0
  6
RANDOM
 62
4
 10
118.835176
 20
99.130986
 11
118.835176
 21
104.130986
  0
LINE
  8
0
  6
CONTINUOUS
 62
4
 10
81.883007
 20
106.960729
 11
83.516760
 21
104.130986
  0
LINE
  8
0
  6
CONTINUOUS
 62
4
 10
72.947330
 20
94.604474
 11
72.947330
 21
89.104474
  0
LINE
  8
0
  6
CONTINUOUS
 62
4
 10
81.380646
 20
95.797179
 11
83.305421
 21
99.130986
  0
LINE
  8
0
  6
CONTINUOUS
 62
4
 10
80.837496
 20
96.587109
 11
71.626727
 21
96.587109
  0
LINE
  8
0
  6
CONTINUOUS
 62
4
 10
75.092861
 20
86.837109
 11
69.876727
 21
86.837109
  0
LINE
  8
0
  6
CONTINUOUS
 62
4
 10
81.357111
 20
95.687109
 11
75.641344
 21
85.787109
  0
LINE
  8
0
  6
CONTINUOUS
 62
4
 10
74.775318
 20
86.287109
 11
75.092861
 21
86.837109
  0
LINE
  8
0
  6
CONTINUOUS
 62
4
 10
75.727946
 20
87.937109
 11
79.769398
 21
94.937109
  0
ARC
  8
0
  6
CONTINUOUS
 62
4
 10
69.876727
 20
87.337109
 40
0.500000
 50
90.000000
 51
180.000000
  0
ARC
  8
0
  6
CONTINUOUS
 62
4
 10
69.876727
 20
87.337109
 40
0.500000
 50
180.000000
 51
270.000000
  0
LINE
  8
0
  6
CONTINUOUS
 62
4
 10
76.076727
 20
95.337109
 11
76.076727
 21
95.687109
  0
LINE
  8
0
  6
CONTINUOUS
 62
4
 10
76.076727
 20
95.337109
 11
75.365402
 21
95.337109
  0
LINE
  8
0
  6
CONTINUOUS
 62
4
 10
72.876727
 20
95.037109
 11
72.876727
 21
95.837109
  0
LINE
  8
0
  6
CONTINUOUS
 62
4
 10
75.120028
 20
95.762109
 11
75.365402
 21
95.337109
  0
LINE
  8
0
  6
CONTINUOUS
 62
4
 10
72.876727
 20
95.837109
 11
74.990124
 21
95.837109
  0
LINE
  8
0
  6
CONTINUOUS
 62
4
 10
76.226727
 20
95.837109
 11
79.249783
 21
95.837109
  0
LINE
  8
0
  6
CONTINUOUS
 62
4
 10
72.376727
 20
95.037109
 11
72.876727
 21
95.037109
  0
LINE
  8
0
  6
CONTINUOUS
 62
4
 10
71.376727
 20
96.244216
 11
71.376727
 21
96.337109
  0
ARC
  8
0
  6
CONTINUOUS
 62
4
 10
75.208331
 20
86.037109
 40
0.500000
 50
270.000000
 51
330.000000
  0
ARC
  8
0
  6
CONTINUOUS
 62
4
 10
75.208331
 20
86.037109
 40
0.500000
 50
150.000000
 51
270.000000
  0
ARC
  8
0
  6
CONTINUOUS
 62
4
 10
80.837496
 20
95.987109
 40
0.600000
 50
330.000000
 51
90.000000
  0
ARC
  8
0
  6
CONTINUOUS
 62
4
 10
79.249783
 20
95.237109
 40
0.600000
 50
330.000000
 51
90.000000
  0
ARC
  8
0
  6
CONTINUOUS
 62
4
 10
71.626727
 20
96.337109
 40
0.250000
 50
90.000000
 51
180.000000
  0
ARC
  8
0
  6
CONTINUOUS
 62
4
 10
75.554741
 20
88.037109
 40
0.200000
 50
270.000000
 51
330.000000
  0
ARC
  8
0
  6
CONTINUOUS
 62
4
 10
76.226727
 20
95.687109
 40
0.150000
 50
90.000000
 51
180.000000
  0
ARC
  8
0
  6
CONTINUOUS
 62
4
 10
74.990124
 20
95.687109
 40
0.150000
 50
30.000000
 51
90.000000
  0
LINE
  8
0
  6
CONTINUOUS
 62
4
 10
72.947330
 20
89.104474
 11
72.947330
 21
88.104474
  0
LINE
  8
0
  6
CONTINUOUS
 62
4
 10
72.947330
 20
88.104474
 11
73.910465
 21
88.104474
  0
LINE
  8
0
  6
CONTINUOUS
 62
4
 10
72.947330
 20
94.604474
 11
72.947330
 21
95.604474
  0
LINE
  8
0
  6
CONTINUOUS
 62
4
 10
72.947330
 20
95.604474
 11
73.883238
 21
95.604474
  0
ARC
  8
0
  6
CONTINUOUS
 62
4
 10
69.600852
 20
91.838878
 40
5.702503
 50
319.090126
 51
41.325873
  0
LINE
  8
0
  6
CONTINUOUS
 62
4
 10
72.876727
 20
88.537109
 11
72.376727
 21
88.537109
  0
LINE
  8
0
  6
CONTINUOUS
 62
4
 10
72.376727
 20
95.037109
 11
71.523173
 21
95.890662
  0
ARC
  8
0
  6
CONTINUOUS
 62
4
 10
71.876727
 20
96.244216
 40
0.500000
 50
180.000000
 51
225.000000
  0
LINE
  8
0
  6
CONTINUOUS
 62
4
 10
72.376727
 20
88.537109
 11
71.676727
 21
87.837109
  0
LINE
  8
0
  6
CONTINUOUS
 62
4
 10
69.876727
 20
87.837109
 11
71.676727
 21
87.837109
  0
LINE
  8
0
  6
CONTINUOUS
 62
4
 10
72.876727
 20
87.837109
 11
75.554741
 21
87.837109
  0
LINE
  8
0
  6
CONTINUOUS
 62
4
 10
72.876727
 20
87.837109
 11
72.876727
 21
88.537109
  0
LINE
  8
0
  6
CONTINUOUS
 62
4
 10
71.393899
 20
104.104474
 11
69.393899
 21
104.104474
  0
LINE
  8
0
  6
CONTINUOUS
 62
4
 10
71.393899
 20
99.104474
 11
69.347444
 21
99.104474
  0
LINE
  8
0
  6
CONTINUOUS
 62
4
 10
69.347444
 20
99.104474
 11
71.393899
 21
104.104474
  0
LINE
  8
0
  6
CONTINUOUS
 62
4
 10
71.393899
 20
99.130986
 11
69.393899
 21
104.104474
  0
LINE
  8
0
  6
CONTINUOUS
 62
1
 10
56.237590
 20
99.372818
 11
69.363633
 21
101.827570
  0
LINE
  8
0
  6
CONTINUOUS
 62
1
 10
67.345086
 20
101.740757
 11
67.450135
 21
101.179037
  0
LINE
  8
0
  6
CONTINUOUS
 62
1
 10
67.450135
 20
101.179037
 11
69.363633
 21
101.827570
  0
LINE
  8
0
  6
CONTINUOUS
 62
1
 10
69.363633
 20
101.827570
 11
67.345086
 21
101.740757
  0
LINE
  8
0
  6
CONTINUOUS
 62
1
 10
91.707546
 20
82.088162
 11
79.096257
 21
90.587074
  0
LINE
  8
0
  6
CONTINUOUS
 62
1
 10
80.595118
 20
89.232433
 11
80.914463
 21
89.706300
  0
LINE
  8
0
  6
CONTINUOUS
 62
1
 10
80.914463
 20
89.706300
 11
79.096257
 21
90.587074
  0
LINE
  8
0
  6
CONTINUOUS
 62
1
 10
79.096257
 20
90.587074
 11
80.595118
 21
89.232433
  0
LINE
  8
0
  6
CONTINUOUS
 62
1
 10
72.516455
 20
81.676924
 11
73.613089
 21
89.353361
  0
LINE
  8
0
  6
CONTINUOUS
 62
1
 10
73.047336
 20
87.413645
 11
73.613086
 21
87.332823
  0
LINE
  8
0
  6
CONTINUOUS
 62
1
 10
73.613086
 20
87.332823
 11
73.613089
 21
89.353361
  0
LINE
  8
0
  6
CONTINUOUS
 62
1
 10
73.613089
 20
89.353361
 11
73.047336
 21
87.413645
  0
LINE
  8
0
  6
CONTINUOUS
 62
1
 10
88.027434
 20
112.496822
 11
75.788160
 21
105.205340
  0
LINE
  8
0
  6
CONTINUOUS
 62
1
 10
77.652768
 20
105.983564
 11
77.360281
 21
106.474525
  0
LINE
  8
0
  6
CONTINUOUS
 62
1
 10
77.360281
 20
106.474525
 11
75.788160
 21
105.205340
  0
LINE
  8
0
  6
CONTINUOUS
 62
1
 10
75.788160
 20
105.205340
 11
77.652768
 21
105.983564
  0
CIRCLE
  8
0
  6
CONTINUOUS
 62
4
 10
74.926291
 20
105.534772
 40
0.050000
  0
CIRCLE
  8
0
  6
CONTINUOUS
 62
4
 10
73.294255
 20
104.860197
 40
0.050000
  0
CIRCLE
  8
0
  6
CONTINUOUS
 62
4
 10
75.633507
 20
104.862316
 40
0.050000
  0
CIRCLE
  8
0
  6
CONTINUOUS
 62
4
 10
71.497401
 20
106.098425
 40
0.050000
  0
CIRCLE
  8
0
  6
CONTINUOUS
 62
4
 10
69.865365
 20
105.423851
 40
0.050000
  0
CIRCLE
  8
0
  6
CONTINUOUS
 62
4
 10
72.204616
 20
105.425970
 40
0.050000
  0
CIRCLE
  8
0
  6
CONTINUOUS
 62
4
 10
81.789204
 20
105.307272
 40
0.050000
  0
CIRCLE
  8
0
  6
CONTINUOUS
 62
4
 10
80.157168
 20
104.632697
 40
0.050000
  0
CIRCLE
  8
0
  6
CONTINUOUS
 62
4
 10
82.496420
 20
104.634816
 40
0.050000
  0
CIRCLE
  8
0
  6
CONTINUOUS
 62
4
 10
78.360313
 20
105.870925
 40
0.050000
  0
CIRCLE
  8
0
  6
CONTINUOUS
 62
4
 10
76.728278
 20
105.196351
 40
0.050000
  0
CIRCLE
  8
0
  6
CONTINUOUS
 62
4
 10
79.067529
 20
105.198470
 40
0.050000
  0
CIRCLE
  8
0
  6
CONTINUOUS
 62
4
 10
75.002125
 20
98.065193
 40
0.050000
  0
CIRCLE
  8
0
  6
CONTINUOUS
 62
4
 10
73.370089
 20
97.390618
 40
0.050000
  0
CIRCLE
  8
0
  6
CONTINUOUS
 62
4
 10
75.709340
 20
97.392737
 40
0.050000
  0
CIRCLE
  8
0
  6
CONTINUOUS
 62
4
 10
71.573234
 20
98.628846
 40
0.050000
  0
CIRCLE
  8
0
  6
CONTINUOUS
 62
4
 10
69.941198
 20
97.954271
 40
0.050000
  0
CIRCLE
  8
0
  6
CONTINUOUS
 62
4
 10
72.280449
 20
97.956390
 40
0.050000
  0
CIRCLE
  8
0
  6
CONTINUOUS
 62
4
 10
81.144621
 20
98.027276
 40
0.050000
  0
CIRCLE
  8
0
  6
CONTINUOUS
 62
4
 10
79.512585
 20
97.352701
 40
0.050000
  0
CIRCLE
  8
0
  6
CONTINUOUS
 62
4
 10
81.851837
 20
97.354821
 40
0.050000
  0
CIRCLE
  8
0
  6
CONTINUOUS
 62
4
 10
77.715731
 20
98.590930
 40
0.050000
  0
CIRCLE
  8
0
  6
CONTINUOUS
 62
4
 10
76.083695
 20
97.916355
 40
0.050000
  0
CIRCLE
  8
0
  6
CONTINUOUS
 62
4
 10
78.422946
 20
97.918474
 40
0.050000
  0
TEXT
  8
0
  6
CONTINUOUS
 62
1
 10
69.353524
 20
70.847666
 40
2.000000
  1
GLAZING
 50
90.000000
 41
1.000000
 51
0.000000
  7
STANDARD
  0
TEXT
  8
0
  6
CONTINUOUS
 62
1
 10
73.353524
 20
70.847666
 40
2.000000
  1
STUD
 50
90.000000
 41
1.000000
 51
0.000000
  7
STANDARD
  0
TEXT
  8
0
  6
CONTINUOUS
 62
1
 10
77.353524
 20
70.847666
 40
2.000000
  1
TYPICAL
 50
90.000000
 41
1.000000
 51
0.000000
  7
STANDARD
  0
TEXT
  8
0
  6
CONTINUOUS
 62
1
 10
88.568876
 20
70.776499
 40
2.000000
  1
GLAZING
 50
90.000000
 41
1.000000
 51
0.000000
  7
STANDARD
  0
TEXT
  8
0
  6
CONTINUOUS
 62
1
 10
92.568876
 20
70.776499
 40
2.000000
  1
BEAD
 50
90.000000
 41
1.000000
 51
0.000000
  7
STANDARD
  0
TEXT
  8
0
  6
CONTINUOUS
 62
1
 10
96.568876
 20
70.776499
 40
2.000000
  1
TYPICAL
 50
90.000000
 41
1.000000
 51
0.000000
  7
STANDARD
  0
TEXT
  8
0
  6
CONTINUOUS
 62
1
 10
124.266489
 20
86.356840
 40
2.000000
  1
4-6.0mm
 50
90.000000
 41
1.000000
 51
0.000000
  7
STANDARD
  0
LINE
  8
0
  6
CONTINUOUS
 62
1
 10
125.266489
 20
98.958031
 11
125.266489
 21
85.910412
  0
TEXT
  8
0
  6
CONTINUOUS
 62
1
 10
128.266489
 20
86.356840
 40
2.000000
  1
SINGLE GLASS
 50
90.000000
 41
1.000000
 51
0.000000
  7
STANDARD
  0
LINE
  8
0
  6
CONTINUOUS
 62
1
 10
129.266489
 20
106.386602
 11
129.266489
 21
85.910412
  0
TEXT
  8
0
  6
CONTINUOUS
 62
1
 10
132.266489
 20
86.356840
 40
2.000000
  1
BEAD GLAZED
 50
90.000000
 41
1.000000
 51
0.000000
  7
STANDARD
  0
LINE
  8
0
  6
CONTINUOUS
 62
1
 10
133.266489
 20
106.386602
 11
133.266489
 21
85.910412
  0
TEXT
  8
0
  6
CONTINUOUS
 62
1
 10
45.680468
 20
91.411710
 40
2.000000
  1
4.0mm SETTING
 50
90.000000
 41
1.000000
 51
0.000000
  7
STANDARD
  0
TEXT
  8
0
  6
CONTINUOUS
 62
1
 10
49.680468
 20
91.411710
 40
2.000000
  1
BLOCK BY
 50
90.000000
 41
1.000000
 51
0.000000
  7
STANDARD
  0
TEXT
  8
0
  6
CONTINUOUS
 62
1
 10
53.680468
 20
91.411710
 40
2.000000
  1
GLAZIER
 50
90.000000
 41
1.000000
 51
0.000000
  7
STANDARD
  0
TEXT
  8
0
  6
CONTINUOUS
 62
1
 10
91.447204
 20
111.296991
 40
2.000000
  1
NON-SETTING
 50
90.000000
 41
1.000000
 51
0.000000
  7
STANDARD
  0
TEXT
  8
0
  6
CONTINUOUS
 62
1
 10
95.447204
 20
111.296991
 40
2.000000
  1
GLAZING
 50
90.000000
 41
1.000000
 51
0.000000
  7
STANDARD
  0
TEXT
  8
0
  6
CONTINUOUS
 62
1
 10
99.447204
 20
111.296991
 40
2.000000
  1
COMPOUND
 50
90.000000
 41
1.000000
 51
0.000000
  7
STANDARD
  0
TEXT
  8
0
  6
CONTINUOUS
 62
1
 10
153.378303
 20
32.916805
 40
3.000000
  1
U.S.A. GLAZING DETAILS - ALL FIXINGS AND HOLES
 50
90.000000
 41
1.000000
 51
0.000000
  7
STANDARD
  0
LINE
  8
0
  6
CONTINUOUS
 62
1
 10
154.878303
 20
149.961448
 11
154.878303
 21
32.247162
  0
TEXT
  8
0
  6
CONTINUOUS
 62
1
 10
159.378303
 20
32.916805
 40
3.000000
  1
TO BE CAULKED WITH SILICONE BEFORE GLAZING
 50
90.000000
 41
1.000000
 51
0.000000
  7
STANDARD
  0
LINE
  8
0
  6
CONTINUOUS
 62
1
 10
160.878303
 20
142.961448
 11
160.878303
 21
32.247162
  0
LINE
  8
0
  6
CONTINUOUS
 62
4
 10
190.940996
 20
58.682840
 11
209.197246
 21
58.682840
  0
LINE
  8
0
  6
CONTINUOUS
 62
4
 10
210.784746
 20
57.095340
 11
210.784746
 21
56.466210
  0
LINE
  8
0
  6
CONTINUOUS
 62
4
 10
198.084746
 20
54.098140
 11
198.084746
 21
35.048140
  0
LINE
  8
0
  6
CONTINUOUS
 62
4
 10
194.909746
 20
38.839090
 11
194.909746
 21
52.816452
  0
LINE
  8
0
  6
CONTINUOUS
 62
4
 10
179.828496
 20
33.460640
 11
196.497246
 21
33.460640
  0
LINE
  8
0
  6
CONTINUOUS
 62
4
 10
178.240996
 20
35.664090
 11
178.240996
 21
35.048140
  0
LINE
  8
0
  6
CONTINUOUS
 62
4
 10
179.034746
 20
36.457840
 11
192.528496
 21
36.457840
  0
LINE
  8
0
  6
CONTINUOUS
 62
4
 10
190.940996
 20
58.682840
 11
190.940996
 21
57.095340
  0
LINE
  8
0
  6
CONTINUOUS
 62
4
 10
194.384227
 20
53.996432
 11
190.940996
 21
57.095340
  0
ARC
  8
0
  6
CONTINUOUS
 62
4
 10
196.497246
 20
35.048140
 40
1.587500
 50
270.000000
 51
0.000000
  0
ARC
  8
0
  6
CONTINUOUS
 62
4
 10
199.672246
 20
54.098140
 40
1.587500
 50
98.973624
 51
180.000000
  0
ARC
  8
0
  6
CONTINUOUS
 62
4
 10
179.828496
 20
35.048140
 40
1.587500
 50
180.000000
 51
270.000000
  0
ARC
  8
0
  6
CONTINUOUS
 62
4
 10
209.197246
 20
57.095340
 40
1.587500
 50
0.000000
 51
90.000000
  0
ARC
  8
0
  6
CONTINUOUS
 62
4
 10
193.322246
 20
52.816452
 40
1.587500
 50
0.000000
 51
48.012788
  0
ARC
  8
0
  6
CONTINUOUS
 62
4
 10
179.034746
 20
35.664090
 40
0.793750
 50
90.000000
 51
180.000000
  0
ARC
  8
0
  6
CONTINUOUS
 62
4
 10
192.528496
 20
38.839090
 40
2.381250
 50
270.000000
 51
0.000000
  0
LINE
  8
0
  6
RANDOM
 62
4
 10
247.522710
 20
48.135721
 11
247.522710
 21
53.135721
  0
CIRCLE
  8
0
  6
CONTINUOUS
 62
4
 10
210.309863
 20
54.390187
 40
0.050000
  0
CIRCLE
  8
0
  6
CONTINUOUS
 62
4
 10
208.677827
 20
53.715612
 40
0.050000
  0
LINE
  8
0
  6
CONTINUOUS
 62
4
 10
212.420787
 20
53.135721
 11
210.662351
 21
56.055927
  0
LINE
  8
0
  6
CONTINUOUS
 62
4
 10
212.420787
 20
48.135721
 11
198.084746
 21
36.093780
  0
CIRCLE
  8
0
  6
CONTINUOUS
 62
4
 10
207.580262
 20
46.725533
 40
0.050000
  0
CIRCLE
  8
0
  6
CONTINUOUS
 62
4
 10
201.483068
 20
46.696219
 40
0.050000
  0
CIRCLE
  8
0
  6
CONTINUOUS
 62
4
 10
199.607009
 20
45.289175
 40
0.050000
  0
CIRCLE
  8
0
  6
CONTINUOUS
 62
4
 10
200.369158
 20
43.354488
 40
0.050000
  0
CIRCLE
  8
0
  6
CONTINUOUS
 62
4
 10
200.369158
 20
39.660995
 40
0.050000
  0
CIRCLE
  8
0
  6
CONTINUOUS
 62
4
 10
203.007367
 20
42.416458
 40
0.050000
  0
CIRCLE
  8
0
  6
CONTINUOUS
 62
4
 10
203.065994
 20
45.934070
 40
0.050000
  0
CIRCLE
  8
0
  6
CONTINUOUS
 62
4
 10
199.217749
 20
39.384666
 40
0.050000
  0
CIRCLE
  8
0
  6
CONTINUOUS
 62
4
 10
200.874014
 20
41.277540
 40
0.050000
  0
CIRCLE
  8
0
  6
CONTINUOUS
 62
4
 10
199.217749
 20
38.438229
 40
0.050000
  0
CIRCLE
  8
0
  6
CONTINUOUS
 62
4
 10
205.606199
 20
45.299897
 40
0.050000
  0
LINE
  8
0
  6
CONTINUOUS
 62
3
 10
247.549072
 20
53.135721
 11
200.157562
 21
53.135721
  0
LINE
  8
0
  6
CONTINUOUS
 62
3
 10
200.157562
 20
53.135721
 11
200.157562
 21
48.135721
  0
LINE
  8
0
  6
CONTINUOUS
 62
3
 10
200.157562
 20
48.135721
 11
247.522710
 21
48.135721
  0
CIRCLE
  8
0
  6
CONTINUOUS
 62
4
 10
209.367623
 20
46.890773
 40
0.050000
  0
CIRCLE
  8
0
  6
CONTINUOUS
 62
4
 10
211.017078
 20
53.717731
 40
0.050000
  0
LINE
  8
0
  6
CONTINUOUS
 62
4
 10
209.984746
 20
55.666210
 11
199.424628
 21
55.666210
  0
LINE
  8
0
  6
CONTINUOUS
 62
4
 10
200.157562
 20
48.135721
 11
198.084746
 21
48.135721
  0
LINE
  8
0
  6
CONTINUOUS
 62
4
 10
198.084746
 20
53.135721
 11
200.157562
 21
53.135721
  0
LINE
  8
0
  6
CONTINUOUS
 62
4
 10
200.157562
 20
53.135721
 11
198.084746
 21
48.135721
  0
LINE
  8
0
  6
CONTINUOUS
 62
4
 10
200.157562
 20
48.135721
 11
198.084746
 21
53.135721
  0
LINE
  8
0
  6
CONTINUOUS
 62
1
 10
184.440757
 20
49.690056
 11
198.141349
 21
50.815309
  0
LINE
  8
0
  6
CONTINUOUS
 62
1
 10
196.124525
 20
50.936363
 11
196.171303
 21
50.366810
  0
LINE
  8
0
  6
CONTINUOUS
 62
1
 10
196.171303
 20
50.366810
 11
198.141349
 21
50.815309
  0
LINE
  8
0
  6
CONTINUOUS
 62
1
 10
198.141349
 20
50.815309
 11
196.124525
 21
50.936363
  0
TEXT
  8
0
  6
CONTINUOUS
 62
1
 10
252.954023
 20
35.002712
 40
2.000000
  1
UP TO 1/4 
 50
90.000000
 41
1.000000
 51
0.000000
  7
STANDARD
  0
LINE
  8
0
  6
CONTINUOUS
 62
1
 10
253.954023
 20
54.080093
 11
253.954023
 21
34.556284
  0
TEXT
  8
0
  6
CONTINUOUS
 62
1
 10
256.954023
 20
35.002712
 40
2.000000
  1
SINGLE GLASS
 50
90.000000
 41
1.000000
 51
0.000000
  7
STANDARD
  0
LINE
  8
0
  6
CONTINUOUS
 62
1
 10
257.954023
 20
55.032474
 11
257.954023
 21
34.556284
  0
ARC
  8
0
  6
CONTINUOUS
 62
4
 10
209.984746
 20
56.466210
 40
0.800000
 50
270.000000
 51
0.000000
  0
TEXT
  8
0
  6
CONTINUOUS
 62
1
 10
174.296596
 20
40.625061
 40
2.000000
  1
1/8 SETTING
 50
90.000000
 41
1.000000
 51
0.000000
  7
STANDARD
  0
TEXT
  8
0
  6
CONTINUOUS
 62
1
 10
178.296596
 20
40.625061
 40
2.000000
  1
BLOCK BY
 50
90.000000
 41
1.000000
 51
0.000000
  7
STANDARD
  0
TEXT
  8
0
  6
CONTINUOUS
 62
1
 10
182.296596
 20
40.625061
 40
2.000000
  1
INSTALLER
 50
90.000000
 41
1.000000
 51
0.000000
  7
STANDARD
  0
LINE
  8
0
  6
CONTINUOUS
 62
1
 10
172.267702
 20
45.931730
 11
173.388812
 21
45.931730
  0
LINE
  8
0
  6
CONTINUOUS
 62
1
 10
173.388812
 20
46.431730
 11
172.267702
 21
46.431730
  0
LINE
  8
0
  6
CONTINUOUS
 62
4
 10
208.084746
 20
54.335721
 11
208.084746
 21
54.466210
  0
LINE
  8
0
  6
CONTINUOUS
 62
3
 10
199.484746
 20
53.235721
 11
206.984746
 21
53.235721
  0
LINE
  8
0
  6
CONTINUOUS
 62
4
 10
199.484746
 20
55.566210
 11
206.984746
 21
55.566210
  0
LINE
  8
0
  6
CONTINUOUS
 62
4
 10
198.384746
 20
54.466210
 11
198.384746
 21
54.335721
  0
ARC
  8
0
  6
CONTINUOUS
 62
4
 10
199.484746
 20
54.466210
 40
1.100000
 50
90.000000
 51
180.000000
  0
ARC
  8
0
  6
CONTINUOUS
 62
4
 10
199.484746
 20
54.335721
 40
1.100000
 50
180.000000
 51
270.000000
  0
ARC
  8
0
  6
CONTINUOUS
 62
3
 10
206.984746
 20
54.335721
 40
1.100000
 50
270.000000
 51
0.000000
  0
ARC
  8
0
  6
CONTINUOUS
 62
4
 10
206.984746
 20
54.466210
 40
1.100000
 50
0.000000
 51
90.000000
  0
ARC
  8
0
  6
CONTINUOUS
 62
4
 10
199.484746
 20
54.466210
 40
0.300000
 50
90.000000
 51
180.000000
  0
LINE
  8
0
  6
CONTINUOUS
 62
4
 10
206.984746
 20
54.766210
 11
199.484746
 21
54.766210
  0
ARC
  8
0
  6
CONTINUOUS
 62
4
 10
199.484746
 20
54.335721
 40
0.300000
 50
180.000000
 51
270.000000
  0
LINE
  8
0
  6
CONTINUOUS
 62
3
 10
206.984746
 20
54.035721
 11
199.484746
 21
54.035721
  0
ARC
  8
0
  6
CONTINUOUS
 62
3
 10
206.984746
 20
54.335721
 40
0.300000
 50
270.000000
 51
0.000000
  0
ARC
  8
0
  6
CONTINUOUS
 62
4
 10
206.984746
 20
54.466210
 40
0.300000
 50
0.000000
 51
90.000000
  0
TEXT
  8
0
  6
CONTINUOUS
 62
1
 10
221.220790
 20
60.612612
 40
2.000000
  1
0.09 PRESHIM
 50
90.000000
 41
1.000000
 51
0.000000
  7
STANDARD
  0
TEXT
  8
0
  6
CONTINUOUS
 62
1
 10
225.220790
 20
60.612612
 40
2.000000
  1
TAPE AND
 50
90.000000
 41
1.000000
 51
0.000000
  7
STANDARD
  0
TEXT
  8
0
  6
CONTINUOUS
 62
1
 10
229.220790
 20
60.612612
 40
2.000000
  1
SILICONE BEAD
 50
90.000000
 41
1.000000
 51
0.000000
  7
STANDARD
  0
TEXT
  8
0
  6
CONTINUOUS
 62
1
 10
233.220790
 20
60.612612
 40
2.000000
  1
CAP BY
 50
90.000000
 41
1.000000
 51
0.000000
  7
STANDARD
  0
TEXT
  8
0
  6
CONTINUOUS
 62
1
 10
237.220790
 20
60.612612
 40
2.000000
  1
INSTALLER
 50
90.000000
 41
1.000000
 51
0.000000
  7
STANDARD
  0
TEXT
  8
0
  6
CONTINUOUS
 62
1
 10
230.399841
 20
22.794922
 40
2.000000
  1
SILICONE BEAD
 50
90.000000
 41
1.000000
 51
0.000000
  7
STANDARD
  0
TEXT
  8
0
  6
CONTINUOUS
 62
1
 10
234.399841
 20
22.794922
 40
2.000000
  1
BY INSTALLER
 50
90.000000
 41
1.000000
 51
0.000000
  7
STANDARD
  0
LINE
  8
0
  6
CONTINUOUS
 62
1
 10
208.236713
 20
55.257926
 11
217.578142
 21
61.143566
  0
LINE
  8
0
  6
CONTINUOUS
 62
1
 10
210.081171
 20
56.082343
 11
209.776556
 21
56.565814
  0
LINE
  8
0
  6
CONTINUOUS
 62
1
 10
209.776556
 20
56.565814
 11
208.236713
 21
55.257926
  0
LINE
  8
0
  6
CONTINUOUS
 62
1
 10
208.236713
 20
55.257926
 11
210.081171
 21
56.082343
  0
LINE
  8
0
  6
CONTINUOUS
 62
1
 10
226.925629
 20
42.423476
 11
209.131639
 21
45.895474
  0
LINE
  8
0
  6
CONTINUOUS
 62
1
 10
211.040170
 20
45.231932
 11
211.149620
 21
45.792862
  0
LINE
  8
0
  6
CONTINUOUS
 62
1
 10
211.149620
 20
45.792862
 11
209.131639
 21
45.895474
  0
LINE
  8
0
  6
CONTINUOUS
 62
1
 10
209.131639
 20
45.895474
 11
211.040170
 21
45.231932
  0
LINE
  8
0
  6
CONTINUOUS
 62
1
 10
219.191896
 20
67.100563
 11
220.313006
 21
67.100563
  0
LINE
  8
0
  6
CONTINUOUS
 62
1
 10
220.313006
 20
67.600563
 11
219.191896
 21
67.600563
  0
LINE
  8
0
  6
CONTINUOUS
 62
4
 10
217.531621
 20
178.279167
 11
191.734746
 21
178.279167
  0
LINE
  8
0
  6
CONTINUOUS
 62
4
 10
219.119121
 20
176.691667
 11
219.119121
 21
176.075717
  0
LINE
  8
0
  6
CONTINUOUS
 62
4
 10
218.325371
 20
175.281967
 11
199.672246
 21
175.281967
  0
LINE
  8
0
  6
CONTINUOUS
 62
4
 10
190.940996
 20
177.485417
 11
190.940996
 21
177.045173
  0
LINE
  8
0
  6
CONTINUOUS
 62
4
 10
194.909746
 20
172.412779
 11
194.909746
 21
158.435417
  0
LINE
  8
0
  6
CONTINUOUS
 62
4
 10
196.497246
 20
153.056967
 11
179.828496
 21
153.056967
  0
LINE
  8
0
  6
CONTINUOUS
 62
4
 10
198.084746
 20
173.694467
 11
198.084746
 21
154.644467
  0
LINE
  8
0
  6
CONTINUOUS
 62
4
 10
179.034746
 20
156.054167
 11
192.528496
 21
156.054167
  0
LINE
  8
0
  6
CONTINUOUS
 62
4
 10
194.384227
 20
173.592758
 11
191.203755
 21
176.455183
  0
LINE
  8
0
  6
CONTINUOUS
 62
4
 10
178.240996
 20
155.260417
 11
178.240996
 21
154.644467
  0
ARC
  8
0
  6
CONTINUOUS
 62
4
 10
179.828496
 20
154.644467
 40
1.587500
 50
180.000000
 51
270.000000
  0
ARC
  8
0
  6
CONTINUOUS
 62
4
 10
196.497246
 20
154.644467
 40
1.587500
 50
270.000000
 51
0.000000
  0
ARC
  8
0
  6
CONTINUOUS
 62
4
 10
199.672246
 20
173.694467
 40
1.587500
 50
90.000000
 51
180.000000
  0
ARC
  8
0
  6
CONTINUOUS
 62
4
 10
217.531621
 20
176.691667
 40
1.587500
 50
0.000000
 51
90.000000
  0
ARC
  8
0
  6
CONTINUOUS
 62
4
 10
193.322246
 20
172.412779
 40
1.587500
 50
0.000000
 51
48.012788
  0
ARC
  8
0
  6
CONTINUOUS
 62
4
 10
192.528496
 20
158.435417
 40
2.381250
 50
270.000000
 51
0.000000
  0
ARC
  8
0
  6
CONTINUOUS
 62
4
 10
179.034746
 20
155.260417
 40
0.793750
 50
90.000000
 51
180.000000
  0
ARC
  8
0
  6
CONTINUOUS
 62
4
 10
218.325371
 20
176.075717
 40
0.793750
 50
270.000000
 51
0.000000
  0
ARC
  8
0
  6
CONTINUOUS
 62
4
 10
191.734746
 20
177.045173
 40
0.793750
 50
180.000000
 51
228.012788
  0
ARC
  8
0
  6
CONTINUOUS
 62
4
 10
191.734746
 20
177.485417
 40
0.793750
 50
90.000000
 51
180.000000
  0
ARC
  8
0
  6
CONTINUOUS
 62
4
 10
198.135546
 20
155.314898
 40
0.050800
 50
180.000000
 51
270.000000
  0
LINE
  8
0
  6
DASHED
 62
4
 10
194.909746
 20
169.424098
 11
198.084746
 21
169.424098
  0
LINE
  8
0
  6
DASHED
 62
4
 10
194.909746
 20
161.424098
 11
198.084746
 21
161.424098
  0
LINE
  8
0
  6
CONTINUOUS
 62
4
 10
219.119121
 20
176.691667
 11
219.119121
 21
176.075717
  0
LINE
  8
0
  6
CONTINUOUS
 62
4
 10
218.325371
 20
175.281967
 11
199.672246
 21
175.281967
  0
LINE
  8
0
  6
CONTINUOUS
 62
4
 10
198.084746
 20
173.694467
 11
198.084746
 21
154.644467
  0
ARC
  8
0
  6
CONTINUOUS
 62
4
 10
196.497246
 20
154.644467
 40
1.587500
 50
270.000000
 51
0.000000
  0
ARC
  8
0
  6
CONTINUOUS
 62
4
 10
199.672246
 20
173.694467
 40
1.587500
 50
90.000000
 51
180.000000
  0
ARC
  8
0
  6
CONTINUOUS
 62
4
 10
217.531621
 20
176.691667
 40
1.587500
 50
0.000000
 51
90.000000
  0
ARC
  8
0
  6
CONTINUOUS
 62
4
 10
218.325371
 20
176.075717
 40
0.793750
 50
270.000000
 51
0.000000
  0
LINE
  8
0
  6
CONTINUOUS
 62
4
 10
201.584866
 20
175.107848
 11
203.032666
 21
175.107848
  0
LINE
  8
0
  6
CONTINUOUS
 62
4
 10
203.083466
 20
175.057048
 11
203.083466
 21
165.107868
  0
LINE
  8
0
  6
CONTINUOUS
 62
4
 10
200.856466
 20
157.916406
 11
200.856466
 21
156.108648
  0
LINE
  8
0
  6
CONTINUOUS
 62
4
 10
199.583346
 20
169.316648
 11
199.583346
 21
156.663090
  0
LINE
  8
0
  6
CONTINUOUS
 62
4
 10
200.769745
 20
157.952327
 11
199.670067
 21
156.627169
  0
LINE
  8
0
  6
CONTINUOUS
 62
4
 10
201.584866
 20
166.627510
 11
201.584866
 21
169.316648
  0
LINE
  8
0
  6
CONTINUOUS
 62
4
 10
203.083466
 20
165.107868
 11
201.599745
 21
166.591589
  0
LINE
  8
0
  6
CONTINUOUS
 62
4
 10
201.584866
 20
175.107848
 11
201.584866
 21
170.916848
  0
LINE
  8
0
  6
CONTINUOUS
 62
4
 10
201.534066
 20
170.866048
 11
198.084746
 21
170.866048
  0
LINE
  8
0
  6
CONTINUOUS
 62
4
 10
199.634146
 20
169.367448
 11
201.534066
 21
169.367448
  0
ARC
  8
0
  6
CONTINUOUS
 62
4
 10
201.534066
 20
169.316648
 40
0.050800
 50
0.000000
 51
90.000000
  0
ARC
  8
0
  6
CONTINUOUS
 62
4
 10
199.634146
 20
169.316648
 40
0.050800
 50
90.000000
 51
180.000000
  0
ARC
  8
0
  6
CONTINUOUS
 62
4
 10
199.634146
 20
156.663090
 40
0.050800
 50
180.000000
 51
315.000000
  0
ARC
  8
0
  6
CONTINUOUS
 62
4
 10
200.805666
 20
157.916406
 40
0.050800
 50
0.000000
 51
135.000000
  0
ARC
  8
0
  6
CONTINUOUS
 62
4
 10
198.135546
 20
156.108648
 40
0.050800
 50
180.000000
 51
270.000000
  0
ARC
  8
0
  6
CONTINUOUS
 62
4
 10
200.805666
 20
156.108648
 40
0.050800
 50
270.000000
 51
0.000000
  0
ARC
  8
0
  6
CONTINUOUS
 62
4
 10
203.032666
 20
175.057048
 40
0.050800
 50
0.000000
 51
90.000000
  0
ARC
  8
0
  6
CONTINUOUS
 62
4
 10
201.534066
 20
170.916848
 40
0.050800
 50
270.000000
 51
0.000000
  0
ARC
  8
0
  6
CONTINUOUS
 62
4
 10
201.635666
 20
166.627510
 40
0.050800
 50
180.000000
 51
225.000000
  0
LINE
  8
0
  6
CONTINUOUS
 62
4
 10
198.111910
 20
154.085158
 11
198.111910
 21
155.085156
  0
LINE
  8
0
  6
CONTINUOUS
 62
4
 10
217.938198
 20
154.085158
 11
198.111910
 21
154.085158
  0
LINE
  8
0
  6
CONTINUOUS
 62
4
 10
203.090310
 20
156.084138
 11
219.092310
 21
156.084138
  0
LINE
  8
0
  6
CONTINUOUS
 62
4
 10
219.092310
 20
156.084138
 11
217.938198
 21
154.085158
  0
LINE
  8
0
  6
CONTINUOUS
 62
4
 10
203.090310
 20
160.071938
 11
201.109110
 21
160.071938
  0
LINE
  8
0
  6
CONTINUOUS
 62
4
 10
203.090310
 20
160.071938
 11
203.090310
 21
156.084138
  0
LINE
  8
0
  6
CONTINUOUS
 62
4
 10
198.111910
 20
155.085156
 11
200.862730
 21
155.085156
  0
LINE
  8
0
  6
CONTINUOUS
 62
4
 10
200.862730
 20
158.082356
 11
199.610510
 21
157.359386
  0
LINE
  8
0
  6
CONTINUOUS
 62
4
 10
200.862730
 20
155.085156
 11
200.862730
 21
158.082356
  0
LINE
  8
0
  6
CONTINUOUS
 62
4
 10
201.109110
 20
165.706316
 11
201.109110
 21
160.071938
  0
LINE
  8
0
  6
CONTINUOUS
 62
4
 10
199.610510
 20
166.617626
 11
199.610510
 21
157.359386
  0
ARC
  8
0
  6
CONTINUOUS
 62
4
 10
200.609492
 20
166.572560
 40
0.999998
 50
90.000000
 51
182.582984
  0
ARC
  8
0
  6
CONTINUOUS
 62
4
 10
200.609492
 20
166.572560
 40
0.999998
 50
299.974796
 51
90.000000
  0
LINE
  8
0
  6
CONTINUOUS
 62
4
 10
198.135546
 20
156.057848
 11
200.805666
 21
156.057848
  0
LINE
  8
0
  6
CONTINUOUS
 62
4
 10
200.805666
 20
156.057848
 11
200.805666
 21
156.057848
  0
LINE
  8
0
  6
CONTINUOUS
 62
3
 10
247.258692
 20
158.585593
 11
208.061866
 21
158.585593
  0
LINE
  8
0
  6
CONTINUOUS
 62
3
 10
247.258692
 20
172.555593
 11
208.061866
 21
172.555593
  0
LINE
  8
0
  6
CONTINUOUS
 62
3
 10
208.061866
 20
162.573393
 11
247.258692
 21
162.573393
  0
LINE
  8
0
  6
CONTINUOUS
 62
3
 10
208.061866
 20
168.567793
 11
247.258692
 21
168.567793
  0
LINE
  8
0
  6
CONTINUOUS
 62
3
 10
208.061866
 20
158.585593
 11
208.061866
 21
172.555593
  0
LINE
  8
0
  6
CONTINUOUS
 62
4
 10
219.092310
 20
156.084138
 11
220.501620
 21
158.585593
  0
LINE
  8
0
  6
CONTINUOUS
 62
4
 10
221.012076
 20
172.555593
 11
219.119121
 21
176.869467
  0
LINE
  8
0
  6
RANDOM
 62
4
 10
247.258692
 20
158.585593
 11
247.258692
 21
172.555593
  0
LINE
  8
0
  6
CONTINUOUS
 62
4
 10
198.084746
 20
156.108648
 11
198.084746
 21
170.866048
  0
LINE
  8
0
  6
CONTINUOUS
 62
4
 10
220.736664
 20
168.567793
 11
220.736664
 21
162.573393
  0
LINE
  8
0
  6
CONTINUOUS
 62
4
 10
208.061866
 20
168.567793
 11
220.736664
 21
162.573393
  0
LINE
  8
0
  6
CONTINUOUS
 62
4
 10
220.736664
 20
168.567793
 11
208.061866
 21
162.573393
  0
LINE
  8
0
  6
CONTINUOUS
 62
4
 10
203.183466
 20
158.585593
 11
203.183466
 21
172.555593
  0
LINE
  8
0
  6
CONTINUOUS
 62
1
 10
187.254306
 20
172.213198
 11
204.628050
 21
171.481655
  0
LINE
  8
0
  6
CONTINUOUS
 62
1
 10
202.641736
 20
171.851275
 11
202.617695
 21
171.280322
  0
LINE
  8
0
  6
CONTINUOUS
 62
1
 10
202.617695
 20
171.280322
 11
204.628050
 21
171.481655
  0
LINE
  8
0
  6
CONTINUOUS
 62
1
 10
204.628050
 20
171.481655
 11
202.641736
 21
171.851275
  0
LINE
  8
0
  6
CONTINUOUS
 62
1
 10
221.815374
 20
146.293336
 11
214.851545
 21
155.035164
  0
LINE
  8
0
  6
CONTINUOUS
 62
1
 10
215.874269
 20
153.292743
 11
216.321238
 21
153.648803
  0
LINE
  8
0
  6
CONTINUOUS
 62
1
 10
216.321238
 20
153.648803
 11
214.851545
 21
155.035164
  0
LINE
  8
0
  6
CONTINUOUS
 62
1
 10
214.851545
 20
155.035164
 11
215.874269
 21
153.292743
  0
CIRCLE
  8
0
  6
CONTINUOUS
 62
4
 10
217.634920
 20
157.864274
 40
0.050000
  0
CIRCLE
  8
0
  6
CONTINUOUS
 62
4
 10
218.342136
 20
157.191818
 40
0.050000
  0
CIRCLE
  8
0
  6
CONTINUOUS
 62
4
 10
218.292920
 20
174.149764
 40
0.050000
  0
CIRCLE
  8
0
  6
CONTINUOUS
 62
4
 10
216.660884
 20
173.475190
 40
0.050000
  0
CIRCLE
  8
0
  6
CONTINUOUS
 62
4
 10
219.000135
 20
173.477309
 40
0.050000
  0
TEXT
  8
0
  6
CONTINUOUS
 62
1
 10
253.080651
 20
157.446830
 40
2.000000
  1
9/16 IGU
 50
90.000000
 41
1.000000
 51
0.000000
  7
STANDARD
  0
LINE
  8
0
  6
CONTINUOUS
 62
1
 10
254.080651
 20
169.952782
 11
254.080651
 21
157.000401
  0
TEXT
  8
0
  6
CONTINUOUS
 62
1
 10
225.987617
 20
140.645549
 40
2.000000
  1
GLAZING
 50
90.000000
 41
1.000000
 51
0.000000
  7
STANDARD
  0
TEXT
  8
0
  6
CONTINUOUS
 62
1
 10
229.987617
 20
140.645549
 40
2.000000
  1
BEAD BY
 50
90.000000
 41
1.000000
 51
0.000000
  7
STANDARD
  0
TEXT
  8
0
  6
CONTINUOUS
 62
1
 10
233.987617
 20
140.645549
 40
2.000000
  1
CRITTALL
 50
90.000000
 41
1.000000
 51
0.000000
  7
STANDARD
  0
TEXT
  8
0
  6
CONTINUOUS
 62
1
 10
175.827979
 20
160.593205
 40
2.000000
  1
3/16 SETTING
 50
90.000000
 41
1.000000
 51
0.000000
  7
STANDARD
  0
TEXT
  8
0
  6
CONTINUOUS
 62
1
 10
179.827979
 20
160.593205
 40
2.000000
  1
BLOCK BY
 50
90.000000
 41
1.000000
 51
0.000000
  7
STANDARD
  0
TEXT
  8
0
  6
CONTINUOUS
 62
1
 10
183.827979
 20
160.593205
 40
2.000000
  1
INSTALLER
 50
90.000000
 41
1.000000
 51
0.000000
  7
STANDARD
  0
LINE
  8
0
  6
CONTINUOUS
 62
3
 10
207.961866
 20
172.555593
 11
207.961866
 21
158.585593
  0
LINE
  8
0
  6
CONTINUOUS
 62
1
 10
203.183466
 20
172.555593
 11
207.961866
 21
172.555593
  0
LINE
  8
0
  6
CONTINUOUS
 62
1
 10
207.961866
 20
158.555593
 11
203.183466
 21
158.555593
  0
LINE
  8
0
  6
CONTINUOUS
 62
4
 10
216.183466
 20
173.755593
 11
216.183466
 21
174.081967
  0
LINE
  8
0
  6
CONTINUOUS
 62
4
 10
203.183466
 20
173.755593
 11
203.183466
 21
174.081967
  0
LINE
  8
0
  6
CONTINUOUS
 62
4
 10
204.283466
 20
175.181967
 11
215.083466
 21
175.181967
  0
LINE
  8
0
  6
CONTINUOUS
 62
1
 10
215.083466
 20
172.655593
 11
204.283466
 21
172.655593
  0
ARC
  8
0
  6
CONTINUOUS
 62
4
 10
204.283466
 20
174.081967
 40
1.100000
 50
90.000000
 51
180.000000
  0
ARC
  8
0
  6
CONTINUOUS
 62
4
 10
204.283466
 20
173.755593
 40
1.100000
 50
180.000000
 51
270.000000
  0
ARC
  8
0
  6
CONTINUOUS
 62
4
 10
215.083466
 20
174.081967
 40
1.100000
 50
0.000000
 51
90.000000
  0
ARC
  8
0
  6
CONTINUOUS
 62
4
 10
215.083466
 20
173.755593
 40
1.100000
 50
270.000000
 51
0.000000
  0
ARC
  8
0
  6
CONTINUOUS
 62
4
 10
204.283466
 20
174.081967
 40
0.100000
 50
90.000000
 51
180.000000
  0
LINE
  8
0
  6
CONTINUOUS
 62
4
 10
204.283466
 20
174.181967
 11
215.083466
 21
174.181967
  0
ARC
  8
0
  6
CONTINUOUS
 62
4
 10
215.083466
 20
174.081967
 40
0.100000
 50
0.000000
 51
90.000000
  0
LINE
  8
0
  6
CONTINUOUS
 62
4
 10
215.183466
 20
174.081967
 11
215.183466
 21
173.755593
  0
ARC
  8
0
  6
CONTINUOUS
 62
4
 10
215.083466
 20
173.755593
 40
0.100000
 50
270.000000
 51
0.000000
  0
LINE
  8
0
  6
CONTINUOUS
 62
1
 10
215.083466
 20
173.655593
 11
204.283466
 21
173.655593
  0
ARC
  8
0
  6
CONTINUOUS
 62
4
 10
204.283466
 20
173.755593
 40
0.100000
 50
180.000000
 51
270.000000
  0
LINE
  8
0
  6
CONTINUOUS
 62
4
 10
204.183466
 20
173.755593
 11
204.183466
 21
174.081967
  0
LINE
  8
0
  6
CONTINUOUS
 62
4
 10
216.190310
 20
157.284138
 11
216.190310
 21
157.355593
  0
LINE
  8
0
  6
CONTINUOUS
 62
1
 10
204.290310
 20
158.455593
 11
215.090310
 21
158.455593
  0
LINE
  8
0
  6
CONTINUOUS
 62
4
 10
215.090310
 20
156.184138
 11
204.290310
 21
156.184138
  0
LINE
  8
0
  6
CONTINUOUS
 62
4
 10
203.190310
 20
157.284138
 11
203.190310
 21
157.355593
  0
ARC
  8
0
  6
CONTINUOUS
 62
4
 10
204.290310
 20
157.355593
 40
1.100000
 50
90.000000
 51
180.000000
  0
ARC
  8
0
  6
CONTINUOUS
 62
1
 10
215.090310
 20
157.355593
 40
1.100000
 50
0.000000
 51
90.000000
  0
ARC
  8
0
  6
CONTINUOUS
 62
4
 10
215.090310
 20
157.284138
 40
1.100000
 50
270.000000
 51
0.000000
  0
ARC
  8
0
  6
CONTINUOUS
 62
4
 10
204.290310
 20
157.284138
 40
1.100000
 50
180.000000
 51
270.000000
  0
ARC
  8
0
  6
CONTINUOUS
 62
4
 10
204.290310
 20
157.355593
 40
0.100000
 50
90.000000
 51
180.000000
  0
LINE
  8
0
  6
CONTINUOUS
 62
1
 10
204.290310
 20
157.455593
 11
215.090310
 21
157.455593
  0
ARC
  8
0
  6
CONTINUOUS
 62
1
 10
215.090310
 20
157.355593
 40
0.100000
 50
0.000000
 51
90.000000
  0
LINE
  8
0
  6
CONTINUOUS
 62
4
 10
215.190310
 20
157.355593
 11
215.190310
 21
157.284138
  0
ARC
  8
0
  6
CONTINUOUS
 62
4
 10
215.090310
 20
157.284138
 40
0.100000
 50
270.000000
 51
0.000000
  0
LINE
  8
0
  6
CONTINUOUS
 62
4
 10
215.090310
 20
157.184138
 11
204.290310
 21
157.184138
  0
ARC
  8
0
  6
CONTINUOUS
 62
4
 10
204.290310
 20
157.284138
 40
0.100000
 50
180.000000
 51
270.000000
  0
LINE
  8
0
  6
CONTINUOUS
 62
4
 10
204.190310
 20
157.284138
 11
204.190310
 21
157.355593
  0
TEXT
  8
0
  6
CONTINUOUS
 62
1
 10
187.589331
 20
130.905837
 40
2.000000
  1
0.09 PRESHIM
 50
90.000000
 41
1.000000
 51
0.000000
  7
STANDARD
  0
TEXT
  8
0
  6
CONTINUOUS
 62
1
 10
191.589331
 20
130.905837
 40
2.000000
  1
TAPE AND
 50
90.000000
 41
1.000000
 51
0.000000
  7
STANDARD
  0
TEXT
  8
0
  6
CONTINUOUS
 62
1
 10
195.589331
 20
130.905837
 40
2.000000
  1
SILICONE BEAD
 50
90.000000
 41
1.000000
 51
0.000000
  7
STANDARD
  0
TEXT
  8
0
  6
CONTINUOUS
 62
1
 10
199.589331
 20
130.905837
 40
2.000000
  1
CAP BY
 50
90.000000
 41
1.000000
 51
0.000000
  7
STANDARD
  0
TEXT
  8
0
  6
CONTINUOUS
 62
1
 10
203.589331
 20
130.905837
 40
2.000000
  1
INSTALLER
 50
90.000000
 41
1.000000
 51
0.000000
  7
STANDARD
  0
LINE
  8
0
  6
CONTINUOUS
 62
1
 10
202.554047
 20
147.293487
 11
211.018217
 21
156.604074
  0
LINE
  8
0
  6
CONTINUOUS
 62
1
 10
209.461334
 20
155.316284
 11
209.884191
 21
154.931868
  0
LINE
  8
0
  6
CONTINUOUS
 62
1
 10
209.884191
 20
154.931868
 11
211.018217
 21
156.604074
  0
LINE
  8
0
  6
CONTINUOUS
 62
1
 10
211.018217
 20
156.604074
 11
209.461334
 21
155.316284
  0
LINE
  8
0
  6
CONTINUOUS
 62
4
 10
190.940996
 20
110.773329
 11
209.197246
 21
110.773329
  0
LINE
  8
0
  6
CONTINUOUS
 62
4
 10
210.784746
 20
109.185829
 11
210.784746
 21
108.569879
  0
LINE
  8
0
  6
CONTINUOUS
 62
4
 10
209.990996
 20
107.776129
 11
199.672246
 21
107.776129
  0
LINE
  8
0
  6
CONTINUOUS
 62
4
 10
198.084746
 20
106.188629
 11
198.084746
 21
87.138629
  0
LINE
  8
0
  6
CONTINUOUS
 62
4
 10
194.909746
 20
90.929579
 11
194.909746
 21
104.906941
  0
LINE
  8
0
  6
CONTINUOUS
 62
4
 10
179.828496
 20
85.551129
 11
196.497246
 21
85.551129
  0
LINE
  8
0
  6
CONTINUOUS
 62
4
 10
178.240996
 20
87.754579
 11
178.240996
 21
87.138629
  0
LINE
  8
0
  6
CONTINUOUS
 62
4
 10
179.034746
 20
88.548329
 11
192.528496
 21
88.548329
  0
LINE
  8
0
  6
CONTINUOUS
 62
4
 10
190.940996
 20
110.773329
 11
190.940996
 21
109.185829
  0
LINE
  8
0
  6
CONTINUOUS
 62
4
 10
194.384227
 20
106.086921
 11
190.940996
 21
109.185829
  0
ARC
  8
0
  6
CONTINUOUS
 62
4
 10
196.497246
 20
87.138629
 40
1.587500
 50
270.000000
 51
0.000000
  0
ARC
  8
0
  6
CONTINUOUS
 62
4
 10
199.672246
 20
106.188629
 40
1.587500
 50
90.000000
 51
180.000000
  0
ARC
  8
0
  6
CONTINUOUS
 62
4
 10
179.828496
 20
87.138629
 40
1.587500
 50
180.000000
 51
270.000000
  0
ARC
  8
0
  6
CONTINUOUS
 62
4
 10
209.197246
 20
109.185829
 40
1.587500
 50
0.000000
 51
90.000000
  0
ARC
  8
0
  6
CONTINUOUS
 62
4
 10
193.322246
 20
104.906941
 40
1.587500
 50
0.000000
 51
48.012788
  0
ARC
  8
0
  6
CONTINUOUS
 62
4
 10
209.990996
 20
108.569879
 40
0.793750
 50
270.000000
 51
0.000000
  0
ARC
  8
0
  6
CONTINUOUS
 62
4
 10
179.034746
 20
87.754579
 40
0.793750
 50
90.000000
 51
180.000000
  0
ARC
  8
0
  6
CONTINUOUS
 62
4
 10
192.528496
 20
90.929579
 40
2.381250
 50
270.000000
 51
0.000000
  0
LINE
  8
0
  6
CONTINUOUS
 62
3
 10
200.131200
 20
105.256397
 11
200.131200
 21
100.256397
  0
LINE
  8
0
  6
CONTINUOUS
 62
3
 10
247.572477
 20
105.256397
 11
200.131200
 21
105.256397
  0
LINE
  8
0
  6
CONTINUOUS
 62
3
 10
200.131200
 20
100.256397
 11
247.572477
 21
100.256397
  0
LINE
  8
0
  6
CONTINUOUS
 62
4
 10
198.131200
 20
95.729884
 11
201.684631
 21
95.729884
  0
LINE
  8
0
  6
CONTINUOUS
 62
4
 10
201.684631
 20
90.229884
 11
198.134513
 21
90.229884
  0
LINE
  8
0
  6
DASH_2_33555077
 62
4
 10
194.959513
 20
91.229884
 11
201.131200
 21
91.229884
  0
LINE
  8
0
  6
DASH_2_33555077
 62
4
 10
201.131200
 20
94.729884
 11
194.959513
 21
94.729884
  0
LINE
  8
0
  6
DASH_2_33555077
 62
4
 10
201.131200
 20
91.479884
 11
194.959513
 21
91.479884
  0
LINE
  8
0
  6
DASH_2_33555077
 62
4
 10
194.959513
 20
94.479884
 11
201.131200
 21
94.479884
  0
LINE
  8
0
  6
CENTER
 62
4
 10
205.916818
 20
92.979884
 11
194.051151
 21
92.979884
  0
LINE
  8
0
  6
RANDOM
 62
4
 10
247.572477
 20
100.256397
 11
247.572477
 21
105.256397
  0
LINE
  8
0
  6
CONTINUOUS
 62
4
 10
210.620309
 20
108.086139
 11
212.254061
 21
105.256397
  0
LINE
  8
0
  6
CONTINUOUS
 62
4
 10
201.684631
 20
95.729884
 11
201.684631
 21
90.229884
  0
LINE
  8
0
  6
CONTINUOUS
 62
4
 10
210.117948
 20
96.922589
 11
212.042722
 21
100.256397
  0
LINE
  8
0
  6
CONTINUOUS
 62
4
 10
209.574797
 20
97.712519
 11
200.364028
 21
97.712519
  0
LINE
  8
0
  6
CONTINUOUS
 62
4
 10
203.830162
 20
87.962519
 11
198.614028
 21
87.962519
  0
LINE
  8
0
  6
CONTINUOUS
 62
4
 10
210.094413
 20
96.812519
 11
204.378645
 21
86.912519
  0
LINE
  8
0
  6
CONTINUOUS
 62
4
 10
203.512620
 20
87.412519
 11
203.830162
 21
87.962519
  0
LINE
  8
0
  6
CONTINUOUS
 62
4
 10
204.465248
 20
89.062519
 11
208.506699
 21
96.062519
  0
ARC
  8
0
  6
CONTINUOUS
 62
4
 10
198.614028
 20
88.462519
 40
0.500000
 50
90.000000
 51
180.000000
  0
ARC
  8
0
  6
CONTINUOUS
 62
4
 10
198.614028
 20
88.462519
 40
0.500000
 50
180.000000
 51
270.000000
  0
LINE
  8
0
  6
CONTINUOUS
 62
4
 10
204.814028
 20
96.462519
 11
204.814028
 21
96.812519
  0
LINE
  8
0
  6
CONTINUOUS
 62
4
 10
204.814028
 20
96.462519
 11
204.102703
 21
96.462519
  0
LINE
  8
0
  6
CONTINUOUS
 62
4
 10
201.614028
 20
96.162519
 11
201.614028
 21
96.962519
  0
LINE
  8
0
  6
CONTINUOUS
 62
4
 10
203.857329
 20
96.887519
 11
204.102703
 21
96.462519
  0
LINE
  8
0
  6
CONTINUOUS
 62
4
 10
201.614028
 20
96.962519
 11
203.727425
 21
96.962519
  0
LINE
  8
0
  6
CONTINUOUS
 62
4
 10
204.964028
 20
96.962519
 11
207.987084
 21
96.962519
  0
LINE
  8
0
  6
CONTINUOUS
 62
4
 10
201.114028
 20
96.162519
 11
201.614028
 21
96.162519
  0
LINE
  8
0
  6
CONTINUOUS
 62
4
 10
200.114028
 20
97.369626
 11
200.114028
 21
97.462519
  0
ARC
  8
0
  6
CONTINUOUS
 62
4
 10
203.945632
 20
87.162519
 40
0.500000
 50
270.000000
 51
330.000000
  0
ARC
  8
0
  6
CONTINUOUS
 62
4
 10
203.945632
 20
87.162519
 40
0.500000
 50
150.000000
 51
270.000000
  0
ARC
  8
0
  6
CONTINUOUS
 62
4
 10
209.574797
 20
97.112519
 40
0.600000
 50
330.000000
 51
90.000000
  0
ARC
  8
0
  6
CONTINUOUS
 62
4
 10
207.987084
 20
96.362519
 40
0.600000
 50
330.000000
 51
90.000000
  0
ARC
  8
0
  6
CONTINUOUS
 62
4
 10
200.364028
 20
97.462519
 40
0.250000
 50
90.000000
 51
180.000000
  0
ARC
  8
0
  6
CONTINUOUS
 62
4
 10
204.292042
 20
89.162519
 40
0.200000
 50
270.000000
 51
330.000000
  0
ARC
  8
0
  6
CONTINUOUS
 62
4
 10
204.964028
 20
96.812519
 40
0.150000
 50
90.000000
 51
180.000000
  0
ARC
  8
0
  6
CONTINUOUS
 62
4
 10
203.727425
 20
96.812519
 40
0.150000
 50
30.000000
 51
90.000000
  0
LINE
  8
0
  6
CONTINUOUS
 62
4
 10
201.684631
 20
90.229884
 11
201.684631
 21
89.229884
  0
LINE
  8
0
  6
CONTINUOUS
 62
4
 10
201.684631
 20
89.229884
 11
202.647767
 21
89.229884
  0
LINE
  8
0
  6
CONTINUOUS
 62
4
 10
201.684631
 20
95.729884
 11
201.684631
 21
96.729884
  0
LINE
  8
0
  6
CONTINUOUS
 62
4
 10
201.684631
 20
96.729884
 11
202.620540
 21
96.729884
  0
ARC
  8
0
  6
CONTINUOUS
 62
4
 10
198.338154
 20
92.964289
 40
5.702503
 50
319.090126
 51
41.325873
  0
LINE
  8
0
  6
CONTINUOUS
 62
4
 10
201.614028
 20
89.662519
 11
201.114028
 21
89.662519
  0
LINE
  8
0
  6
CONTINUOUS
 62
4
 10
201.114028
 20
96.162519
 11
200.260474
 21
97.016073
  0
ARC
  8
0
  6
CONTINUOUS
 62
4
 10
200.614028
 20
97.369626
 40
0.500000
 50
180.000000
 51
225.000000
  0
LINE
  8
0
  6
CONTINUOUS
 62
4
 10
201.114028
 20
89.662519
 11
200.414028
 21
88.962519
  0
LINE
  8
0
  6
CONTINUOUS
 62
4
 10
198.614028
 20
88.962519
 11
200.414028
 21
88.962519
  0
LINE
  8
0
  6
CONTINUOUS
 62
4
 10
201.614028
 20
88.962519
 11
204.292042
 21
88.962519
  0
LINE
  8
0
  6
CONTINUOUS
 62
4
 10
201.614028
 20
88.962519
 11
201.614028
 21
89.662519
  0
LINE
  8
0
  6
CONTINUOUS
 62
4
 10
200.131200
 20
105.229884
 11
198.131200
 21
105.229884
  0
LINE
  8
0
  6
CONTINUOUS
 62
4
 10
200.131200
 20
100.229884
 11
198.084746
 21
100.229884
  0
LINE
  8
0
  6
CONTINUOUS
 62
4
 10
198.084746
 20
100.229884
 11
200.131200
 21
105.229884
  0
LINE
  8
0
  6
CONTINUOUS
 62
4
 10
200.131200
 20
100.256397
 11
198.131200
 21
105.229884
  0
LINE
  8
0
  6
CONTINUOUS
 62
1
 10
184.974891
 20
100.498228
 11
198.100934
 21
102.952980
  0
LINE
  8
0
  6
CONTINUOUS
 62
1
 10
196.082387
 20
102.866168
 11
196.187436
 21
102.304447
  0
LINE
  8
0
  6
CONTINUOUS
 62
1
 10
196.187436
 20
102.304447
 11
198.100934
 21
102.952980
  0
LINE
  8
0
  6
CONTINUOUS
 62
1
 10
198.100934
 20
102.952980
 11
196.082387
 21
102.866168
  0
LINE
  8
0
  6
CONTINUOUS
 62
1
 10
201.253756
 20
82.802335
 11
202.350390
 21
90.478771
  0
LINE
  8
0
  6
CONTINUOUS
 62
1
 10
201.784637
 20
88.539055
 11
202.350388
 21
88.458233
  0
LINE
  8
0
  6
CONTINUOUS
 62
1
 10
202.350388
 20
88.458233
 11
202.350390
 21
90.478771
  0
LINE
  8
0
  6
CONTINUOUS
 62
1
 10
202.350390
 20
90.478771
 11
201.784637
 21
88.539055
  0
LINE
  8
0
  6
CONTINUOUS
 62
1
 10
216.764735
 20
113.622233
 11
204.525461
 21
106.330750
  0
LINE
  8
0
  6
CONTINUOUS
 62
1
 10
206.390070
 20
107.108974
 11
206.097583
 21
107.599936
  0
LINE
  8
0
  6
CONTINUOUS
 62
1
 10
206.097583
 20
107.599936
 11
204.525461
 21
106.330750
  0
LINE
  8
0
  6
CONTINUOUS
 62
1
 10
204.525461
 20
106.330750
 11
206.390070
 21
107.108974
  0
CIRCLE
  8
0
  6
CONTINUOUS
 62
4
 10
210.526506
 20
106.432682
 40
0.050000
  0
CIRCLE
  8
0
  6
CONTINUOUS
 62
4
 10
208.894470
 20
105.758108
 40
0.050000
  0
CIRCLE
  8
0
  6
CONTINUOUS
 62
4
 10
211.233721
 20
105.760227
 40
0.050000
  0
CIRCLE
  8
0
  6
CONTINUOUS
 62
4
 10
209.881923
 20
99.152687
 40
0.050000
  0
CIRCLE
  8
0
  6
CONTINUOUS
 62
4
 10
208.249887
 20
98.478112
 40
0.050000
  0
CIRCLE
  8
0
  6
CONTINUOUS
 62
4
 10
210.589138
 20
98.480231
 40
0.050000
  0
TEXT
  8
0
  6
CONTINUOUS
 62
1
 10
253.003790
 20
87.482250
 40
2.000000
  1
1/4 
 50
90.000000
 41
1.000000
 51
0.000000
  7
STANDARD
  0
LINE
  8
0
  6
CONTINUOUS
 62
1
 10
254.003790
 20
94.369155
 11
254.003790
 21
87.035822
  0
TEXT
  8
0
  6
CONTINUOUS
 62
1
 10
257.003790
 20
87.482250
 40
2.000000
  1
SINGLE GLASS
 50
90.000000
 41
1.000000
 51
0.000000
  7
STANDARD
  0
LINE
  8
0
  6
CONTINUOUS
 62
1
 10
258.003790
 20
107.512012
 11
258.003790
 21
87.035822
  0
TEXT
  8
0
  6
CONTINUOUS
 62
1
 10
261.003790
 20
87.482250
 40
2.000000
  1
BEAD GLAZED
 50
90.000000
 41
1.000000
 51
0.000000
  7
STANDARD
  0
LINE
  8
0
  6
CONTINUOUS
 62
1
 10
262.003790
 20
107.512012
 11
262.003790
 21
87.035822
  0
TEXT
  8
0
  6
CONTINUOUS
 62
1
 10
174.417770
 20
92.537120
 40
2.000000
  1
1/8 SETTING
 50
90.000000
 41
1.000000
 51
0.000000
  7
STANDARD
  0
TEXT
  8
0
  6
CONTINUOUS
 62
1
 10
178.417770
 20
92.537120
 40
2.000000
  1
BLOCK BY
 50
90.000000
 41
1.000000
 51
0.000000
  7
STANDARD
  0
TEXT
  8
0
  6
CONTINUOUS
 62
1
 10
182.417770
 20
92.537120
 40
2.000000
  1
INSTALLER
 50
90.000000
 41
1.000000
 51
0.000000
  7
STANDARD
  0
LINE
  8
0
  6
CONTINUOUS
 62
4
 10
208.084746
 20
106.456397
 11
208.084746
 21
106.576129
  0
LINE
  8
0
  6
CONTINUOUS
 62
4
 10
198.384746
 20
106.456397
 11
198.384746
 21
106.576129
  0
LINE
  8
0
  6
CONTINUOUS
 62
4
 10
199.484746
 20
107.676129
 11
206.984746
 21
107.676129
  0
LINE
  8
0
  6
CONTINUOUS
 62
3
 10
199.484746
 20
105.356397
 11
206.984746
 21
105.356397
  0
ARC
  8
0
  6
CONTINUOUS
 62
4
 10
199.484746
 20
106.576129
 40
1.100000
 50
90.000000
 51
180.000000
  0
ARC
  8
0
  6
CONTINUOUS
 62
4
 10
199.484746
 20
106.456397
 40
1.100000
 50
180.000000
 51
270.000000
  0
ARC
  8
0
  6
CONTINUOUS
 62
3
 10
206.984746
 20
106.456397
 40
1.100000
 50
270.000000
 51
0.000000
  0
ARC
  8
0
  6
CONTINUOUS
 62
4
 10
206.984746
 20
106.576129
 40
1.100000
 50
0.000000
 51
90.000000
  0
ARC
  8
0
  6
CONTINUOUS
 62
4
 10
199.484746
 20
106.576129
 40
0.300000
 50
90.000000
 51
180.000000
  0
LINE
  8
0
  6
CONTINUOUS
 62
4
 10
206.984746
 20
106.876129
 11
199.484746
 21
106.876129
  0
LINE
  8
0
  6
CONTINUOUS
 62
3
 10
206.984746
 20
106.156397
 11
199.484746
 21
106.156397
  0
ARC
  8
0
  6
CONTINUOUS
 62
4
 10
199.484746
 20
106.456397
 40
0.300000
 50
180.000000
 51
270.000000
  0
ARC
  8
0
  6
CONTINUOUS
 62
3
 10
206.984746
 20
106.456397
 40
0.300000
 50
270.000000
 51
0.000000
  0
ARC
  8
0
  6
CONTINUOUS
 62
4
 10
206.984746
 20
106.576129
 40
0.300000
 50
0.000000
 51
90.000000
  0
LINE
  8
0
  6
CONTINUOUS
 62
1
 10
172.388876
 20
97.843789
 11
173.509985
 21
97.843789
  0
LINE
  8
0
  6
CONTINUOUS
 62
1
 10
173.509985
 20
98.343789
 11
172.388876
 21
98.343789
  0
LINE
  8
0
  6
CONTINUOUS
 62
4
 10
208.084746
 20
98.912519
 11
208.084746
 21
99.056397
  0
LINE
  8
0
  6
CONTINUOUS
 62
4
 10
198.384746
 20
98.912519
 11
198.384746
 21
99.056397
  0
LINE
  8
0
  6
CONTINUOUS
 62
3
 10
206.984746
 20
100.156397
 11
199.484746
 21
100.156397
  0
LINE
  8
0
  6
CONTINUOUS
 62
4
 10
199.484746
 20
97.812519
 11
206.984746
 21
97.812519
  0
ARC
  8
0
  6
CONTINUOUS
 62
4
 10
199.484746
 20
99.056397
 40
1.100000
 50
90.000000
 51
180.000000
  0
ARC
  8
0
  6
CONTINUOUS
 62
4
 10
199.484746
 20
98.912519
 40
1.100000
 50
180.000000
 51
270.000000
  0
ARC
  8
0
  6
CONTINUOUS
 62
4
 10
206.984746
 20
98.912519
 40
1.100000
 50
270.000000
 51
0.000000
  0
ARC
  8
0
  6
CONTINUOUS
 62
4
 10
206.984746
 20
99.056397
 40
1.100000
 50
0.000000
 51
90.000000
  0
ARC
  8
0
  6
CONTINUOUS
 62
4
 10
199.484746
 20
99.056397
 40
0.300000
 50
90.000000
 51
180.000000
  0
LINE
  8
0
  6
CONTINUOUS
 62
3
 10
199.484746
 20
99.356397
 11
206.984746
 21
99.356397
  0
ARC
  8
0
  6
CONTINUOUS
 62
4
 10
206.984746
 20
99.056397
 40
0.300000
 50
0.000000
 51
90.000000
  0
LINE
  8
0
  6
CONTINUOUS
 62
4
 10
207.284746
 20
99.056397
 11
207.284746
 21
98.912519
  0
ARC
  8
0
  6
CONTINUOUS
 62
4
 10
206.984746
 20
98.912519
 40
0.300000
 50
270.000000
 51
0.000000
  0
LINE
  8
0
  6
CONTINUOUS
 62
4
 10
206.984746
 20
98.612519
 11
199.484746
 21
98.612519
  0
ARC
  8
0
  6
CONTINUOUS
 62
4
 10
199.484746
 20
98.912519
 40
0.300000
 50
180.000000
 51
270.000000
  0
LINE
  8
0
  6
CONTINUOUS
 62
4
 10
199.184746
 20
98.912519
 11
199.184746
 21
99.056397
  0
TEXT
  8
0
  6
CONTINUOUS
 62
1
 10
220.343172
 20
112.529840
 40
2.000000
  1
0.09 PRESHIM
 50
90.000000
 41
1.000000
 51
0.000000
  7
STANDARD
  0
TEXT
  8
0
  6
CONTINUOUS
 62
1
 10
224.343172
 20
112.529840
 40
2.000000
  1
TAPE AND
 50
90.000000
 41
1.000000
 51
0.000000
  7
STANDARD
  0
TEXT
  8
0
  6
CONTINUOUS
 62
1
 10
228.343172
 20
112.529840
 40
2.000000
  1
SILICONE BEAD
 50
90.000000
 41
1.000000
 51
0.000000
  7
STANDARD
  0
TEXT
  8
0
  6
CONTINUOUS
 62
1
 10
232.343172
 20
112.529840
 40
2.000000
  1
CAP BY
 50
90.000000
 41
1.000000
 51
0.000000
  7
STANDARD
  0
TEXT
  8
0
  6
CONTINUOUS
 62
1
 10
236.343172
 20
112.529840
 40
2.000000
  1
INSTALLER
 50
90.000000
 41
1.000000
 51
0.000000
  7
STANDARD
  0
LINE
  8
0
  6
CONTINUOUS
 62
1
 10
218.314278
 20
119.017791
 11
219.435388
 21
119.017791
  0
LINE
  8
0
  6
CONTINUOUS
 62
1
 10
219.435388
 20
119.517791
 11
218.314278
 21
119.517791
  0
TEXT
  8
0
  6
CONTINUOUS
 62
1
 10
189.319373
 20
68.872764
 40
2.000000
  1
GLAZING
 50
90.000000
 41
1.000000
 51
0.000000
  7
STANDARD
  0
TEXT
  8
0
  6
CONTINUOUS
 62
1
 10
193.319373
 20
68.872764
 40
2.000000
  1
STUD
 50
90.000000
 41
1.000000
 51
0.000000
  7
STANDARD
  0
TEXT
  8
0
  6
CONTINUOUS
 62
1
 10
197.319373
 20
68.872764
 40
2.000000
  1
AND
 50
90.000000
 41
1.000000
 51
0.000000
  7
STANDARD
  0
TEXT
  8
0
  6
CONTINUOUS
 62
1
 10
201.319373
 20
68.872764
 40
2.000000
  1
BEAD BY
 50
90.000000
 41
1.000000
 51
0.000000
  7
STANDARD
  0
TEXT
  8
0
  6
CONTINUOUS
 62
1
 10
205.319373
 20
68.872764
 40
2.000000
  1
CRITTALL
 50
90.000000
 41
1.000000
 51
0.000000
  7
STANDARD
  0
LINE
  8
0
  6
CONTINUOUS
 62
1
 10
185.560437
 20
137.393788
 11
186.681547
 21
137.393788
  0
LINE
  8
0
  6
CONTINUOUS
 62
1
 10
186.681547
 20
137.893788
 11
185.560437
 21
137.893788
  0
LINE
  8
0
  6
CONTINUOUS
 62
1
 10
250.858961
 20
52.337142
 11
251.980071
 21
52.337142
  0
LINE
  8
0
  6
CONTINUOUS
 62
1
 10
251.980071
 20
52.837142
 11
250.858961
 21
52.837142
  0
LINE
  8
0
  6
CONTINUOUS
 62
1
 10
250.974896
 20
93.970202
 11
252.096006
 21
93.970202
  0
LINE
  8
0
  6
CONTINUOUS
 62
1
 10
252.096006
 20
94.470202
 11
250.974896
 21
94.470202
  0
LINE
  8
0
  6
CONTINUOUS
 62
1
 10
-2.028894
 20
164.398851
 11
-0.907784
 21
164.398851
  0
LINE
  8
0
  6
CONTINUOUS
 62
1
 10
-0.907784
 20
164.898851
 11
-2.028894
 21
164.898851
  0
LINE
  8
0
  6
CONTINUOUS
 62
1
 10
251.033961
 20
164.349864
 11
252.155071
 21
164.349864
  0
LINE
  8
0
  6
CONTINUOUS
 62
1
 10
252.155071
 20
164.849864
 11
251.033961
 21
164.849864
  0
LINE
  8
0
  6
CONTINUOUS
 62
1
 10
173.799085
 20
167.081156
 11
174.920194
 21
167.081156
  0
LINE
  8
0
  6
CONTINUOUS
 62
1
 10
174.920194
 20
167.581156
 11
173.799085
 21
167.581156
  0
LINE
  8
0
  6
CONTINUOUS
 62
1
 10
203.183466
 20
172.555593
 11
207.961866
 21
158.585593
  0
LINE
  8
0
  6
CONTINUOUS
 62
1
 10
203.183466
 20
158.585593
 11
207.961866
 21
172.555593
  0
LINE
  8
0
  6
CONTINUOUS
 62
1
 10
282.980535
 20
185.793984
 11
279.511785
 21
185.793984
  0
LINE
  8
0
  6
CONTINUOUS
 62
1
 10
279.511785
 20
185.793984
 11
279.511785
 21
188.512734
  0
ARC
  8
0
  6
CONTINUOUS
 62
1
 10
284.044891
 20
188.623944
 40
4.534471
 50
163.405357
 51
181.405357
  0
ARC
  8
0
  6
CONTINUOUS
 62
1
 10
282.239095
 20
189.031331
 40
2.690458
 50
112.735705
 51
160.735705
  0
ARC
  8
0
  6
CONTINUOUS
 62
1
 10
283.260724
 20
186.282889
 40
5.621460
 50
74.512786
 51
111.512788
  0
ARC
  8
0
  6
CONTINUOUS
 62
1
 10
284.022562
 20
188.708774
 40
3.081441
 50
35.119655
 51
76.119655
  0
ARC
  8
0
  6
CONTINUOUS
 62
1
 10
283.396894
 20
188.698855
 40
3.616071
 50
358.536243
 51
29.536243
  0
LINE
  8
0
  6
CONTINUOUS
 62
1
 10
287.011785
 20
188.606484
 11
287.011785
 21
185.793984
  0
LINE
  8
0
  6
CONTINUOUS
 62
1
 10
287.011785
 20
185.793984
 11
282.980535
 21
185.793984
  0
LINE
  8
0
  6
CONTINUOUS
 62
1
 10
280.355535
 20
186.825234
 11
286.168035
 21
186.825234
  0
LINE
  8
0
  6
CONTINUOUS
 62
1
 10
286.168035
 20
186.825234
 11
286.168035
 21
188.606484
  0
ARC
  8
0
  6
CONTINUOUS
 62
1
 10
282.385928
 20
188.375517
 40
3.789152
 50
3.494617
 51
22.494616
  0
ARC
  8
0
  6
CONTINUOUS
 62
1
 10
284.375479
 20
188.970178
 40
1.736423
 50
29.500000
 51
60.500000
  0
ARC
  8
0
  6
CONTINUOUS
 62
1
 10
283.145922
 20
185.856756
 40
5.072841
 50
65.736358
 51
104.736360
  0
ARC
  8
0
  6
CONTINUOUS
 62
1
 10
282.569869
 20
188.573162
 40
2.303150
 50
108.068592
 51
147.068593
  0
ARC
  8
0
  6
CONTINUOUS
 62
1
 10
283.128234
 20
188.604968
 40
2.774234
 50
153.905243
 51
181.905244
  0
LINE
  8
0
  6
CONTINUOUS
 62
1
 10
280.355535
 20
188.512734
 11
280.355535
 21
186.825234
  0
LINE
  8
0
  6
CONTINUOUS
 62
1
 10
282.230535
 20
193.856484
 11
281.386785
 21
193.856484
  0
ARC
  8
0
  6
CONTINUOUS
 62
1
 10
276.967843
 20
191.722787
 40
4.907108
 50
25.773689
 51
58.773690
  0
LINE
  8
0
  6
CONTINUOUS
 62
1
 10
279.511785
 20
195.918984
 11
279.511785
 21
196.575234
  0
LINE
  8
0
  6
CONTINUOUS
 62
1
 10
279.511785
 20
196.575234
 11
283.261785
 21
196.575234
  0
LINE
  8
0
  6
CONTINUOUS
 62
1
 10
283.261785
 20
196.575234
 11
287.011785
 21
196.575234
  0
LINE
  8
0
  6
CONTINUOUS
 62
1
 10
287.011785
 20
196.575234
 11
287.011785
 21
195.543984
  0
LINE
  8
0
  6
CONTINUOUS
 62
1
 10
287.011785
 20
195.543984
 11
281.199285
 21
195.543984
  0
ARC
  8
0
  6
CONTINUOUS
 62
1
 10
278.330813
 20
192.632175
 40
4.087390
 50
17.429565
 51
45.429566
  0
ENDSEC
  0
EOF
