  0
SECTION
  2
HEADER
  9
$LIMMIN
 10
0.000000
 20
0.000000
  9
$LIMMAX
 10
297.301779
 20
210.224104
  9
$EXTMIN
 10
0.000000
 20
0.000000
  9
$EXTMAX
 10
297.301779
 20
210.224104
  9
$ANGBASE
 50
0.0
  9
$ANGDIR
 70
0
  9
$DIMRND
 40
0.100000
  9
$DIMSE1
 70
0
  9
$DIMSE2
 70
0
  9
$DIMTXT
 40
2.500000
  9
$LTSCALE
 40
1.000000
  9
$LUPREC
 70
0
  9
$AUPREC
 70
0
  9
$PDMODE
 70
2
  9
$PDSIZE
 40
1.486509
  0
ENDSEC
  0
SECTION
  2
TABLES
  0
TABLE
  2
VPORT
  70
1
  0
VPORT
  2
*ACTIVE
 70
0
  10
0.0
 20
0.0
 11
1.0
 21
1.0
 12
594.0
 22
420.0
 13
0.0
 23
0.0
 14
10.0
 24
10.0
 15
10.0
 25
10.0
 16
0.0
 26
0.0
 36
1.0
 17
594.0
 27
420.0
 37
100.0
 40
1000.0
 41
1.0
 42
50.0
 43
0.0
 44
0.0
 50
0.0
 51
0.0
 71
0
 72
2000
 73
1
 74
3
 75
0
 76
0
 77
0
 78
1
  0
ENDTAB
  0
TABLE
  2
LTYPE
 70
4
  0
LTYPE
  2
CONTINUOUS
 70
0
  3
Solid line
 72
65
 73
0
 40
0.0
  0
LTYPE
  2
DASHED
 70
0
  3
Dashed line
 72
65
 73
2
 40
6.000000
 49
3.000000
 49
-3.000000
  0
LTYPE
  2
CENTER
 70
0
  3
Chain line
 72
65
 73
4
 40
24.000000
 49
15.000000
 49
-3.000000
 49
3.000000
 49
-3.000000
  0
LTYPE
  2
RANDOM
 70
0
  3
Random line
 72
65
 73
4
 40
22.500000
 49
6.000000
 49
-3.000000
 49
4.500000
 49
-9.000000
  0
ENDTAB
  0
TABLE
  2
STYLE
 70
9
  0
STYLE
  2
STANDARD
 40
0
 41
1.0
 50
0.0
 71
0
 42
0
  3
simplex
  4

 70
0
  0
ENDTAB
  0
TABLE
  2
LAYER
 70
2
  0
LAYER
  2
0
 70
0
 62
7
  6
CONTINUOUS
  0
LAYER
  2
0
 62
1
  6
CONTINUOUS
 70
0
  0
ENDTAB
  0
ENDSEC
  0
SECTION
  2
BLOCKS
  0
ENDSEC
  0
SECTION
  2
ENTITIES
  0
LINE
  8
0
  6
CONTINUOUS
 62
1
 10
17.709024
 20
175.875224
 11
22.771524
 21
175.875224
  0
LINE
  8
0
  6
CONTINUOUS
 62
1
 10
17.709024
 20
188.868974
 11
22.771524
 21
188.868974
  0
LINE
  8
0
  6
CONTINUOUS
 62
1
 10
22.771524
 20
189.881474
 11
18.813570
 21
189.881474
  0
LINE
  8
0
  6
CONTINUOUS
 62
1
 10
22.771524
 20
174.862724
 11
18.813570
 21
174.862724
  0
LINE
  8
0
  6
CONTINUOUS
 62
1
 10
13.152774
 20
184.692412
 11
13.152774
 21
180.051787
  0
LINE
  8
0
  6
CONTINUOUS
 62
1
 10
14.165274
 20
179.123662
 11
14.165274
 21
181.865849
  0
LINE
  8
0
  6
CONTINUOUS
 62
1
 10
14.165274
 20
182.878349
 11
14.165274
 21
185.620537
  0
LINE
  8
0
  6
CONTINUOUS
 62
1
 10
13.152774
 20
180.051787
 11
10.621524
 21
182.372099
  0
LINE
  8
0
  6
CONTINUOUS
 62
1
 10
22.771524
 20
171.234599
 11
18.813570
 21
174.862724
  0
LINE
  8
0
  6
CONTINUOUS
 62
1
 10
16.696524
 20
176.803349
 11
14.165274
 21
179.123662
  0
LINE
  8
0
  6
CONTINUOUS
 62
1
 10
18.813570
 20
189.881474
 11
22.771524
 21
193.509599
  0
LINE
  8
0
  6
CONTINUOUS
 62
1
 10
10.621524
 20
182.372099
 11
13.152774
 21
184.692412
  0
LINE
  8
0
  6
CONTINUOUS
 62
1
 10
14.165274
 20
185.620537
 11
16.696524
 21
187.940849
  0
LINE
  8
0
  6
CONTINUOUS
 62
1
 10
22.771524
 20
174.862724
 11
22.771524
 21
171.234599
  0
LINE
  8
0
  6
CONTINUOUS
 62
1
 10
22.771524
 20
181.865849
 11
22.771524
 21
175.875224
  0
LINE
  8
0
  6
CONTINUOUS
 62
1
 10
22.771524
 20
193.509599
 11
22.771524
 21
189.881474
  0
LINE
  8
0
  6
CONTINUOUS
 62
1
 10
22.771524
 20
188.868974
 11
22.771524
 21
182.878349
  0
LINE
  8
0
  6
CONTINUOUS
 62
1
 10
22.771524
 20
181.865849
 11
17.709024
 21
181.865849
  0
LINE
  8
0
  6
CONTINUOUS
 62
1
 10
16.696524
 20
181.865849
 11
14.165274
 21
181.865849
  0
LINE
  8
0
  6
CONTINUOUS
 62
1
 10
22.771524
 20
182.878349
 11
17.709024
 21
182.878349
  0
LINE
  8
0
  6
CONTINUOUS
 62
1
 10
16.696524
 20
182.878349
 11
14.165274
 21
182.878349
  0
LINE
  8
0
  6
CONTINUOUS
 62
1
 10
16.696524
 20
187.940849
 11
16.696524
 21
182.878349
  0
LINE
  8
0
  6
CONTINUOUS
 62
1
 10
16.696524
 20
181.865849
 11
16.696524
 21
176.803349
  0
LINE
  8
0
  6
CONTINUOUS
 62
1
 10
17.709024
 20
175.875224
 11
17.709024
 21
181.865849
  0
LINE
  8
0
  6
CONTINUOUS
 62
1
 10
17.709024
 20
182.878349
 11
17.709024
 21
188.868974
  0
LINE
  8
0
  6
CONTINUOUS
 62
1
 10
12.950274
 20
180.237412
 11
12.950274
 21
184.506787
  0
LINE
  8
0
  6
CONTINUOUS
 62
1
 10
12.747774
 20
184.321162
 11
12.747774
 21
180.423037
  0
LINE
  8
0
  6
CONTINUOUS
 62
1
 10
12.545274
 20
180.608662
 11
12.545274
 21
184.135537
  0
LINE
  8
0
  6
CONTINUOUS
 62
1
 10
12.342774
 20
183.949912
 11
12.342774
 21
180.794287
  0
LINE
  8
0
  6
CONTINUOUS
 62
1
 10
12.140274
 20
180.979912
 11
12.140274
 21
183.764287
  0
LINE
  8
0
  6
CONTINUOUS
 62
1
 10
11.937774
 20
183.578662
 11
11.937774
 21
181.165537
  0
LINE
  8
0
  6
CONTINUOUS
 62
1
 10
11.735274
 20
181.351162
 11
11.735274
 21
183.393037
  0
LINE
  8
0
  6
CONTINUOUS
 62
1
 10
11.532774
 20
183.207412
 11
11.532774
 21
181.536787
  0
LINE
  8
0
  6
CONTINUOUS
 62
1
 10
11.330274
 20
181.722412
 11
11.330274
 21
183.021787
  0
LINE
  8
0
  6
CONTINUOUS
 62
1
 10
11.127774
 20
182.836162
 11
11.127774
 21
181.908037
  0
LINE
  8
0
  6
CONTINUOUS
 62
1
 10
10.925274
 20
182.093662
 11
10.925274
 21
182.650537
  0
LINE
  8
0
  6
CONTINUOUS
 62
1
 10
10.722774
 20
182.464912
 11
10.722774
 21
182.279287
  0
LINE
  8
0
  6
CONTINUOUS
 62
1
 10
22.366524
 20
175.875224
 11
22.366524
 21
181.865849
  0
LINE
  8
0
  6
CONTINUOUS
 62
1
 10
21.961524
 20
181.865849
 11
21.961524
 21
175.875224
  0
LINE
  8
0
  6
CONTINUOUS
 62
1
 10
21.556524
 20
175.875224
 11
21.556524
 21
181.865849
  0
LINE
  8
0
  6
CONTINUOUS
 62
1
 10
21.151524
 20
181.865849
 11
21.151524
 21
175.875224
  0
LINE
  8
0
  6
CONTINUOUS
 62
1
 10
20.746524
 20
175.875224
 11
20.746524
 21
181.865849
  0
LINE
  8
0
  6
CONTINUOUS
 62
1
 10
20.341524
 20
181.865849
 11
20.341524
 21
175.875224
  0
LINE
  8
0
  6
CONTINUOUS
 62
1
 10
19.936524
 20
175.875224
 11
19.936524
 21
181.865849
  0
LINE
  8
0
  6
CONTINUOUS
 62
1
 10
19.531524
 20
181.865849
 11
19.531524
 21
175.875224
  0
LINE
  8
0
  6
CONTINUOUS
 62
1
 10
19.126524
 20
175.875224
 11
19.126524
 21
181.865849
  0
LINE
  8
0
  6
CONTINUOUS
 62
1
 10
18.721524
 20
181.865849
 11
18.721524
 21
175.875224
  0
LINE
  8
0
  6
CONTINUOUS
 62
1
 10
18.316524
 20
175.875224
 11
18.316524
 21
181.865849
  0
LINE
  8
0
  6
CONTINUOUS
 62
1
 10
17.911524
 20
181.865849
 11
17.911524
 21
175.875224
  0
LINE
  8
0
  6
CONTINUOUS
 62
1
 10
22.366524
 20
182.878349
 11
22.366524
 21
188.868974
  0
LINE
  8
0
  6
CONTINUOUS
 62
1
 10
21.961524
 20
188.868974
 11
21.961524
 21
182.878349
  0
LINE
  8
0
  6
CONTINUOUS
 62
1
 10
21.556524
 20
182.878349
 11
21.556524
 21
188.868974
  0
LINE
  8
0
  6
CONTINUOUS
 62
1
 10
21.151524
 20
188.868974
 11
21.151524
 21
182.878349
  0
LINE
  8
0
  6
CONTINUOUS
 62
1
 10
21.151524
 20
188.868974
 11
21.151524
 21
182.878349
  0
LINE
  8
0
  6
CONTINUOUS
 62
1
 10
20.746524
 20
182.878349
 11
20.746524
 21
188.868974
  0
LINE
  8
0
  6
CONTINUOUS
 62
1
 10
20.341524
 20
188.868974
 11
20.341524
 21
182.878349
  0
LINE
  8
0
  6
CONTINUOUS
 62
1
 10
19.936524
 20
182.878349
 11
19.936524
 21
188.868974
  0
LINE
  8
0
  6
CONTINUOUS
 62
1
 10
19.531524
 20
188.868974
 11
19.531524
 21
182.878349
  0
LINE
  8
0
  6
CONTINUOUS
 62
1
 10
19.126524
 20
182.878349
 11
19.126524
 21
188.868974
  0
LINE
  8
0
  6
CONTINUOUS
 62
1
 10
18.721524
 20
188.868974
 11
18.721524
 21
182.878349
  0
LINE
  8
0
  6
CONTINUOUS
 62
1
 10
18.316524
 20
182.878349
 11
18.316524
 21
188.868974
  0
LINE
  8
0
  6
CONTINUOUS
 62
1
 10
17.911524
 20
188.868974
 11
17.911524
 21
182.878349
  0
LINE
  8
0
  6
CONTINUOUS
 62
1
 10
16.291524
 20
182.878349
 11
16.291524
 21
187.569599
  0
LINE
  8
0
  6
CONTINUOUS
 62
1
 10
15.886524
 20
187.198349
 11
15.886524
 21
182.878349
  0
LINE
  8
0
  6
CONTINUOUS
 62
1
 10
15.481524
 20
182.878349
 11
15.481524
 21
186.827099
  0
LINE
  8
0
  6
CONTINUOUS
 62
1
 10
15.076524
 20
186.455849
 11
15.076524
 21
182.878349
  0
LINE
  8
0
  6
CONTINUOUS
 62
1
 10
14.671524
 20
182.878349
 11
14.671524
 21
186.084599
  0
LINE
  8
0
  6
CONTINUOUS
 62
1
 10
14.266524
 20
185.713349
 11
14.266524
 21
182.878349
  0
LINE
  8
0
  6
CONTINUOUS
 62
1
 10
16.291524
 20
177.174599
 11
16.291524
 21
181.865849
  0
LINE
  8
0
  6
CONTINUOUS
 62
1
 10
15.886524
 20
181.865849
 11
15.886524
 21
177.545849
  0
LINE
  8
0
  6
CONTINUOUS
 62
1
 10
15.481524
 20
177.917099
 11
15.481524
 21
181.865849
  0
LINE
  8
0
  6
CONTINUOUS
 62
1
 10
15.076524
 20
181.865849
 11
15.076524
 21
178.288349
  0
LINE
  8
0
  6
CONTINUOUS
 62
1
 10
14.671524
 20
178.659599
 11
14.671524
 21
181.865849
  0
LINE
  8
0
  6
CONTINUOUS
 62
1
 10
14.266524
 20
181.865849
 11
14.266524
 21
179.030849
  0
LINE
  8
0
  6
CONTINUOUS
 62
1
 10
22.366524
 20
171.605849
 11
22.366524
 21
174.862724
  0
LINE
  8
0
  6
CONTINUOUS
 62
1
 10
21.961524
 20
174.862724
 11
21.961524
 21
171.977099
  0
LINE
  8
0
  6
CONTINUOUS
 62
1
 10
21.556524
 20
172.348349
 11
21.556524
 21
174.862724
  0
LINE
  8
0
  6
CONTINUOUS
 62
1
 10
21.151524
 20
174.862724
 11
21.151524
 21
172.719599
  0
LINE
  8
0
  6
CONTINUOUS
 62
1
 10
20.746524
 20
173.090849
 11
20.746524
 21
174.862724
  0
LINE
  8
0
  6
CONTINUOUS
 62
1
 10
20.341524
 20
174.862724
 11
20.341524
 21
173.462099
  0
LINE
  8
0
  6
CONTINUOUS
 62
1
 10
19.936524
 20
173.833349
 11
19.936524
 21
174.862724
  0
LINE
  8
0
  6
CONTINUOUS
 62
1
 10
19.531524
 20
174.862724
 11
19.531524
 21
174.204599
  0
LINE
  8
0
  6
CONTINUOUS
 62
1
 10
19.126524
 20
174.575849
 11
19.126524
 21
174.862724
  0
LINE
  8
0
  6
CONTINUOUS
 62
1
 10
22.366524
 20
189.881474
 11
22.366524
 21
193.138349
  0
LINE
  8
0
  6
CONTINUOUS
 62
1
 10
21.961524
 20
192.767099
 11
21.961524
 21
189.881474
  0
LINE
  8
0
  6
CONTINUOUS
 62
1
 10
21.556524
 20
189.881474
 11
21.556524
 21
192.395849
  0
LINE
  8
0
  6
CONTINUOUS
 62
1
 10
21.151524
 20
192.024599
 11
21.151524
 21
189.881474
  0
LINE
  8
0
  6
CONTINUOUS
 62
1
 10
20.746524
 20
189.881474
 11
20.746524
 21
191.653349
  0
LINE
  8
0
  6
CONTINUOUS
 62
1
 10
20.341524
 20
191.282099
 11
20.341524
 21
189.881474
  0
LINE
  8
0
  6
CONTINUOUS
 62
1
 10
19.936524
 20
189.881474
 11
19.936524
 21
190.910849
  0
LINE
  8
0
  6
CONTINUOUS
 62
1
 10
19.531524
 20
190.539599
 11
19.531524
 21
189.881474
  0
LINE
  8
0
  6
CONTINUOUS
 62
1
 10
19.126524
 20
189.881474
 11
19.126524
 21
190.168349
  0
LINE
  8
0
  6
CONTINUOUS
 62
1
 10
22.569024
 20
175.875224
 11
22.569024
 21
181.865849
  0
LINE
  8
0
  6
CONTINUOUS
 62
1
 10
22.164024
 20
181.865849
 11
22.164024
 21
175.875224
  0
LINE
  8
0
  6
CONTINUOUS
 62
1
 10
21.759024
 20
181.865849
 11
21.759024
 21
175.875224
  0
LINE
  8
0
  6
CONTINUOUS
 62
1
 10
21.354024
 20
175.875224
 11
21.354024
 21
181.865849
  0
LINE
  8
0
  6
CONTINUOUS
 62
1
 10
19.329024
 20
175.875224
 11
19.329024
 21
181.865849
  0
LINE
  8
0
  6
CONTINUOUS
 62
1
 10
18.924024
 20
181.865849
 11
18.924024
 21
175.875224
  0
LINE
  8
0
  6
CONTINUOUS
 62
1
 10
18.519024
 20
175.875224
 11
18.519024
 21
181.865849
  0
LINE
  8
0
  6
CONTINUOUS
 62
1
 10
18.114024
 20
181.865849
 11
18.114024
 21
175.875224
  0
LINE
  8
0
  6
CONTINUOUS
 62
1
 10
19.734024
 20
181.865849
 11
19.734024
 21
175.875224
  0
LINE
  8
0
  6
CONTINUOUS
 62
1
 10
20.139024
 20
175.875224
 11
20.139024
 21
181.865849
  0
LINE
  8
0
  6
CONTINUOUS
 62
1
 10
20.544024
 20
181.865849
 11
20.544024
 21
175.875224
  0
LINE
  8
0
  6
CONTINUOUS
 62
1
 10
20.949024
 20
175.875224
 11
20.949024
 21
181.865849
  0
LINE
  8
0
  6
CONTINUOUS
 62
1
 10
22.569024
 20
182.878349
 11
22.569024
 21
188.868974
  0
LINE
  8
0
  6
CONTINUOUS
 62
1
 10
22.164024
 20
188.868974
 11
22.164024
 21
182.878349
  0
LINE
  8
0
  6
CONTINUOUS
 62
1
 10
18.114024
 20
182.878349
 11
18.114024
 21
188.868974
  0
LINE
  8
0
  6
CONTINUOUS
 62
1
 10
18.519024
 20
188.868974
 11
18.519024
 21
182.878349
  0
LINE
  8
0
  6
CONTINUOUS
 62
1
 10
18.924024
 20
188.868974
 11
18.924024
 21
182.878349
  0
LINE
  8
0
  6
CONTINUOUS
 62
1
 10
19.329024
 20
182.878349
 11
19.329024
 21
188.868974
  0
LINE
  8
0
  6
CONTINUOUS
 62
1
 10
19.734024
 20
182.878349
 11
19.734024
 21
188.868974
  0
LINE
  8
0
  6
CONTINUOUS
 62
1
 10
20.139024
 20
182.878349
 11
20.139024
 21
188.868974
  0
LINE
  8
0
  6
CONTINUOUS
 62
1
 10
20.544024
 20
182.878349
 11
20.544024
 21
188.868974
  0
LINE
  8
0
  6
CONTINUOUS
 62
1
 10
20.949024
 20
188.868974
 11
20.949024
 21
182.878349
  0
LINE
  8
0
  6
CONTINUOUS
 62
1
 10
21.354024
 20
188.868974
 11
21.354024
 21
182.878349
  0
LINE
  8
0
  6
CONTINUOUS
 62
1
 10
21.759024
 20
182.878349
 11
21.759024
 21
188.868974
  0
LINE
  8
0
  6
CONTINUOUS
 62
1
 10
22.569024
 20
189.881474
 11
22.569024
 21
193.323974
  0
LINE
  8
0
  6
CONTINUOUS
 62
1
 10
22.164024
 20
192.952724
 11
22.164024
 21
189.881474
  0
LINE
  8
0
  6
CONTINUOUS
 62
1
 10
21.759024
 20
189.881474
 11
21.759024
 21
192.581474
  0
LINE
  8
0
  6
CONTINUOUS
 62
1
 10
21.354024
 20
192.210224
 11
21.354024
 21
189.881474
  0
LINE
  8
0
  6
CONTINUOUS
 62
1
 10
20.949024
 20
189.881474
 11
20.949024
 21
191.838974
  0
LINE
  8
0
  6
CONTINUOUS
 62
1
 10
20.544024
 20
191.467724
 11
20.544024
 21
189.881474
  0
LINE
  8
0
  6
CONTINUOUS
 62
1
 10
20.139024
 20
191.096474
 11
20.139024
 21
189.881474
  0
LINE
  8
0
  6
CONTINUOUS
 62
1
 10
19.734024
 20
190.725224
 11
19.734024
 21
189.881474
  0
LINE
  8
0
  6
CONTINUOUS
 62
1
 10
19.329024
 20
189.881474
 11
19.329024
 21
190.353974
  0
LINE
  8
0
  6
CONTINUOUS
 62
1
 10
18.924024
 20
189.982724
 11
18.924024
 21
189.881474
  0
LINE
  8
0
  6
CONTINUOUS
 62
1
 10
22.569024
 20
171.420224
 11
22.569024
 21
174.862724
  0
LINE
  8
0
  6
CONTINUOUS
 62
1
 10
22.164024
 20
174.862724
 11
22.164024
 21
171.791474
  0
LINE
  8
0
  6
CONTINUOUS
 62
1
 10
21.759024
 20
172.162724
 11
21.759024
 21
174.862724
  0
LINE
  8
0
  6
CONTINUOUS
 62
1
 10
21.354024
 20
174.862724
 11
21.354024
 21
172.533974
  0
LINE
  8
0
  6
CONTINUOUS
 62
1
 10
20.949024
 20
172.905224
 11
20.949024
 21
174.862724
  0
LINE
  8
0
  6
CONTINUOUS
 62
1
 10
20.544024
 20
174.862724
 11
20.544024
 21
173.276474
  0
LINE
  8
0
  6
CONTINUOUS
 62
1
 10
20.139024
 20
173.647724
 11
20.139024
 21
174.862724
  0
LINE
  8
0
  6
CONTINUOUS
 62
1
 10
19.734024
 20
174.862724
 11
19.734024
 21
174.018974
  0
LINE
  8
0
  6
CONTINUOUS
 62
1
 10
19.329024
 20
174.390224
 11
19.329024
 21
174.862724
  0
LINE
  8
0
  6
CONTINUOUS
 62
1
 10
18.924024
 20
174.862724
 11
18.924024
 21
174.761474
  0
LINE
  8
0
  6
CONTINUOUS
 62
1
 10
16.494024
 20
182.878349
 11
16.494024
 21
187.755224
  0
LINE
  8
0
  6
CONTINUOUS
 62
1
 10
16.089024
 20
187.383974
 11
16.089024
 21
182.878349
  0
LINE
  8
0
  6
CONTINUOUS
 62
1
 10
15.684024
 20
182.878349
 11
15.684024
 21
187.012724
  0
LINE
  8
0
  6
CONTINUOUS
 62
1
 10
15.279024
 20
186.641474
 11
15.279024
 21
182.878349
  0
LINE
  8
0
  6
CONTINUOUS
 62
1
 10
14.874024
 20
182.878349
 11
14.874024
 21
186.270224
  0
LINE
  8
0
  6
CONTINUOUS
 62
1
 10
14.469024
 20
185.898974
 11
14.469024
 21
182.878349
  0
LINE
  8
0
  6
CONTINUOUS
 62
1
 10
14.469024
 20
181.865849
 11
14.469024
 21
178.845224
  0
LINE
  8
0
  6
CONTINUOUS
 62
1
 10
14.874024
 20
178.473974
 11
14.874024
 21
181.865849
  0
LINE
  8
0
  6
CONTINUOUS
 62
1
 10
15.279024
 20
181.865849
 11
15.279024
 21
178.102724
  0
LINE
  8
0
  6
CONTINUOUS
 62
1
 10
15.684024
 20
177.731474
 11
15.684024
 21
181.865849
  0
LINE
  8
0
  6
CONTINUOUS
 62
1
 10
16.089024
 20
181.865849
 11
16.089024
 21
177.360224
  0
LINE
  8
0
  6
CONTINUOUS
 62
1
 10
16.494024
 20
176.988974
 11
16.494024
 21
181.865849
  0
LINE
  8
0
  6
CONTINUOUS
 62
1
 10
33.571524
 20
198.957126
 11
33.571524
 21
165.787045
  0
LINE
  8
0
  6
CONTINUOUS
 62
1
 10
24.796524
 20
165.787045
 11
24.796524
 21
198.957126
  0
ARC
  8
0
  6
CONTINUOUS
 62
1
 10
27.461923
 20
168.074104
 40
1.075798
 50
101.065051
 51
132.065051
  0
ARC
  8
0
  6
CONTINUOUS
 62
1
 10
27.572266
 20
168.135782
 40
1.110793
 50
138.434949
 51
168.434949
  0
ARC
  8
0
  6
CONTINUOUS
 62
1
 10
28.788962
 20
167.972760
 40
2.336988
 50
170.500000
 51
189.499999
  0
ARC
  8
0
  6
CONTINUOUS
 62
1
 10
28.208722
 20
167.511743
 40
1.726341
 50
177.500000
 51
272.499999
  0
LINE
  8
0
  6
CONTINUOUS
 62
1
 10
28.284024
 20
165.787045
 11
29.826881
 21
165.787045
  0
ARC
  8
0
  6
CONTINUOUS
 62
1
 10
29.701546
 20
168.734479
 40
2.950098
 50
272.434949
 51
304.434949
  0
ARC
  8
0
  6
CONTINUOUS
 62
1
 10
30.617539
 20
167.320288
 40
1.266522
 50
306.434949
 51
0.434948
  0
LINE
  8
0
  6
CONTINUOUS
 62
1
 10
31.884024
 20
167.329902
 11
31.884024
 21
167.844188
  0
ARC
  8
0
  6
CONTINUOUS
 62
1
 10
30.643121
 20
167.905751
 40
1.242430
 50
357.159808
 51
80.159810
  0
LINE
  8
0
  6
CONTINUOUS
 62
1
 10
31.884024
 20
170.415617
 11
26.484024
 21
170.415617
  0
LINE
  8
0
  6
CONTINUOUS
 62
1
 10
26.484024
 20
170.415617
 11
26.484024
 21
172.729902
  0
ARC
  8
0
  6
CONTINUOUS
 62
1
 10
27.512596
 20
172.729902
 40
1.028571
 50
90.000000
 51
180.000000
  0
ARC
  8
0
  6
CONTINUOUS
 62
1
 10
27.512596
 20
172.472760
 40
1.285714
 50
0.000001
 51
90.000000
  0
LINE
  8
0
  6
CONTINUOUS
 62
1
 10
28.798310
 20
172.472760
 11
28.798310
 21
170.158474
  0
LINE
  8
0
  6
CONTINUOUS
 62
1
 10
28.798310
 20
171.958474
 11
31.884024
 21
173.758474
  0
LINE
  8
0
  6
CONTINUOUS
 62
1
 10
31.884024
 20
175.044188
 11
26.484024
 21
175.044188
  0
LINE
  8
0
  6
CONTINUOUS
 62
1
 10
26.484024
 20
178.129902
 11
31.884024
 21
178.129902
  0
LINE
  8
0
  6
CONTINUOUS
 62
1
 10
26.484024
 20
176.329902
 11
26.484024
 21
179.929902
  0
LINE
  8
0
  6
CONTINUOUS
 62
1
 10
26.484024
 20
183.015617
 11
31.884024
 21
183.015617
  0
LINE
  8
0
  6
CONTINUOUS
 62
1
 10
26.484024
 20
181.215617
 11
26.484024
 21
184.815617
  0
LINE
  8
0
  6
CONTINUOUS
 62
1
 10
31.884024
 20
186.101331
 11
26.484024
 21
188.158474
  0
LINE
  8
0
  6
CONTINUOUS
 62
1
 10
26.484024
 20
188.158474
 11
31.884024
 21
190.215617
  0
LINE
  8
0
  6
CONTINUOUS
 62
1
 10
30.084024
 20
186.872760
 11
30.084024
 21
189.701331
  0
LINE
  8
0
  6
CONTINUOUS
 62
1
 10
31.884024
 20
191.501331
 11
26.484024
 21
191.501331
  0
LINE
  8
0
  6
CONTINUOUS
 62
1
 10
31.884024
 20
191.501331
 11
31.884024
 21
194.587045
  0
LINE
  8
0
  6
CONTINUOUS
 62
1
 10
31.884024
 20
195.872760
 11
26.484024
 21
195.872760
  0
LINE
  8
0
  6
CONTINUOUS
 62
1
 10
31.884024
 20
195.872760
 11
31.884024
 21
198.958474
  0
LINE
  8
0
  6
CONTINUOUS
 62
1
 10
260.875000
 20
194.750000
 11
259.000000
 21
194.750000
  0
ARC
  8
0
  6
CONTINUOUS
 62
1
 10
254.625723
 20
194.428881
 40
4.386048
 50
4.198591
 51
42.198592
  0
ARC
  8
0
  6
CONTINUOUS
 62
1
 10
254.692799
 20
193.436889
 40
5.063114
 50
51.059965
 51
90.059967
  0
ARC
  8
0
  6
CONTINUOUS
 62
1
 10
254.579736
 20
194.224870
 40
4.276488
 50
88.556045
 51
132.556044
  0
ARC
  8
0
  6
CONTINUOUS
 62
1
 10
253.273673
 20
195.942506
 40
2.137285
 50
137.914383
 51
213.914386
  0
ARC
  8
0
  6
CONTINUOUS
 62
1
 10
254.168697
 20
197.072828
 40
3.538004
 50
221.036243
 51
257.036244
  0
LINE
  8
0
  6
CONTINUOUS
 62
1
 10
253.375000
 20
193.625000
 11
256.750000
 21
192.687500
  0
ARC
  8
0
  6
CONTINUOUS
 62
1
 10
255.816959
 20
187.982879
 40
4.796251
 50
30.782407
 51
78.782407
  0
ARC
  8
0
  6
CONTINUOUS
 62
1
 10
256.367410
 20
188.900759
 40
3.886787
 50
325.289408
 51
23.289407
  0
ARC
  8
0
  6
CONTINUOUS
 62
1
 10
255.630344
 20
189.864312
 40
5.055095
 50
272.065052
 51
321.065051
  0
ARC
  8
0
  6
CONTINUOUS
 62
1
 10
254.979959
 20
191.370312
 40
6.610448
 50
238.235225
 51
277.235226
  0
ARC
  8
0
  6
CONTINUOUS
 62
1
 10
253.984249
 20
189.332171
 40
4.359294
 50
180.258542
 51
235.258541
  0
LINE
  8
0
  6
CONTINUOUS
 62
1
 10
249.625000
 20
189.312500
 11
251.500000
 21
189.312500
  0
ARC
  8
0
  6
CONTINUOUS
 62
1
 10
254.743573
 20
189.696772
 40
3.266256
 50
186.756437
 51
233.756439
  0
ARC
  8
0
  6
CONTINUOUS
 62
1
 10
255.189611
 20
192.048557
 40
5.523714
 50
244.510447
 51
290.510447
  0
ARC
  8
0
  6
CONTINUOUS
 62
1
 10
256.167150
 20
188.760175
 40
2.114560
 50
296.934949
 51
9.934947
  0
ARC
  8
0
  6
CONTINUOUS
 62
1
 10
256.345101
 20
188.720101
 40
1.947455
 50
12.000000
 51
78.000002
  0
LINE
  8
0
  6
CONTINUOUS
 62
1
 10
256.750000
 20
190.625000
 11
251.687500
 21
192.125000
  0
ARC
  8
0
  6
CONTINUOUS
 62
1
 10
253.113522
 20
195.823385
 40
3.963785
 50
192.914382
 51
248.914383
  0
ARC
  8
0
  6
CONTINUOUS
 62
1
 10
253.532236
 20
195.697588
 40
4.349170
 50
133.065052
 51
190.065051
  0
ARC
  8
0
  6
CONTINUOUS
 62
1
 10
254.380220
 20
194.014843
 40
6.180300
 50
87.150123
 51
128.150124
  0
ARC
  8
0
  6
CONTINUOUS
 62
1
 10
255.018733
 20
192.924917
 40
7.270132
 50
63.611341
 51
92.611342
  0
ARC
  8
0
  6
CONTINUOUS
 62
1
 10
255.661845
 20
194.909383
 40
5.215591
 50
358.248827
 51
60.248826
  0
LINE
  8
0
  6
CONTINUOUS
 62
1
 10
240.062500
 20
200.000000
 11
242.125000
 21
200.000000
  0
LINE
  8
0
  6
CONTINUOUS
 62
1
 10
242.125000
 20
200.000000
 11
242.125000
 21
193.250000
  0
LINE
  8
0
  6
CONTINUOUS
 62
1
 10
242.125000
 20
193.250000
 11
242.125000
 21
186.687500
  0
LINE
  8
0
  6
CONTINUOUS
 62
1
 10
242.125000
 20
186.687500
 11
247.187500
 21
186.687500
  0
LINE
  8
0
  6
CONTINUOUS
 62
1
 10
247.187500
 20
186.687500
 11
247.187500
 21
185.000000
  0
LINE
  8
0
  6
CONTINUOUS
 62
1
 10
247.187500
 20
185.000000
 11
241.000000
 21
185.000000
  0
LINE
  8
0
  6
CONTINUOUS
 62
1
 10
241.000000
 20
185.000000
 11
235.187500
 21
185.000000
  0
LINE
  8
0
  6
CONTINUOUS
 62
1
 10
235.187500
 20
185.000000
 11
235.187500
 21
186.687500
  0
LINE
  8
0
  6
CONTINUOUS
 62
1
 10
235.187500
 20
186.687500
 11
240.062500
 21
186.687500
  0
LINE
  8
0
  6
CONTINUOUS
 62
1
 10
240.062500
 20
186.687500
 11
240.062500
 21
193.625000
  0
LINE
  8
0
  6
CONTINUOUS
 62
1
 10
240.062500
 20
193.625000
 11
240.062500
 21
200.000000
  0
LINE
  8
0
  6
CONTINUOUS
 62
1
 10
232.562500
 20
191.937500
 11
232.562500
 21
185.000000
  0
LINE
  8
0
  6
CONTINUOUS
 62
1
 10
232.562500
 20
185.000000
 11
221.875000
 21
185.000000
  0
LINE
  8
0
  6
CONTINUOUS
 62
1
 10
221.875000
 20
185.000000
 11
221.875000
 21
186.687500
  0
LINE
  8
0
  6
CONTINUOUS
 62
1
 10
221.875000
 20
186.687500
 11
230.500000
 21
186.687500
  0
LINE
  8
0
  6
CONTINUOUS
 62
1
 10
230.500000
 20
186.687500
 11
230.500000
 21
191.375000
  0
LINE
  8
0
  6
CONTINUOUS
 62
1
 10
230.500000
 20
191.375000
 11
222.437500
 21
191.375000
  0
LINE
  8
0
  6
CONTINUOUS
 62
1
 10
222.437500
 20
191.375000
 11
222.437500
 21
193.062500
  0
LINE
  8
0
  6
CONTINUOUS
 62
1
 10
222.437500
 20
193.062500
 11
230.500000
 21
193.062500
  0
LINE
  8
0
  6
CONTINUOUS
 62
1
 10
230.500000
 20
193.062500
 11
230.500000
 21
198.312500
  0
LINE
  8
0
  6
CONTINUOUS
 62
1
 10
230.500000
 20
198.312500
 11
221.312500
 21
198.312500
  0
LINE
  8
0
  6
CONTINUOUS
 62
1
 10
221.312500
 20
198.312500
 11
221.312500
 21
200.000000
  0
LINE
  8
0
  6
CONTINUOUS
 62
1
 10
221.312500
 20
200.000000
 11
232.562500
 21
200.000000
  0
LINE
  8
0
  6
CONTINUOUS
 62
1
 10
232.562500
 20
200.000000
 11
232.562500
 21
191.937500
  0
LINE
  8
0
  6
CONTINUOUS
 62
1
 10
218.125000
 20
191.937500
 11
218.125000
 21
185.000000
  0
LINE
  8
0
  6
CONTINUOUS
 62
1
 10
218.125000
 20
185.000000
 11
207.437500
 21
185.000000
  0
LINE
  8
0
  6
CONTINUOUS
 62
1
 10
207.437500
 20
185.000000
 11
207.437500
 21
186.687500
  0
LINE
  8
0
  6
CONTINUOUS
 62
1
 10
207.437500
 20
186.687500
 11
216.062500
 21
186.687500
  0
LINE
  8
0
  6
CONTINUOUS
 62
1
 10
216.062500
 20
186.687500
 11
216.062500
 21
191.375000
  0
LINE
  8
0
  6
CONTINUOUS
 62
1
 10
216.062500
 20
191.375000
 11
208.000000
 21
191.375000
  0
LINE
  8
0
  6
CONTINUOUS
 62
1
 10
208.000000
 20
191.375000
 11
208.000000
 21
193.062500
  0
LINE
  8
0
  6
CONTINUOUS
 62
1
 10
208.000000
 20
193.062500
 11
216.062500
 21
193.062500
  0
LINE
  8
0
  6
CONTINUOUS
 62
1
 10
216.062500
 20
193.062500
 11
216.062500
 21
198.312500
  0
LINE
  8
0
  6
CONTINUOUS
 62
1
 10
216.062500
 20
198.312500
 11
206.875000
 21
198.312500
  0
LINE
  8
0
  6
CONTINUOUS
 62
1
 10
206.875000
 20
198.312500
 11
206.875000
 21
200.000000
  0
LINE
  8
0
  6
CONTINUOUS
 62
1
 10
206.875000
 20
200.000000
 11
218.125000
 21
200.000000
  0
LINE
  8
0
  6
CONTINUOUS
 62
1
 10
218.125000
 20
200.000000
 11
218.125000
 21
191.937500
  0
LINE
  8
0
  6
CONTINUOUS
 62
1
 10
203.687500
 20
192.125000
 11
203.687500
 21
185.000000
  0
LINE
  8
0
  6
CONTINUOUS
 62
1
 10
203.687500
 20
185.000000
 11
201.625000
 21
185.000000
  0
LINE
  8
0
  6
CONTINUOUS
 62
1
 10
201.625000
 20
185.000000
 11
201.625000
 21
191.562500
  0
LINE
  8
0
  6
CONTINUOUS
 62
1
 10
201.625000
 20
191.562500
 11
201.625000
 21
198.312500
  0
LINE
  8
0
  6
CONTINUOUS
 62
1
 10
201.625000
 20
198.312500
 11
194.500000
 21
198.312500
  0
LINE
  8
0
  6
CONTINUOUS
 62
1
 10
194.500000
 20
198.312500
 11
194.500000
 21
200.000000
  0
LINE
  8
0
  6
CONTINUOUS
 62
1
 10
194.500000
 20
200.000000
 11
203.687500
 21
200.000000
  0
LINE
  8
0
  6
CONTINUOUS
 62
1
 10
203.687500
 20
200.000000
 11
203.687500
 21
192.125000
  0
TEXT
  8
0
  6
CONTINUOUS
 62
1
 10
20.000000
 20
20.843750
 40
6.000000
  1
Homelight Windows
 50
90.000000
 41
1.000000
 51
0.000000
  7
STANDARD
  0
TEXT
  8
0
  6
CONTINUOUS
 62
1
 10
277.476378
 20
19.947503
 40
2.000000
  1
This drawing is the property of Crittall Windows Ltd and is a
 50
90.000000
 41
1.000000
 51
0.000000
  7
STANDARD
  0
TEXT
  8
0
  6
CONTINUOUS
 62
1
 10
281.476378
 20
19.947503
 40
2.000000
  1
confidential document and must not be copied or its contents
 50
90.000000
 41
1.000000
 51
0.000000
  7
STANDARD
  0
TEXT
  8
0
  6
CONTINUOUS
 62
1
 10
285.476378
 20
19.947503
 40
2.000000
  1
divulged without prior consent.
 50
90.000000
 41
1.000000
 51
0.000000
  7
STANDARD
  0
LINE
  8
0
  6
CONTINUOUS
 62
1
 10
46.919222
 20
112.097517
 11
80.264222
 21
112.097517
  0
LINE
  8
0
  6
CONTINUOUS
 62
1
 10
81.054222
 20
111.307517
 11
81.054222
 21
110.395413
  0
LINE
  8
0
  6
CONTINUOUS
 62
1
 10
46.129222
 20
110.395413
 11
46.129222
 21
111.307517
  0
LINE
  8
0
  6
CONTINUOUS
 62
1
 10
62.004222
 20
104.786100
 11
62.004222
 21
100.985017
  0
LINE
  8
0
  6
CONTINUOUS
 62
1
 10
65.179222
 20
100.985017
 11
65.179222
 21
104.786100
  0
LINE
  8
0
  6
CONTINUOUS
 62
1
 10
62.797972
 20
82.728767
 11
64.385472
 21
82.728767
  0
LINE
  8
0
  6
CONTINUOUS
 62
1
 10
59.427619
 20
96.072918
 11
61.402985
 21
95.579077
  0
LINE
  8
0
  6
CONTINUOUS
 62
1
 10
67.755826
 20
96.072918
 11
65.780460
 21
95.579077
  0
LINE
  8
0
  6
CONTINUOUS
 62
1
 10
58.829222
 20
96.839331
 11
58.829222
 21
97.810017
  0
LINE
  8
0
  6
CONTINUOUS
 62
1
 10
68.354222
 20
96.839331
 11
68.354222
 21
97.810017
  0
LINE
  8
0
  6
CONTINUOUS
 62
1
 10
59.066680
 20
107.952208
 11
47.597993
 21
108.812359
  0
LINE
  8
0
  6
CONTINUOUS
 62
1
 10
68.116764
 20
107.952208
 11
79.585451
 21
108.812359
  0
LINE
  8
0
  6
CONTINUOUS
 62
1
 10
62.004222
 20
94.809026
 11
62.004222
 21
83.522517
  0
LINE
  8
0
  6
CONTINUOUS
 62
1
 10
65.179222
 20
83.522517
 11
65.179222
 21
94.809026
  0
ARC
  8
0
  6
CONTINUOUS
 62
1
 10
58.829222
 20
104.786100
 40
3.175000
 50
0.000000
 51
85.710847
  0
ARC
  8
0
  6
CONTINUOUS
 62
1
 10
68.354222
 20
104.786100
 40
3.175000
 50
94.289153
 51
180.000000
  0
ARC
  8
0
  6
CONTINUOUS
 62
1
 10
47.716722
 20
110.395413
 40
1.587500
 50
180.000000
 51
265.710847
  0
ARC
  8
0
  6
CONTINUOUS
 62
1
 10
79.466722
 20
110.395413
 40
1.587500
 50
274.289153
 51
0.000000
  0
ARC
  8
0
  6
CONTINUOUS
 62
1
 10
61.210472
 20
94.809026
 40
0.793750
 50
0.000000
 51
75.963757
  0
ARC
  8
0
  6
CONTINUOUS
 62
1
 10
65.972972
 20
94.809026
 40
0.793750
 50
104.036243
 51
180.000000
  0
ARC
  8
0
  6
CONTINUOUS
 62
1
 10
62.797972
 20
83.522517
 40
0.793750
 50
180.000000
 51
270.000000
  0
ARC
  8
0
  6
CONTINUOUS
 62
1
 10
64.385472
 20
83.522517
 40
0.793750
 50
270.000000
 51
0.000000
  0
ARC
  8
0
  6
CONTINUOUS
 62
1
 10
60.416722
 20
100.985017
 40
1.587500
 50
270.000000
 51
0.000000
  0
ARC
  8
0
  6
CONTINUOUS
 62
1
 10
60.416722
 20
97.810017
 40
1.587500
 50
90.000000
 51
180.000000
  0
ARC
  8
0
  6
CONTINUOUS
 62
1
 10
66.766722
 20
100.985017
 40
1.587500
 50
180.000000
 51
270.000000
  0
ARC
  8
0
  6
CONTINUOUS
 62
1
 10
66.766722
 20
97.810017
 40
1.587500
 50
0.000000
 51
90.000000
  0
ARC
  8
0
  6
CONTINUOUS
 62
1
 10
59.619222
 20
96.839331
 40
0.790000
 50
180.000000
 51
255.963757
  0
ARC
  8
0
  6
CONTINUOUS
 62
1
 10
67.564222
 20
96.839331
 40
0.790000
 50
284.036243
 51
0.000000
  0
ARC
  8
0
  6
CONTINUOUS
 62
1
 10
46.919222
 20
111.307517
 40
0.790000
 50
90.000000
 51
180.000000
  0
ARC
  8
0
  6
CONTINUOUS
 62
1
 10
80.264222
 20
111.307517
 40
0.790000
 50
0.000000
 51
90.000000
  0
LINE
  8
0
  6
CONTINUOUS
 62
1
 10
81.054222
 20
179.895402
 11
81.054222
 21
178.983298
  0
LINE
  8
0
  6
CONTINUOUS
 62
1
 10
46.129222
 20
178.983298
 11
46.129222
 21
179.895402
  0
LINE
  8
0
  6
CONTINUOUS
 62
1
 10
62.004222
 20
173.373985
 11
62.004222
 21
169.572902
  0
LINE
  8
0
  6
CONTINUOUS
 62
1
 10
65.179222
 20
169.572902
 11
65.179222
 21
173.373985
  0
LINE
  8
0
  6
CONTINUOUS
 62
1
 10
59.427619
 20
164.660803
 11
61.402985
 21
164.166962
  0
LINE
  8
0
  6
CONTINUOUS
 62
1
 10
67.755826
 20
164.660803
 11
65.780460
 21
164.166962
  0
LINE
  8
0
  6
CONTINUOUS
 62
1
 10
58.829222
 20
165.427216
 11
58.829222
 21
166.397902
  0
LINE
  8
0
  6
CONTINUOUS
 62
1
 10
68.354222
 20
165.427216
 11
68.354222
 21
166.397902
  0
LINE
  8
0
  6
CONTINUOUS
 62
1
 10
59.066680
 20
176.540093
 11
47.597993
 21
177.400244
  0
LINE
  8
0
  6
CONTINUOUS
 62
1
 10
68.116764
 20
176.540093
 11
79.585451
 21
177.400244
  0
ARC
  8
0
  6
CONTINUOUS
 62
1
 10
58.829222
 20
173.373985
 40
3.175000
 50
0.000000
 51
85.710847
  0
ARC
  8
0
  6
CONTINUOUS
 62
1
 10
68.354222
 20
173.373985
 40
3.175000
 50
94.289153
 51
180.000000
  0
ARC
  8
0
  6
CONTINUOUS
 62
1
 10
47.716722
 20
178.983298
 40
1.587500
 50
180.000000
 51
265.710847
  0
ARC
  8
0
  6
CONTINUOUS
 62
1
 10
79.466722
 20
178.983298
 40
1.587500
 50
274.289153
 51
0.000000
  0
ARC
  8
0
  6
CONTINUOUS
 62
1
 10
61.210472
 20
163.396911
 40
0.793750
 50
0.000000
 51
75.963757
  0
ARC
  8
0
  6
CONTINUOUS
 62
1
 10
65.972972
 20
163.396911
 40
0.793750
 50
104.036243
 51
180.000000
  0
ARC
  8
0
  6
CONTINUOUS
 62
1
 10
60.416722
 20
169.572902
 40
1.587500
 50
270.000000
 51
0.000000
  0
ARC
  8
0
  6
CONTINUOUS
 62
1
 10
60.416722
 20
166.397902
 40
1.587500
 50
90.000000
 51
180.000000
  0
ARC
  8
0
  6
CONTINUOUS
 62
1
 10
66.766722
 20
169.572902
 40
1.587500
 50
180.000000
 51
270.000000
  0
ARC
  8
0
  6
CONTINUOUS
 62
1
 10
66.766722
 20
166.397902
 40
1.587500
 50
0.000000
 51
90.000000
  0
ARC
  8
0
  6
CONTINUOUS
 62
1
 10
59.619222
 20
165.427216
 40
0.790000
 50
180.000000
 51
255.963757
  0
ARC
  8
0
  6
CONTINUOUS
 62
1
 10
67.564222
 20
165.427216
 40
0.790000
 50
284.036243
 51
0.000000
  0
ARC
  8
0
  6
CONTINUOUS
 62
1
 10
46.919222
 20
179.895402
 40
0.790000
 50
90.000000
 51
180.000000
  0
ARC
  8
0
  6
CONTINUOUS
 62
1
 10
80.264222
 20
179.895402
 40
0.790000
 50
0.000000
 51
90.000000
  0
LINE
  8
0
  6
CONTINUOUS
 62
1
 10
46.919222
 20
180.685402
 11
80.264222
 21
180.685402
  0
LINE
  8
0
  6
CONTINUOUS
 62
1
 10
69.385551
 20
129.881208
 11
70.735254
 21
129.881208
  0
LINE
  8
0
  6
CONTINUOUS
 62
1
 10
70.735254
 20
129.881208
 11
70.735254
 21
132.262458
  0
LINE
  8
0
  6
CONTINUOUS
 62
1
 10
62.004004
 20
157.662458
 11
65.424479
 21
133.324515
  0
LINE
  8
0
  6
CONTINUOUS
 62
1
 10
65.179004
 20
157.662458
 11
68.566181
 21
133.561446
  0
LINE
  8
0
  6
CONTINUOUS
 62
1
 10
70.735254
 20
132.262458
 11
70.060495
 21
132.262458
  0
ARC
  8
0
  6
CONTINUOUS
 62
1
 10
70.060495
 20
133.771458
 40
1.509000
 50
188.000000
 51
270.000000
  0
ARC
  8
0
  6
CONTINUOUS
 62
1
 10
69.385551
 20
133.881208
 40
4.000000
 50
188.000000
 51
270.000000
  0
LINE
  8
0
  6
CONTINUOUS
 62
1
 10
62.004004
 20
163.392716
 11
62.004004
 21
157.662458
  0
LINE
  8
0
  6
CONTINUOUS
 62
1
 10
65.179004
 20
157.662458
 11
65.179004
 21
163.392716
  0
LINE
  8
0
  6
CONTINUOUS
 62
1
 10
46.129222
 20
34.138754
 11
46.129222
 21
67.476004
  0
LINE
  8
0
  6
CONTINUOUS
 62
1
 10
48.585775
 20
33.344879
 11
46.923097
 21
33.344879
  0
LINE
  8
0
  6
CONTINUOUS
 62
1
 10
46.923097
 20
68.269879
 11
48.585775
 21
68.269879
  0
LINE
  8
0
  6
CONTINUOUS
 62
1
 10
53.046724
 20
49.219879
 11
57.415731
 21
49.219879
  0
LINE
  8
0
  6
CONTINUOUS
 62
1
 10
57.415731
 20
52.394879
 11
53.046724
 21
52.394879
  0
LINE
  8
0
  6
CONTINUOUS
 62
1
 10
50.677292
 20
54.539186
 11
49.375711
 21
67.554998
  0
LINE
  8
0
  6
CONTINUOUS
 62
1
 10
50.677292
 20
47.075573
 11
49.375711
 21
34.059761
  0
LINE
  8
0
  6
CONTINUOUS
 62
1
 10
62.079377
 20
55.269261
 11
62.647639
 21
52.996211
  0
LINE
  8
0
  6
CONTINUOUS
 62
1
 10
61.694352
 20
55.569879
 11
59.139093
 21
55.569879
  0
LINE
  8
0
  6
CONTINUOUS
 62
1
 10
58.185782
 20
52.996117
 11
58.754068
 21
55.269261
  0
LINE
  8
0
  6
CONTINUOUS
 62
1
 10
58.185782
 20
48.618642
 11
58.754068
 21
46.345498
  0
LINE
  8
0
  6
CONTINUOUS
 62
1
 10
61.694352
 20
46.044879
 11
59.139093
 21
46.044879
  0
ARC
  8
0
  6
CONTINUOUS
 62
1
 10
57.415731
 20
48.426129
 40
0.793750
 50
14.036243
 51
90.000000
  0
ARC
  8
0
  6
CONTINUOUS
 62
1
 10
57.415731
 20
53.188629
 40
0.793750
 50
270.000000
 51
345.963757
  0
LINE
  8
0
  6
CONTINUOUS
 62
1
 10
63.417811
 20
49.219879
 11
96.600389
 21
49.219879
  0
LINE
  8
0
  6
CONTINUOUS
 62
1
 10
63.417811
 20
52.394879
 11
96.600389
 21
52.394879
  0
ARC
  8
0
  6
CONTINUOUS
 62
1
 10
53.046724
 20
46.838629
 40
2.381250
 50
90.000000
 51
174.289407
  0
ARC
  8
0
  6
CONTINUOUS
 62
1
 10
53.046724
 20
54.776129
 40
2.381250
 50
185.710593
 51
270.000000
  0
ARC
  8
0
  6
CONTINUOUS
 62
1
 10
59.139093
 20
55.173004
 40
0.396875
 50
90.000000
 51
165.963757
  0
ARC
  8
0
  6
CONTINUOUS
 62
1
 10
61.694352
 20
55.173004
 40
0.396875
 50
14.036243
 51
90.000000
  0
ARC
  8
0
  6
CONTINUOUS
 62
1
 10
61.694352
 20
46.441754
 40
0.396875
 50
270.000000
 51
349.907604
  0
ARC
  8
0
  6
CONTINUOUS
 62
1
 10
48.585775
 20
34.138754
 40
0.793875
 50
270.000000
 51
354.289407
  0
ARC
  8
0
  6
CONTINUOUS
 62
1
 10
46.923097
 20
67.476004
 40
0.793875
 50
90.000000
 51
180.000000
  0
ARC
  8
0
  6
CONTINUOUS
 62
1
 10
48.585775
 20
67.476004
 40
0.793875
 50
5.710593
 51
90.000000
  0
LINE
  8
0
  6
CONTINUOUS
 62
1
 10
106.454222
 20
50.807379
 11
106.454222
 21
53.188629
  0
LINE
  8
0
  6
CONTINUOUS
 62
1
 10
104.866722
 20
54.776129
 11
99.639306
 21
54.776129
  0
LINE
  8
0
  6
CONTINUOUS
 62
1
 10
106.454222
 20
50.807379
 11
106.454222
 21
48.426129
  0
LINE
  8
0
  6
CONTINUOUS
 62
1
 10
104.866722
 20
46.838629
 11
99.639306
 21
46.838629
  0
LINE
  8
0
  6
CONTINUOUS
 62
1
 10
97.161743
 20
52.627400
 11
99.077952
 21
54.543609
  0
LINE
  8
0
  6
CONTINUOUS
 62
1
 10
97.161743
 20
48.987359
 11
99.077952
 21
47.071150
  0
ARC
  8
0
  6
CONTINUOUS
 62
1
 10
99.639306
 20
47.632504
 40
0.793875
 50
225.000000
 51
270.000000
  0
ARC
  8
0
  6
CONTINUOUS
 62
1
 10
99.639306
 20
53.982254
 40
0.793875
 50
90.000000
 51
135.000000
  0
ARC
  8
0
  6
CONTINUOUS
 62
1
 10
96.600389
 20
53.188754
 40
0.793875
 50
270.000000
 51
315.000000
  0
ARC
  8
0
  6
CONTINUOUS
 62
1
 10
96.600389
 20
48.426004
 40
0.793875
 50
45.000000
 51
90.000000
  0
ARC
  8
0
  6
CONTINUOUS
 62
1
 10
104.866722
 20
48.426129
 40
1.587500
 50
270.000000
 51
0.000000
  0
ARC
  8
0
  6
CONTINUOUS
 62
1
 10
104.866722
 20
53.188629
 40
1.587500
 50
0.000000
 51
90.000000
  0
ARC
  8
0
  6
CONTINUOUS
 62
1
 10
46.919222
 20
34.138754
 40
0.790000
 50
180.000000
 51
270.000000
  0
LINE
  8
0
  6
CONTINUOUS
 62
1
 10
62.085086
 20
46.372208
 11
62.647663
 21
48.622517
  0
ARC
  8
0
  6
CONTINUOUS
 62
1
 10
63.417714
 20
48.430004
 40
0.793750
 50
90.000000
 51
165.963757
  0
ARC
  8
0
  6
CONTINUOUS
 62
1
 10
63.417714
 20
53.192504
 40
0.793750
 50
194.036243
 51
270.000000
  0
ARC
  8
0
  6
CONTINUOUS
 62
1
 10
59.139093
 20
46.441754
 40
0.396875
 50
194.036243
 51
270.000000
  0
LINE
  8
0
  6
CONTINUOUS
 62
1
 10
46.129222
 20
29.959186
 11
46.129222
 21
23.702645
  0
LINE
  8
0
  6
CONTINUOUS
 62
1
 10
46.129222
 20
26.186853
 11
74.014691
 21
26.186853
  0
LINE
  8
0
  6
CONTINUOUS
 62
1
 10
46.129222
 20
26.186853
 11
49.129222
 21
25.758282
  0
LINE
  8
0
  6
CONTINUOUS
 62
1
 10
49.129222
 20
25.758282
 11
49.129222
 21
26.401139
  0
LINE
  8
0
  6
CONTINUOUS
 62
1
 10
49.129222
 20
26.401139
 11
47.414937
 21
26.186853
  0
LINE
  8
0
  6
CONTINUOUS
 62
1
 10
47.414937
 20
26.186853
 11
49.129222
 21
25.972567
  0
LINE
  8
0
  6
CONTINUOUS
 62
1
 10
49.129222
 20
25.972567
 11
49.129222
 21
26.615424
  0
LINE
  8
0
  6
CONTINUOUS
 62
1
 10
49.129222
 20
26.615424
 11
46.129222
 21
26.186853
  0
LINE
  8
0
  6
CONTINUOUS
 62
1
 10
106.454222
 20
29.959186
 11
106.454222
 21
23.702645
  0
LINE
  8
0
  6
CONTINUOUS
 62
1
 10
46.129222
 20
79.945739
 11
46.129222
 21
73.689198
  0
LINE
  8
0
  6
CONTINUOUS
 62
1
 10
46.129222
 20
76.173406
 11
50.568229
 21
76.173406
  0
LINE
  8
0
  6
CONTINUOUS
 62
1
 10
46.129222
 20
76.173406
 11
49.129222
 21
75.744834
  0
LINE
  8
0
  6
CONTINUOUS
 62
1
 10
49.129222
 20
75.744834
 11
49.129222
 21
76.387691
  0
LINE
  8
0
  6
CONTINUOUS
 62
1
 10
49.129222
 20
76.387691
 11
47.414937
 21
76.173406
  0
LINE
  8
0
  6
CONTINUOUS
 62
1
 10
47.414937
 20
76.173406
 11
49.129222
 21
75.959120
  0
LINE
  8
0
  6
CONTINUOUS
 62
1
 10
49.129222
 20
75.959120
 11
49.129222
 21
76.601977
  0
LINE
  8
0
  6
CONTINUOUS
 62
1
 10
49.129222
 20
76.601977
 11
46.129222
 21
76.173406
  0
LINE
  8
0
  6
CONTINUOUS
 62
1
 10
62.004222
 20
79.945739
 11
62.004222
 21
65.195739
  0
LINE
  8
0
  6
CONTINUOUS
 62
1
 10
65.168235
 20
79.945739
 11
65.168235
 21
65.195739
  0
LINE
  8
0
  6
CONTINUOUS
 62
1
 10
65.168235
 20
76.173406
 11
69.673721
 21
76.173406
  0
LINE
  8
0
  6
CONTINUOUS
 62
1
 10
65.168235
 20
76.173406
 11
68.168235
 21
75.744834
  0
LINE
  8
0
  6
CONTINUOUS
 62
1
 10
68.168235
 20
75.744834
 11
68.168235
 21
76.387691
  0
LINE
  8
0
  6
CONTINUOUS
 62
1
 10
68.168235
 20
76.387691
 11
66.453949
 21
76.173406
  0
LINE
  8
0
  6
CONTINUOUS
 62
1
 10
66.453949
 20
76.173406
 11
68.168235
 21
75.959120
  0
LINE
  8
0
  6
CONTINUOUS
 62
1
 10
68.168235
 20
75.959120
 11
68.168235
 21
76.601977
  0
LINE
  8
0
  6
CONTINUOUS
 62
1
 10
68.168235
 20
76.601977
 11
65.168235
 21
76.173406
  0
LINE
  8
0
  6
CONTINUOUS
 62
1
 10
81.054222
 20
79.945739
 11
81.054222
 21
73.689198
  0
LINE
  8
0
  6
CONTINUOUS
 62
1
 10
81.054222
 20
183.255194
 11
81.054222
 21
193.169610
  0
LINE
  8
0
  6
CONTINUOUS
 62
1
 10
81.054222
 20
190.685402
 11
68.878466
 21
190.685402
  0
LINE
  8
0
  6
CONTINUOUS
 62
1
 10
81.054222
 20
190.685402
 11
78.054222
 21
191.113974
  0
LINE
  8
0
  6
CONTINUOUS
 62
1
 10
78.054222
 20
191.113974
 11
78.054222
 21
190.471116
  0
LINE
  8
0
  6
CONTINUOUS
 62
1
 10
78.054222
 20
190.471116
 11
79.768508
 21
190.685402
  0
LINE
  8
0
  6
CONTINUOUS
 62
1
 10
79.768508
 20
190.685402
 11
78.054222
 21
190.899688
  0
LINE
  8
0
  6
CONTINUOUS
 62
1
 10
78.054222
 20
190.899688
 11
78.054222
 21
190.256831
  0
LINE
  8
0
  6
CONTINUOUS
 62
1
 10
78.054222
 20
190.256831
 11
81.054222
 21
190.685402
  0
LINE
  8
0
  6
CONTINUOUS
 62
1
 10
46.129222
 20
183.255194
 11
46.129222
 21
193.169610
  0
LINE
  8
0
  6
CONTINUOUS
 62
1
 10
81.054222
 20
115.192744
 11
81.054222
 21
125.107160
  0
LINE
  8
0
  6
CONTINUOUS
 62
1
 10
81.054222
 20
122.622952
 11
68.423153
 21
122.622952
  0
LINE
  8
0
  6
CONTINUOUS
 62
1
 10
81.054222
 20
122.622952
 11
78.054222
 21
123.051524
  0
LINE
  8
0
  6
CONTINUOUS
 62
1
 10
78.054222
 20
123.051524
 11
78.054222
 21
122.408666
  0
LINE
  8
0
  6
CONTINUOUS
 62
1
 10
78.054222
 20
122.408666
 11
79.768508
 21
122.622952
  0
LINE
  8
0
  6
CONTINUOUS
 62
1
 10
79.768508
 20
122.622952
 11
78.054222
 21
122.837238
  0
LINE
  8
0
  6
CONTINUOUS
 62
1
 10
78.054222
 20
122.837238
 11
78.054222
 21
122.194381
  0
LINE
  8
0
  6
CONTINUOUS
 62
1
 10
78.054222
 20
122.194381
 11
81.054222
 21
122.622952
  0
LINE
  8
0
  6
CONTINUOUS
 62
1
 10
46.129222
 20
115.192744
 11
46.129222
 21
125.107160
  0
LINE
  8
0
  6
CONTINUOUS
 62
1
 10
36.496931
 20
68.269879
 11
37.183626
 21
68.269879
  0
LINE
  8
0
  6
CONTINUOUS
 62
1
 10
39.213541
 20
68.269879
 11
39.213541
 21
33.344879
  0
LINE
  8
0
  6
CONTINUOUS
 62
1
 10
39.213541
 20
68.269879
 11
38.784969
 21
65.269879
  0
LINE
  8
0
  6
CONTINUOUS
 62
1
 10
38.784969
 20
65.269879
 11
39.427826
 21
65.269879
  0
LINE
  8
0
  6
CONTINUOUS
 62
1
 10
39.427826
 20
65.269879
 11
39.213541
 21
66.984165
  0
LINE
  8
0
  6
CONTINUOUS
 62
1
 10
39.213541
 20
66.984165
 11
38.999255
 21
65.269879
  0
LINE
  8
0
  6
CONTINUOUS
 62
1
 10
38.999255
 20
65.269879
 11
39.642112
 21
65.269879
  0
LINE
  8
0
  6
CONTINUOUS
 62
1
 10
39.642112
 20
65.269879
 11
39.213541
 21
68.269879
  0
LINE
  8
0
  6
CONTINUOUS
 62
1
 10
39.213541
 20
33.344879
 11
39.642112
 21
36.344879
  0
LINE
  8
0
  6
CONTINUOUS
 62
1
 10
39.642112
 20
36.344879
 11
38.999255
 21
36.344879
  0
LINE
  8
0
  6
CONTINUOUS
 62
1
 10
38.999255
 20
36.344879
 11
39.213541
 21
34.630594
  0
LINE
  8
0
  6
CONTINUOUS
 62
1
 10
39.213541
 20
34.630594
 11
39.427826
 21
36.344879
  0
LINE
  8
0
  6
CONTINUOUS
 62
1
 10
39.427826
 20
36.344879
 11
38.784969
 21
36.344879
  0
LINE
  8
0
  6
CONTINUOUS
 62
1
 10
38.784969
 20
36.344879
 11
39.213541
 21
33.344879
  0
LINE
  8
0
  6
CONTINUOUS
 62
1
 10
42.993754
 20
68.269879
 11
37.183626
 21
68.269879
  0
LINE
  8
0
  6
CONTINUOUS
 62
1
 10
37.183626
 20
33.344879
 11
42.993754
 21
33.344879
  0
LINE
  8
0
  6
CONTINUOUS
 62
1
 10
43.278565
 20
112.097517
 11
37.183626
 21
112.097517
  0
LINE
  8
0
  6
CONTINUOUS
 62
1
 10
39.213541
 20
112.097517
 11
39.213541
 21
82.728767
  0
LINE
  8
0
  6
CONTINUOUS
 62
1
 10
39.213541
 20
112.097517
 11
38.784969
 21
109.097517
  0
LINE
  8
0
  6
CONTINUOUS
 62
1
 10
38.784969
 20
109.097517
 11
39.427826
 21
109.097517
  0
LINE
  8
0
  6
CONTINUOUS
 62
1
 10
39.427826
 20
109.097517
 11
39.213541
 21
110.811803
  0
LINE
  8
0
  6
CONTINUOUS
 62
1
 10
39.213541
 20
110.811803
 11
38.999255
 21
109.097517
  0
LINE
  8
0
  6
CONTINUOUS
 62
1
 10
38.999255
 20
109.097517
 11
39.642112
 21
109.097517
  0
LINE
  8
0
  6
CONTINUOUS
 62
1
 10
39.642112
 20
109.097517
 11
39.213541
 21
112.097517
  0
LINE
  8
0
  6
CONTINUOUS
 62
1
 10
39.213541
 20
82.728767
 11
39.642112
 21
85.728767
  0
LINE
  8
0
  6
CONTINUOUS
 62
1
 10
39.642112
 20
85.728767
 11
38.999255
 21
85.728767
  0
LINE
  8
0
  6
CONTINUOUS
 62
1
 10
38.999255
 20
85.728767
 11
39.213541
 21
84.014482
  0
LINE
  8
0
  6
CONTINUOUS
 62
1
 10
39.213541
 20
84.014482
 11
39.427826
 21
85.728767
  0
LINE
  8
0
  6
CONTINUOUS
 62
1
 10
39.427826
 20
85.728767
 11
38.784969
 21
85.728767
  0
LINE
  8
0
  6
CONTINUOUS
 62
1
 10
38.784969
 20
85.728767
 11
39.213541
 21
82.728767
  0
LINE
  8
0
  6
CONTINUOUS
 62
1
 10
42.993754
 20
112.097517
 11
37.183626
 21
112.097517
  0
LINE
  8
0
  6
CONTINUOUS
 62
1
 10
37.183626
 20
82.728767
 11
42.993754
 21
82.728767
  0
LINE
  8
0
  6
CONTINUOUS
 62
1
 10
43.563376
 20
180.685402
 11
37.468438
 21
180.685402
  0
LINE
  8
0
  6
CONTINUOUS
 62
1
 10
39.498352
 20
180.685402
 11
39.498352
 21
129.881208
  0
LINE
  8
0
  6
CONTINUOUS
 62
1
 10
39.498352
 20
180.685402
 11
39.069780
 21
177.685402
  0
LINE
  8
0
  6
CONTINUOUS
 62
1
 10
39.069780
 20
177.685402
 11
39.712637
 21
177.685402
  0
LINE
  8
0
  6
CONTINUOUS
 62
1
 10
39.712637
 20
177.685402
 11
39.498352
 21
179.399688
  0
LINE
  8
0
  6
CONTINUOUS
 62
1
 10
39.498352
 20
179.399688
 11
39.284066
 21
177.685402
  0
LINE
  8
0
  6
CONTINUOUS
 62
1
 10
39.284066
 20
177.685402
 11
39.926923
 21
177.685402
  0
LINE
  8
0
  6
CONTINUOUS
 62
1
 10
39.926923
 20
177.685402
 11
39.498352
 21
180.685402
  0
LINE
  8
0
  6
CONTINUOUS
 62
1
 10
39.498352
 20
129.881208
 11
39.926923
 21
132.881208
  0
LINE
  8
0
  6
CONTINUOUS
 62
1
 10
39.926923
 20
132.881208
 11
39.284066
 21
132.881208
  0
LINE
  8
0
  6
CONTINUOUS
 62
1
 10
39.284066
 20
132.881208
 11
39.498352
 21
131.166922
  0
LINE
  8
0
  6
CONTINUOUS
 62
1
 10
39.498352
 20
131.166922
 11
39.712637
 21
132.881208
  0
LINE
  8
0
  6
CONTINUOUS
 62
1
 10
39.712637
 20
132.881208
 11
39.069780
 21
132.881208
  0
LINE
  8
0
  6
CONTINUOUS
 62
1
 10
39.069780
 20
132.881208
 11
39.498352
 21
129.881208
  0
LINE
  8
0
  6
CONTINUOUS
 62
1
 10
43.278565
 20
180.685402
 11
37.468438
 21
180.685402
  0
LINE
  8
0
  6
CONTINUOUS
 62
1
 10
37.468438
 20
129.881208
 11
43.278565
 21
129.881208
  0
LINE
  8
0
  6
CONTINUOUS
 62
1
 10
77.645628
 20
66.195739
 11
65.179222
 21
66.195739
  0
LINE
  8
0
  6
CONTINUOUS
 62
1
 10
65.179222
 20
66.195739
 11
68.179222
 21
65.767167
  0
LINE
  8
0
  6
CONTINUOUS
 62
1
 10
68.179222
 20
65.767167
 11
68.179222
 21
66.410025
  0
LINE
  8
0
  6
CONTINUOUS
 62
1
 10
68.179222
 20
66.410025
 11
66.464937
 21
66.195739
  0
LINE
  8
0
  6
CONTINUOUS
 62
1
 10
66.464937
 20
66.195739
 11
68.179222
 21
65.981453
  0
LINE
  8
0
  6
CONTINUOUS
 62
1
 10
68.179222
 20
65.981453
 11
68.179222
 21
66.624310
  0
LINE
  8
0
  6
CONTINUOUS
 62
1
 10
68.179222
 20
66.624310
 11
65.179222
 21
66.195739
  0
LINE
  8
0
  6
CONTINUOUS
 62
1
 10
62.004222
 20
66.195739
 11
57.004222
 21
66.195739
  0
LINE
  8
0
  6
CONTINUOUS
 62
1
 10
62.004222
 20
66.195739
 11
59.004222
 21
66.624310
  0
LINE
  8
0
  6
CONTINUOUS
 62
1
 10
59.004222
 20
66.624310
 11
59.004222
 21
65.981453
  0
LINE
  8
0
  6
CONTINUOUS
 62
1
 10
59.004222
 20
65.981453
 11
60.718508
 21
66.195739
  0
LINE
  8
0
  6
CONTINUOUS
 62
1
 10
60.718508
 20
66.195739
 11
59.004222
 21
66.410025
  0
LINE
  8
0
  6
CONTINUOUS
 62
1
 10
59.004222
 20
66.410025
 11
59.004222
 21
65.767167
  0
LINE
  8
0
  6
CONTINUOUS
 62
1
 10
59.004222
 20
65.767167
 11
62.004222
 21
66.195739
  0
TEXT
  8
0
  6
CONTINUOUS
 62
1
 10
38.498352
 20
150.301162
 40
2.000000
  1
50.8mm
 50
90.000000
 41
1.000000
 51
0.000000
  7
STANDARD
  0
TEXT
  8
0
  6
CONTINUOUS
 62
1
 10
42.498352
 20
152.729734
 40
2.000000
  1
(2 )
 50
90.000000
 41
1.000000
 51
0.000000
  7
STANDARD
  0
TEXT
  8
0
  6
CONTINUOUS
 62
1
 10
38.213541
 20
92.621476
 40
2.000000
  1
29.4mm
 50
90.000000
 41
1.000000
 51
0.000000
  7
STANDARD
  0
TEXT
  8
0
  6
CONTINUOUS
 62
1
 10
42.213541
 20
90.383380
 40
2.000000
  1
(1 5/32 )
 50
90.000000
 41
1.000000
 51
0.000000
  7
STANDARD
  0
TEXT
  8
0
  6
CONTINUOUS
 62
1
 10
38.213541
 20
45.920475
 40
2.000000
  1
34.9mm
 50
90.000000
 41
1.000000
 51
0.000000
  7
STANDARD
  0
TEXT
  8
0
  6
CONTINUOUS
 62
1
 10
42.213541
 20
44.539522
 40
2.000000
  1
(1 3/8 )
 50
90.000000
 41
1.000000
 51
0.000000
  7
STANDARD
  0
TEXT
  8
0
  6
CONTINUOUS
 62
1
 10
50.075565
 20
151.901545
 40
2.000000
  1
K12
 50
90.000000
 41
1.000000
 51
0.000000
  7
STANDARD
  0
TEXT
  8
0
  6
CONTINUOUS
 62
1
 10
54.075565
 20
151.901545
 40
2.000000
  1
TRANSOME
 50
90.000000
 41
1.000000
 51
0.000000
  7
STANDARD
  0
TEXT
  8
0
  6
CONTINUOUS
 62
1
 10
50.075565
 20
87.403632
 40
2.000000
  1
K11
 50
90.000000
 41
1.000000
 51
0.000000
  7
STANDARD
  0
TEXT
  8
0
  6
CONTINUOUS
 62
1
 10
54.075565
 20
87.403632
 40
2.000000
  1
COUPLING
 50
90.000000
 41
1.000000
 51
0.000000
  7
STANDARD
  0
TEXT
  8
0
  6
CONTINUOUS
 62
1
 10
55.678425
 20
30.206613
 40
2.000000
  1
K11X
 50
90.000000
 41
1.000000
 51
0.000000
  7
STANDARD
  0
TEXT
  8
0
  6
CONTINUOUS
 62
1
 10
59.678425
 20
30.206613
 40
2.000000
  1
MULLION
 50
90.000000
 41
1.000000
 51
0.000000
  7
STANDARD
  0
LINE
  8
0
  6
CONTINUOUS
 62
1
 10
40.886254
 20
156.252113
 11
40.340363
 21
156.252113
  0
LINE
  8
0
  6
CONTINUOUS
 62
1
 10
40.340363
 20
156.752113
 11
40.886254
 21
156.752113
  0
LINE
  8
0
  6
CONTINUOUS
 62
1
 10
40.582618
 20
102.837616
 11
40.036728
 21
102.837616
  0
LINE
  8
0
  6
CONTINUOUS
 62
1
 10
40.036728
 20
103.337616
 11
40.582618
 21
103.337616
  0
LINE
  8
0
  6
CONTINUOUS
 62
1
 10
40.617035
 20
55.466004
 11
40.071144
 21
55.466004
  0
LINE
  8
0
  6
CONTINUOUS
 62
1
 10
40.071144
 20
55.966004
 11
40.617035
 21
55.966004
  0
LINE
  8
0
  6
CONTINUOUS
 62
1
 10
284.747785
 20
187.705955
 11
286.997785
 21
186.862205
  0
LINE
  8
0
  6
CONTINUOUS
 62
1
 10
286.997785
 20
186.862205
 11
286.997785
 21
185.830955
  0
LINE
  8
0
  6
CONTINUOUS
 62
1
 10
286.997785
 20
185.830955
 11
282.872785
 21
187.518455
  0
LINE
  8
0
  6
CONTINUOUS
 62
1
 10
282.872785
 20
187.518455
 11
279.497785
 21
188.830955
  0
LINE
  8
0
  6
CONTINUOUS
 62
1
 10
279.497785
 20
188.830955
 11
279.497785
 21
189.862205
  0
LINE
  8
0
  6
CONTINUOUS
 62
1
 10
279.497785
 20
189.862205
 11
283.341535
 21
191.362205
  0
LINE
  8
0
  6
CONTINUOUS
 62
1
 10
283.341535
 20
191.362205
 11
286.997785
 21
192.862205
  0
LINE
  8
0
  6
CONTINUOUS
 62
1
 10
286.997785
 20
192.862205
 11
286.997785
 21
191.830955
  0
LINE
  8
0
  6
CONTINUOUS
 62
1
 10
286.997785
 20
191.830955
 11
284.747785
 21
190.987205
  0
LINE
  8
0
  6
CONTINUOUS
 62
1
 10
284.747785
 20
190.987205
 11
284.747785
 21
187.705955
  0
LINE
  8
0
  6
CONTINUOUS
 62
1
 10
283.810285
 20
190.612205
 11
280.341535
 21
189.299705
  0
LINE
  8
0
  6
CONTINUOUS
 62
1
 10
280.341535
 20
189.299705
 11
283.810285
 21
188.080955
  0
LINE
  8
0
  6
CONTINUOUS
 62
1
 10
283.810285
 20
188.080955
 11
283.810285
 21
190.612205
  0
LINE
  8
0
  6
CONTINUOUS
 62
1
 10
282.216535
 20
194.268455
 11
281.372785
 21
194.268455
  0
ARC
  8
0
  6
CONTINUOUS
 62
1
 10
276.953843
 20
192.134758
 40
4.907108
 50
25.773689
 51
58.773690
  0
LINE
  8
0
  6
CONTINUOUS
 62
1
 10
279.497785
 20
196.330955
 11
279.497785
 21
196.987205
  0
LINE
  8
0
  6
CONTINUOUS
 62
1
 10
279.497785
 20
196.987205
 11
283.247785
 21
196.987205
  0
LINE
  8
0
  6
CONTINUOUS
 62
1
 10
283.247785
 20
196.987205
 11
286.997785
 21
196.987205
  0
LINE
  8
0
  6
CONTINUOUS
 62
1
 10
286.997785
 20
196.987205
 11
286.997785
 21
195.955955
  0
LINE
  8
0
  6
CONTINUOUS
 62
1
 10
286.997785
 20
195.955955
 11
281.185285
 21
195.955955
  0
ARC
  8
0
  6
CONTINUOUS
 62
1
 10
278.316813
 20
193.044146
 40
4.087390
 50
17.429565
 51
45.429566
  0
TEXT
  8
0
  6
CONTINUOUS
 62
1
 10
62.591722
 20
185.798497
 40
2.000000
  1
34.9mm
 50
90.000000
 41
1.000000
 51
0.000000
  7
STANDARD
  0
TEXT
  8
0
  6
CONTINUOUS
 62
1
 10
66.591722
 20
184.417545
 40
2.000000
  1
(1 3/8 )
 50
90.000000
 41
1.000000
 51
0.000000
  7
STANDARD
  0
LINE
  8
0
  6
CONTINUOUS
 62
1
 10
64.993932
 20
195.441430
 11
64.448041
 21
195.441430
  0
LINE
  8
0
  6
CONTINUOUS
 62
1
 10
64.448041
 20
195.941430
 11
64.993932
 21
195.941430
  0
LINE
  8
0
  6
CONTINUOUS
 62
1
 10
59.117941
 20
190.685402
 11
46.129222
 21
190.685402
  0
LINE
  8
0
  6
CONTINUOUS
 62
1
 10
46.129222
 20
190.685402
 11
49.129222
 21
190.256831
  0
LINE
  8
0
  6
CONTINUOUS
 62
1
 10
49.129222
 20
190.256831
 11
49.129222
 21
190.899688
  0
LINE
  8
0
  6
CONTINUOUS
 62
1
 10
49.129222
 20
190.899688
 11
47.414937
 21
190.685402
  0
LINE
  8
0
  6
CONTINUOUS
 62
1
 10
47.414937
 20
190.685402
 11
49.129222
 21
190.471116
  0
LINE
  8
0
  6
CONTINUOUS
 62
1
 10
49.129222
 20
190.471116
 11
49.129222
 21
191.113974
  0
LINE
  8
0
  6
CONTINUOUS
 62
1
 10
49.129222
 20
191.113974
 11
46.129222
 21
190.685402
  0
TEXT
  8
0
  6
CONTINUOUS
 62
1
 10
62.591722
 20
117.736047
 40
2.000000
  1
34.9mm
 50
90.000000
 41
1.000000
 51
0.000000
  7
STANDARD
  0
TEXT
  8
0
  6
CONTINUOUS
 62
1
 10
66.591722
 20
116.355095
 40
2.000000
  1
(1 3/8 )
 50
90.000000
 41
1.000000
 51
0.000000
  7
STANDARD
  0
LINE
  8
0
  6
CONTINUOUS
 62
1
 10
64.969532
 20
127.326523
 11
64.423641
 21
127.326523
  0
LINE
  8
0
  6
CONTINUOUS
 62
1
 10
64.423641
 20
127.826523
 11
64.969532
 21
127.826523
  0
LINE
  8
0
  6
CONTINUOUS
 62
1
 10
59.376733
 20
122.622952
 11
46.129222
 21
122.622952
  0
LINE
  8
0
  6
CONTINUOUS
 62
1
 10
46.129222
 20
122.622952
 11
49.129222
 21
122.194381
  0
LINE
  8
0
  6
CONTINUOUS
 62
1
 10
49.129222
 20
122.194381
 11
49.129222
 21
122.837238
  0
LINE
  8
0
  6
CONTINUOUS
 62
1
 10
49.129222
 20
122.837238
 11
47.414937
 21
122.622952
  0
LINE
  8
0
  6
CONTINUOUS
 62
1
 10
47.414937
 20
122.622952
 11
49.129222
 21
122.408666
  0
LINE
  8
0
  6
CONTINUOUS
 62
1
 10
49.129222
 20
122.408666
 11
49.129222
 21
123.051524
  0
LINE
  8
0
  6
CONTINUOUS
 62
1
 10
49.129222
 20
123.051524
 11
46.129222
 21
122.622952
  0
TEXT
  8
0
  6
CONTINUOUS
 62
1
 10
77.442471
 20
21.299948
 40
2.000000
  1
60.3mm
 50
90.000000
 41
1.000000
 51
0.000000
  7
STANDARD
  0
TEXT
  8
0
  6
CONTINUOUS
 62
1
 10
81.442471
 20
19.585662
 40
2.000000
  1
(2 3/8 )
 50
90.000000
 41
1.000000
 51
0.000000
  7
STANDARD
  0
LINE
  8
0
  6
CONTINUOUS
 62
1
 10
79.885706
 20
31.260982
 11
79.339816
 21
31.260982
  0
LINE
  8
0
  6
CONTINUOUS
 62
1
 10
79.339816
 20
31.760982
 11
79.885706
 21
31.760982
  0
LINE
  8
0
  6
CONTINUOUS
 62
1
 10
83.401585
 20
26.186853
 11
106.454222
 21
26.186853
  0
LINE
  8
0
  6
CONTINUOUS
 62
1
 10
106.454222
 20
26.186853
 11
103.454222
 21
26.615424
  0
LINE
  8
0
  6
CONTINUOUS
 62
1
 10
103.454222
 20
26.615424
 11
103.454222
 21
25.972567
  0
LINE
  8
0
  6
CONTINUOUS
 62
1
 10
103.454222
 20
25.972567
 11
105.168508
 21
26.186853
  0
LINE
  8
0
  6
CONTINUOUS
 62
1
 10
105.168508
 20
26.186853
 11
103.454222
 21
26.401139
  0
LINE
  8
0
  6
CONTINUOUS
 62
1
 10
103.454222
 20
26.401139
 11
103.454222
 21
25.758282
  0
LINE
  8
0
  6
CONTINUOUS
 62
1
 10
103.454222
 20
25.758282
 11
106.454222
 21
26.186853
  0
TEXT
  8
0
  6
CONTINUOUS
 62
1
 10
53.066722
 20
71.762691
 40
2.000000
  1
15.9mm
 50
90.000000
 41
1.000000
 51
0.000000
  7
STANDARD
  0
TEXT
  8
0
  6
CONTINUOUS
 62
1
 10
57.066722
 20
71.476977
 40
2.000000
  1
(5/8 )
 50
90.000000
 41
1.000000
 51
0.000000
  7
STANDARD
  0
LINE
  8
0
  6
CONTINUOUS
 62
1
 10
55.485329
 20
79.350175
 11
54.939439
 21
79.350175
  0
LINE
  8
0
  6
CONTINUOUS
 62
1
 10
54.939439
 20
79.850175
 11
55.485329
 21
79.850175
  0
LINE
  8
0
  6
CONTINUOUS
 62
1
 10
57.912590
 20
76.173406
 11
62.004222
 21
76.173406
  0
LINE
  8
0
  6
CONTINUOUS
 62
1
 10
62.004222
 20
76.173406
 11
59.004222
 21
76.601977
  0
LINE
  8
0
  6
CONTINUOUS
 62
1
 10
59.004222
 20
76.601977
 11
59.004222
 21
75.959120
  0
LINE
  8
0
  6
CONTINUOUS
 62
1
 10
59.004222
 20
75.959120
 11
60.718508
 21
76.173406
  0
LINE
  8
0
  6
CONTINUOUS
 62
1
 10
60.718508
 20
76.173406
 11
59.004222
 21
76.387691
  0
LINE
  8
0
  6
CONTINUOUS
 62
1
 10
59.004222
 20
76.387691
 11
59.004222
 21
75.744834
  0
LINE
  8
0
  6
CONTINUOUS
 62
1
 10
59.004222
 20
75.744834
 11
62.004222
 21
76.173406
  0
TEXT
  8
0
  6
CONTINUOUS
 62
1
 10
72.111229
 20
71.762691
 40
2.000000
  1
15.9mm
 50
90.000000
 41
1.000000
 51
0.000000
  7
STANDARD
  0
TEXT
  8
0
  6
CONTINUOUS
 62
1
 10
76.111229
 20
71.476977
 40
2.000000
  1
(5/8 )
 50
90.000000
 41
1.000000
 51
0.000000
  7
STANDARD
  0
LINE
  8
0
  6
CONTINUOUS
 62
1
 10
74.523310
 20
79.353963
 11
73.977419
 21
79.353963
  0
LINE
  8
0
  6
CONTINUOUS
 62
1
 10
73.977419
 20
79.853963
 11
74.523310
 21
79.853963
  0
LINE
  8
0
  6
CONTINUOUS
 62
1
 10
76.890069
 20
76.173406
 11
81.054222
 21
76.173406
  0
LINE
  8
0
  6
CONTINUOUS
 62
1
 10
81.054222
 20
76.173406
 11
78.054222
 21
76.601977
  0
LINE
  8
0
  6
CONTINUOUS
 62
1
 10
78.054222
 20
76.601977
 11
78.054222
 21
75.959120
  0
LINE
  8
0
  6
CONTINUOUS
 62
1
 10
78.054222
 20
75.959120
 11
79.768508
 21
76.173406
  0
LINE
  8
0
  6
CONTINUOUS
 62
1
 10
79.768508
 20
76.173406
 11
78.054222
 21
76.387691
  0
LINE
  8
0
  6
CONTINUOUS
 62
1
 10
78.054222
 20
76.387691
 11
78.054222
 21
75.744834
  0
LINE
  8
0
  6
CONTINUOUS
 62
1
 10
78.054222
 20
75.744834
 11
81.054222
 21
76.173406
  0
TEXT
  8
0
  6
CONTINUOUS
 62
1
 10
80.175995
 20
62.100132
 40
2.000000
  1
3.2mm
 50
90.000000
 41
1.000000
 51
0.000000
  7
STANDARD
  0
TEXT
  8
0
  6
CONTINUOUS
 62
1
 10
84.175995
 20
61.766799
 40
2.000000
  1
(1/8 )
 50
90.000000
 41
1.000000
 51
0.000000
  7
STANDARD
  0
LINE
  8
0
  6
CONTINUOUS
 62
1
 10
82.586949
 20
68.664956
 11
82.041059
 21
68.664956
  0
LINE
  8
0
  6
CONTINUOUS
 62
1
 10
82.041059
 20
69.164956
 11
82.586949
 21
69.164956
  0
LINE
  8
0
  6
CONTINUOUS
 62
1
 10
108.720225
 20
156.687857
 11
110.782725
 21
156.687857
  0
LINE
  8
0
  6
CONTINUOUS
 62
1
 10
122.688975
 20
180.500357
 11
96.813975
 21
180.500357
  0
LINE
  8
0
  6
CONTINUOUS
 62
1
 10
108.251475
 20
177.031607
 11
108.251475
 21
157.156607
  0
LINE
  8
0
  6
CONTINUOUS
 62
1
 10
111.251475
 20
177.031607
 11
111.251475
 21
157.156607
  0
LINE
  8
0
  6
CONTINUOUS
 62
1
 10
96.345225
 20
178.438284
 11
96.345225
 21
180.031607
  0
LINE
  8
0
  6
CONTINUOUS
 62
1
 10
123.157725
 20
178.438284
 11
123.157725
 21
180.031607
  0
ARC
  8
0
  6
CONTINUOUS
 62
1
 10
96.813975
 20
180.031607
 40
0.468750
 50
90.000000
 51
180.000000
  0
ARC
  8
0
  6
CONTINUOUS
 62
1
 10
122.688975
 20
180.031607
 40
0.468750
 50
0.000000
 51
90.000000
  0
ARC
  8
0
  6
CONTINUOUS
 62
1
 10
111.720225
 20
177.031607
 40
0.468750
 50
90.000000
 51
180.000000
  0
ARC
  8
0
  6
CONTINUOUS
 62
1
 10
110.782725
 20
157.156607
 40
0.468750
 50
270.000000
 51
0.000000
  0
ARC
  8
0
  6
CONTINUOUS
 62
1
 10
108.720225
 20
157.156607
 40
0.468750
 50
180.000000
 51
270.000000
  0
ARC
  8
0
  6
CONTINUOUS
 62
1
 10
107.782725
 20
177.031607
 40
0.468750
 50
0.000000
 51
90.000000
  0
LINE
  8
0
  6
CONTINUOUS
 62
1
 10
122.708989
 20
177.969962
 11
111.720225
 21
177.500357
  0
LINE
  8
0
  6
CONTINUOUS
 62
1
 10
107.782725
 20
177.500357
 11
96.793961
 21
177.969962
  0
ARC
  8
0
  6
CONTINUOUS
 62
1
 10
96.813975
 20
178.438284
 40
0.468750
 50
180.000000
 51
267.552951
  0
ARC
  8
0
  6
CONTINUOUS
 62
1
 10
122.688975
 20
178.438284
 40
0.468750
 50
272.447049
 51
0.000000
  0
LINE
  8
0
  6
CONTINUOUS
 62
1
 10
96.345225
 20
153.390428
 11
96.345225
 21
147.133888
  0
LINE
  8
0
  6
CONTINUOUS
 62
1
 10
108.251475
 20
153.390428
 11
108.251475
 21
139.407166
  0
LINE
  8
0
  6
CONTINUOUS
 62
1
 10
111.251475
 20
153.390428
 11
111.251475
 21
139.407166
  0
LINE
  8
0
  6
CONTINUOUS
 62
1
 10
123.157725
 20
153.390428
 11
123.157725
 21
147.133888
  0
LINE
  8
0
  6
CONTINUOUS
 62
1
 10
123.157725
 20
183.036159
 11
123.157725
 21
192.405259
  0
LINE
  8
0
  6
CONTINUOUS
 62
1
 10
123.157725
 20
189.921052
 11
114.007215
 21
189.921052
  0
LINE
  8
0
  6
CONTINUOUS
 62
1
 10
123.157725
 20
189.921052
 11
120.157725
 21
190.349623
  0
LINE
  8
0
  6
CONTINUOUS
 62
1
 10
120.157725
 20
190.349623
 11
120.157725
 21
189.706766
  0
LINE
  8
0
  6
CONTINUOUS
 62
1
 10
120.157725
 20
189.706766
 11
121.872011
 21
189.921052
  0
LINE
  8
0
  6
CONTINUOUS
 62
1
 10
121.872011
 20
189.921052
 11
120.157725
 21
190.135337
  0
LINE
  8
0
  6
CONTINUOUS
 62
1
 10
120.157725
 20
190.135337
 11
120.157725
 21
189.492480
  0
LINE
  8
0
  6
CONTINUOUS
 62
1
 10
120.157725
 20
189.492480
 11
123.157725
 21
189.921052
  0
LINE
  8
0
  6
CONTINUOUS
 62
1
 10
96.345225
 20
183.036159
 11
96.345225
 21
192.405259
  0
LINE
  8
0
  6
CONTINUOUS
 62
1
 10
91.916339
 20
180.500357
 11
85.821400
 21
180.500357
  0
LINE
  8
0
  6
CONTINUOUS
 62
1
 10
87.851314
 20
180.500357
 11
87.851314
 21
156.687857
  0
LINE
  8
0
  6
CONTINUOUS
 62
1
 10
87.851314
 20
180.500357
 11
87.351314
 21
177.000357
  0
LINE
  8
0
  6
CONTINUOUS
 62
1
 10
87.351314
 20
177.000357
 11
88.101314
 21
177.000357
  0
LINE
  8
0
  6
CONTINUOUS
 62
1
 10
88.101314
 20
177.000357
 11
87.851314
 21
179.000357
  0
LINE
  8
0
  6
CONTINUOUS
 62
1
 10
87.851314
 20
179.000357
 11
87.601314
 21
177.000357
  0
LINE
  8
0
  6
CONTINUOUS
 62
1
 10
87.601314
 20
177.000357
 11
88.351314
 21
177.000357
  0
LINE
  8
0
  6
CONTINUOUS
 62
1
 10
88.351314
 20
177.000357
 11
87.851314
 21
180.500357
  0
LINE
  8
0
  6
CONTINUOUS
 62
1
 10
87.851314
 20
156.687857
 11
88.351314
 21
160.187857
  0
LINE
  8
0
  6
CONTINUOUS
 62
1
 10
88.351314
 20
160.187857
 11
87.601314
 21
160.187857
  0
LINE
  8
0
  6
CONTINUOUS
 62
1
 10
87.601314
 20
160.187857
 11
87.851314
 21
158.187857
  0
LINE
  8
0
  6
CONTINUOUS
 62
1
 10
87.851314
 20
158.187857
 11
88.101314
 21
160.187857
  0
LINE
  8
0
  6
CONTINUOUS
 62
1
 10
88.101314
 20
160.187857
 11
87.351314
 21
160.187857
  0
LINE
  8
0
  6
CONTINUOUS
 62
1
 10
87.351314
 20
160.187857
 11
87.851314
 21
156.687857
  0
LINE
  8
0
  6
CONTINUOUS
 62
1
 10
91.631528
 20
180.500357
 11
85.821400
 21
180.500357
  0
LINE
  8
0
  6
CONTINUOUS
 62
1
 10
85.821400
 20
156.687857
 11
91.631528
 21
156.687857
  0
LINE
  8
0
  6
CONTINUOUS
 62
1
 10
96.345225
 20
149.618095
 11
89.463433
 21
149.618095
  0
LINE
  8
0
  6
CONTINUOUS
 62
1
 10
96.345225
 20
149.618095
 11
93.345225
 21
150.046666
  0
LINE
  8
0
  6
CONTINUOUS
 62
1
 10
93.345225
 20
150.046666
 11
93.345225
 21
149.403809
  0
LINE
  8
0
  6
CONTINUOUS
 62
1
 10
93.345225
 20
149.403809
 11
95.059511
 21
149.618095
  0
LINE
  8
0
  6
CONTINUOUS
 62
1
 10
95.059511
 20
149.618095
 11
93.345225
 21
149.832381
  0
LINE
  8
0
  6
CONTINUOUS
 62
1
 10
93.345225
 20
149.832381
 11
93.345225
 21
149.189524
  0
LINE
  8
0
  6
CONTINUOUS
 62
1
 10
93.345225
 20
149.189524
 11
96.345225
 21
149.618095
  0
LINE
  8
0
  6
CONTINUOUS
 62
1
 10
129.680744
 20
149.618095
 11
123.157725
 21
149.618095
  0
LINE
  8
0
  6
CONTINUOUS
 62
1
 10
123.157725
 20
149.618095
 11
126.157725
 21
149.189524
  0
LINE
  8
0
  6
CONTINUOUS
 62
1
 10
126.157725
 20
149.189524
 11
126.157725
 21
149.832381
  0
LINE
  8
0
  6
CONTINUOUS
 62
1
 10
126.157725
 20
149.832381
 11
124.443439
 21
149.618095
  0
LINE
  8
0
  6
CONTINUOUS
 62
1
 10
124.443439
 20
149.618095
 11
126.157725
 21
149.403809
  0
LINE
  8
0
  6
CONTINUOUS
 62
1
 10
126.157725
 20
149.403809
 11
126.157725
 21
150.046666
  0
LINE
  8
0
  6
CONTINUOUS
 62
1
 10
126.157725
 20
150.046666
 11
123.157725
 21
149.618095
  0
LINE
  8
0
  6
CONTINUOUS
 62
1
 10
108.251475
 20
141.907166
 11
101.760093
 21
141.907166
  0
LINE
  8
0
  6
CONTINUOUS
 62
1
 10
108.251475
 20
141.907166
 11
105.251475
 21
142.335737
  0
LINE
  8
0
  6
CONTINUOUS
 62
1
 10
105.251475
 20
142.335737
 11
105.251475
 21
141.692880
  0
LINE
  8
0
  6
CONTINUOUS
 62
1
 10
105.251475
 20
141.692880
 11
106.965761
 21
141.907166
  0
LINE
  8
0
  6
CONTINUOUS
 62
1
 10
106.965761
 20
141.907166
 11
105.251475
 21
142.121451
  0
LINE
  8
0
  6
CONTINUOUS
 62
1
 10
105.251475
 20
142.121451
 11
105.251475
 21
141.478594
  0
LINE
  8
0
  6
CONTINUOUS
 62
1
 10
105.251475
 20
141.478594
 11
108.251475
 21
141.907166
  0
LINE
  8
0
  6
CONTINUOUS
 62
1
 10
111.251475
 20
141.907166
 11
116.516085
 21
141.907166
  0
LINE
  8
0
  6
CONTINUOUS
 62
1
 10
111.251475
 20
141.907166
 11
114.251475
 21
141.478594
  0
LINE
  8
0
  6
CONTINUOUS
 62
1
 10
114.251475
 20
141.478594
 11
114.251475
 21
142.121451
  0
LINE
  8
0
  6
CONTINUOUS
 62
1
 10
114.251475
 20
142.121451
 11
112.537189
 21
141.907166
  0
LINE
  8
0
  6
CONTINUOUS
 62
1
 10
112.537189
 20
141.907166
 11
114.251475
 21
141.692880
  0
LINE
  8
0
  6
CONTINUOUS
 62
1
 10
114.251475
 20
141.692880
 11
114.251475
 21
142.335737
  0
LINE
  8
0
  6
CONTINUOUS
 62
1
 10
114.251475
 20
142.335737
 11
111.251475
 21
141.907166
  0
TEXT
  8
0
  6
CONTINUOUS
 62
1
 10
119.046451
 20
137.811559
 40
2.000000
  1
3.2mm
 50
90.000000
 41
1.000000
 51
0.000000
  7
STANDARD
  0
TEXT
  8
0
  6
CONTINUOUS
 62
1
 10
123.046451
 20
137.478226
 40
2.000000
  1
(1/8 )
 50
90.000000
 41
1.000000
 51
0.000000
  7
STANDARD
  0
LINE
  8
0
  6
CONTINUOUS
 62
1
 10
121.457406
 20
144.376383
 11
120.911515
 21
144.376383
  0
LINE
  8
0
  6
CONTINUOUS
 62
1
 10
120.911515
 20
144.876383
 11
121.457406
 21
144.876383
  0
TEXT
  8
0
  6
CONTINUOUS
 62
1
 10
133.168642
 20
145.242985
 40
2.000000
  1
12.7mm
 50
90.000000
 41
1.000000
 51
0.000000
  7
STANDARD
  0
TEXT
  8
0
  6
CONTINUOUS
 62
1
 10
137.168642
 20
145.528699
 40
2.000000
  1
(1/2 )
 50
90.000000
 41
1.000000
 51
0.000000
  7
STANDARD
  0
LINE
  8
0
  6
CONTINUOUS
 62
1
 10
135.631117
 20
151.635558
 11
135.085227
 21
151.635558
  0
LINE
  8
0
  6
CONTINUOUS
 62
1
 10
135.085227
 20
152.135558
 11
135.631117
 21
152.135558
  0
TEXT
  8
0
  6
CONTINUOUS
 62
1
 10
84.268345
 20
145.128462
 40
2.000000
  1
12.7mm
 50
90.000000
 41
1.000000
 51
0.000000
  7
STANDARD
  0
TEXT
  8
0
  6
CONTINUOUS
 62
1
 10
88.268345
 20
145.414176
 40
2.000000
  1
(1/2 )
 50
90.000000
 41
1.000000
 51
0.000000
  7
STANDARD
  0
LINE
  8
0
  6
CONTINUOUS
 62
1
 10
86.730820
 20
151.521034
 11
86.184929
 21
151.521034
  0
LINE
  8
0
  6
CONTINUOUS
 62
1
 10
86.184929
 20
152.021034
 11
86.730820
 21
152.021034
  0
TEXT
  8
0
  6
CONTINUOUS
 62
1
 10
86.851314
 20
163.707202
 40
2.000000
  1
25.4mm
 50
90.000000
 41
1.000000
 51
0.000000
  7
STANDARD
  0
TEXT
  8
0
  6
CONTINUOUS
 62
1
 10
90.851314
 20
166.373869
 40
2.000000
  1
(1 )
 50
90.000000
 41
1.000000
 51
0.000000
  7
STANDARD
  0
LINE
  8
0
  6
CONTINUOUS
 62
1
 10
89.285409
 20
169.189815
 11
88.739519
 21
169.189815
  0
LINE
  8
0
  6
CONTINUOUS
 62
1
 10
88.739519
 20
169.689815
 11
89.285409
 21
169.689815
  0
TEXT
  8
0
  6
CONTINUOUS
 62
1
 10
108.751475
 20
185.129385
 40
2.000000
  1
28.6mm
 50
90.000000
 41
1.000000
 51
0.000000
  7
STANDARD
  0
TEXT
  8
0
  6
CONTINUOUS
 62
1
 10
112.751475
 20
184.081766
 40
2.000000
  1
(1 1/8 )
 50
90.000000
 41
1.000000
 51
0.000000
  7
STANDARD
  0
LINE
  8
0
  6
CONTINUOUS
 62
1
 10
111.129284
 20
193.895158
 11
110.583394
 21
193.895158
  0
LINE
  8
0
  6
CONTINUOUS
 62
1
 10
110.583394
 20
194.395158
 11
111.129284
 21
194.395158
  0
LINE
  8
0
  6
CONTINUOUS
 62
1
 10
106.095845
 20
189.921052
 11
96.345225
 21
189.921052
  0
LINE
  8
0
  6
CONTINUOUS
 62
1
 10
96.345225
 20
189.921052
 11
99.345225
 21
189.492480
  0
LINE
  8
0
  6
CONTINUOUS
 62
1
 10
99.345225
 20
189.492480
 11
99.345225
 21
190.135337
  0
LINE
  8
0
  6
CONTINUOUS
 62
1
 10
99.345225
 20
190.135337
 11
97.630939
 21
189.921052
  0
LINE
  8
0
  6
CONTINUOUS
 62
1
 10
97.630939
 20
189.921052
 11
99.345225
 21
189.706766
  0
LINE
  8
0
  6
CONTINUOUS
 62
1
 10
99.345225
 20
189.706766
 11
99.345225
 21
190.349623
  0
LINE
  8
0
  6
CONTINUOUS
 62
1
 10
99.345225
 20
190.349623
 11
96.345225
 21
189.921052
  0
TEXT
  8
0
  6
CONTINUOUS
 62
1
 10
99.090535
 20
163.254508
 40
2.000000
  1
T1
 50
90.000000
 41
1.000000
 51
0.000000
  7
STANDARD
  0
TEXT
  8
0
  6
CONTINUOUS
 62
1
 10
103.090535
 20
163.254508
 40
2.000000
  1
G/BAR
 50
90.000000
 41
1.000000
 51
0.000000
  7
STANDARD
  0
LINE
  8
0
  6
CONTINUOUS
 62
1
 10
118.482725
 20
119.100330
 11
101.020225
 21
119.100330
  0
LINE
  8
0
  6
CONTINUOUS
 62
1
 10
100.616475
 20
115.925330
 11
106.576475
 21
115.925330
  0
LINE
  8
0
  6
CONTINUOUS
 62
1
 10
119.276475
 20
116.315330
 11
119.276475
 21
118.306580
  0
LINE
  8
0
  6
CONTINUOUS
 62
1
 10
100.226475
 20
116.315330
 11
100.226475
 21
118.306580
  0
LINE
  8
0
  6
CONTINUOUS
 62
1
 10
108.957725
 20
100.050330
 11
110.545225
 21
100.050330
  0
LINE
  8
0
  6
CONTINUOUS
 62
1
 10
111.338975
 20
100.844080
 11
111.338975
 21
114.337830
  0
LINE
  8
0
  6
CONTINUOUS
 62
1
 10
108.163975
 20
100.844080
 11
108.163975
 21
114.337830
  0
ARC
  8
0
  6
CONTINUOUS
 62
1
 10
106.576475
 20
114.337830
 40
1.587500
 50
0.000000
 51
90.000000
  0
LINE
  8
0
  6
CONTINUOUS
 62
1
 10
118.886475
 20
115.925330
 11
112.926475
 21
115.925330
  0
ARC
  8
0
  6
CONTINUOUS
 62
1
 10
112.926475
 20
114.337830
 40
1.587500
 50
90.000000
 51
180.000000
  0
ARC
  8
0
  6
CONTINUOUS
 62
1
 10
118.482725
 20
118.306580
 40
0.793750
 50
0.000000
 51
90.000000
  0
ARC
  8
0
  6
CONTINUOUS
 62
1
 10
101.020225
 20
118.306580
 40
0.793750
 50
90.000000
 51
180.000000
  0
ARC
  8
0
  6
CONTINUOUS
 62
1
 10
110.545225
 20
100.844080
 40
0.793750
 50
270.000000
 51
0.000000
  0
ARC
  8
0
  6
CONTINUOUS
 62
1
 10
108.957725
 20
100.844080
 40
0.793750
 50
180.000000
 51
270.000000
  0
ARC
  8
0
  6
CONTINUOUS
 62
1
 10
118.886475
 20
116.315330
 40
0.390000
 50
270.000000
 51
0.000000
  0
ARC
  8
0
  6
CONTINUOUS
 62
1
 10
100.616475
 20
116.315330
 40
0.390000
 50
180.000000
 51
270.000000
  0
LINE
  8
0
  6
CONTINUOUS
 62
1
 10
100.226475
 20
97.700203
 11
100.226475
 21
89.594579
  0
LINE
  8
0
  6
CONTINUOUS
 62
1
 10
90.146002
 20
90.735050
 11
100.226475
 21
90.735050
  0
LINE
  8
0
  6
CONTINUOUS
 62
1
 10
100.226475
 20
90.735050
 11
97.226475
 21
91.163621
  0
LINE
  8
0
  6
CONTINUOUS
 62
1
 10
97.226475
 20
91.163621
 11
97.226475
 21
90.520764
  0
LINE
  8
0
  6
CONTINUOUS
 62
1
 10
97.226475
 20
90.520764
 11
98.940761
 21
90.735050
  0
LINE
  8
0
  6
CONTINUOUS
 62
1
 10
98.940761
 20
90.735050
 11
97.226475
 21
90.949335
  0
LINE
  8
0
  6
CONTINUOUS
 62
1
 10
97.226475
 20
90.949335
 11
97.226475
 21
90.306478
  0
LINE
  8
0
  6
CONTINUOUS
 62
1
 10
97.226475
 20
90.306478
 11
100.226475
 21
90.735050
  0
LINE
  8
0
  6
CONTINUOUS
 62
1
 10
108.163975
 20
97.700203
 11
108.163975
 21
82.885967
  0
LINE
  8
0
  6
CONTINUOUS
 62
1
 10
111.338975
 20
97.700203
 11
111.338975
 21
82.885967
  0
LINE
  8
0
  6
CONTINUOUS
 62
1
 10
119.276475
 20
90.735050
 11
128.866222
 21
90.735050
  0
LINE
  8
0
  6
CONTINUOUS
 62
1
 10
119.276475
 20
90.735050
 11
122.276475
 21
90.306478
  0
LINE
  8
0
  6
CONTINUOUS
 62
1
 10
122.276475
 20
90.306478
 11
122.276475
 21
90.949335
  0
LINE
  8
0
  6
CONTINUOUS
 62
1
 10
122.276475
 20
90.949335
 11
120.562189
 21
90.735050
  0
LINE
  8
0
  6
CONTINUOUS
 62
1
 10
120.562189
 20
90.735050
 11
122.276475
 21
90.520764
  0
LINE
  8
0
  6
CONTINUOUS
 62
1
 10
122.276475
 20
90.520764
 11
122.276475
 21
91.163621
  0
LINE
  8
0
  6
CONTINUOUS
 62
1
 10
122.276475
 20
91.163621
 11
119.276475
 21
90.735050
  0
LINE
  8
0
  6
CONTINUOUS
 62
1
 10
119.276475
 20
97.700203
 11
119.276475
 21
89.594579
  0
LINE
  8
0
  6
CONTINUOUS
 62
1
 10
119.276475
 20
121.341807
 11
119.276475
 21
127.598348
  0
LINE
  8
0
  6
CONTINUOUS
 62
1
 10
119.276475
 20
125.114140
 11
113.787472
 21
125.114140
  0
LINE
  8
0
  6
CONTINUOUS
 62
1
 10
119.276475
 20
125.114140
 11
116.276475
 21
125.542712
  0
LINE
  8
0
  6
CONTINUOUS
 62
1
 10
116.276475
 20
125.542712
 11
116.276475
 21
124.899854
  0
LINE
  8
0
  6
CONTINUOUS
 62
1
 10
116.276475
 20
124.899854
 11
117.990761
 21
125.114140
  0
LINE
  8
0
  6
CONTINUOUS
 62
1
 10
117.990761
 20
125.114140
 11
116.276475
 21
125.328426
  0
LINE
  8
0
  6
CONTINUOUS
 62
1
 10
116.276475
 20
125.328426
 11
116.276475
 21
124.685569
  0
LINE
  8
0
  6
CONTINUOUS
 62
1
 10
116.276475
 20
124.685569
 11
119.276475
 21
125.114140
  0
LINE
  8
0
  6
CONTINUOUS
 62
1
 10
100.226475
 20
121.341807
 11
100.226475
 21
127.598348
  0
LINE
  8
0
  6
CONTINUOUS
 62
1
 10
97.774526
 20
119.100330
 11
91.679587
 21
119.100330
  0
LINE
  8
0
  6
CONTINUOUS
 62
1
 10
93.709501
 20
119.100330
 11
93.709501
 21
100.050330
  0
LINE
  8
0
  6
CONTINUOUS
 62
1
 10
93.709501
 20
119.100330
 11
93.280930
 21
116.100330
  0
LINE
  8
0
  6
CONTINUOUS
 62
1
 10
93.280930
 20
116.100330
 11
93.923787
 21
116.100330
  0
LINE
  8
0
  6
CONTINUOUS
 62
1
 10
93.923787
 20
116.100330
 11
93.709501
 21
117.814616
  0
LINE
  8
0
  6
CONTINUOUS
 62
1
 10
93.709501
 20
117.814616
 11
93.495215
 21
116.100330
  0
LINE
  8
0
  6
CONTINUOUS
 62
1
 10
93.495215
 20
116.100330
 11
94.138072
 21
116.100330
  0
LINE
  8
0
  6
CONTINUOUS
 62
1
 10
94.138072
 20
116.100330
 11
93.709501
 21
119.100330
  0
LINE
  8
0
  6
CONTINUOUS
 62
1
 10
93.709501
 20
100.050330
 11
94.138072
 21
103.050330
  0
LINE
  8
0
  6
CONTINUOUS
 62
1
 10
94.138072
 20
103.050330
 11
93.495215
 21
103.050330
  0
LINE
  8
0
  6
CONTINUOUS
 62
1
 10
93.495215
 20
103.050330
 11
93.709501
 21
101.336044
  0
LINE
  8
0
  6
CONTINUOUS
 62
1
 10
93.709501
 20
101.336044
 11
93.923787
 21
103.050330
  0
LINE
  8
0
  6
CONTINUOUS
 62
1
 10
93.923787
 20
103.050330
 11
93.280930
 21
103.050330
  0
LINE
  8
0
  6
CONTINUOUS
 62
1
 10
93.280930
 20
103.050330
 11
93.709501
 21
100.050330
  0
LINE
  8
0
  6
CONTINUOUS
 62
1
 10
97.489715
 20
119.100330
 11
91.679587
 21
119.100330
  0
LINE
  8
0
  6
CONTINUOUS
 62
1
 10
91.679587
 20
100.050330
 11
97.489715
 21
100.050330
  0
LINE
  8
0
  6
CONTINUOUS
 62
1
 10
111.338975
 20
83.885967
 11
121.546815
 21
83.885967
  0
LINE
  8
0
  6
CONTINUOUS
 62
1
 10
111.338975
 20
83.885967
 11
114.338975
 21
83.457395
  0
LINE
  8
0
  6
CONTINUOUS
 62
1
 10
114.338975
 20
83.457395
 11
114.338975
 21
84.100252
  0
LINE
  8
0
  6
CONTINUOUS
 62
1
 10
114.338975
 20
84.100252
 11
112.624689
 21
83.885967
  0
LINE
  8
0
  6
CONTINUOUS
 62
1
 10
112.624689
 20
83.885967
 11
114.338975
 21
83.671681
  0
LINE
  8
0
  6
CONTINUOUS
 62
1
 10
114.338975
 20
83.671681
 11
114.338975
 21
84.314538
  0
LINE
  8
0
  6
CONTINUOUS
 62
1
 10
114.338975
 20
84.314538
 11
111.338975
 21
83.885967
  0
LINE
  8
0
  6
CONTINUOUS
 62
1
 10
108.163975
 20
83.885967
 11
103.475414
 21
83.885967
  0
LINE
  8
0
  6
CONTINUOUS
 62
1
 10
108.163975
 20
83.885967
 11
105.163975
 21
84.314538
  0
LINE
  8
0
  6
CONTINUOUS
 62
1
 10
105.163975
 20
84.314538
 11
105.163975
 21
83.671681
  0
LINE
  8
0
  6
CONTINUOUS
 62
1
 10
105.163975
 20
83.671681
 11
106.878261
 21
83.885967
  0
LINE
  8
0
  6
CONTINUOUS
 62
1
 10
106.878261
 20
83.885967
 11
105.163975
 21
84.100252
  0
LINE
  8
0
  6
CONTINUOUS
 62
1
 10
105.163975
 20
84.100252
 11
105.163975
 21
83.457395
  0
LINE
  8
0
  6
CONTINUOUS
 62
1
 10
105.163975
 20
83.457395
 11
108.163975
 21
83.885967
  0
TEXT
  8
0
  6
CONTINUOUS
 62
1
 10
124.077182
 20
79.790360
 40
2.000000
  1
3.2mm
 50
90.000000
 41
1.000000
 51
0.000000
  7
STANDARD
  0
TEXT
  8
0
  6
CONTINUOUS
 62
1
 10
128.077182
 20
79.457027
 40
2.000000
  1
(1/8 )
 50
90.000000
 41
1.000000
 51
0.000000
  7
STANDARD
  0
LINE
  8
0
  6
CONTINUOUS
 62
1
 10
126.488136
 20
86.355184
 11
125.942246
 21
86.355184
  0
LINE
  8
0
  6
CONTINUOUS
 62
1
 10
125.942246
 20
86.855184
 11
126.488136
 21
86.855184
  0
TEXT
  8
0
  6
CONTINUOUS
 62
1
 10
131.396588
 20
86.544205
 40
2.000000
  1
7.9mm
 50
90.000000
 41
1.000000
 51
0.000000
  7
STANDARD
  0
TEXT
  8
0
  6
CONTINUOUS
 62
1
 10
135.396588
 20
85.829919
 40
2.000000
  1
(5/8 )
 50
90.000000
 41
1.000000
 51
0.000000
  7
STANDARD
  0
LINE
  8
0
  6
CONTINUOUS
 62
1
 10
133.807543
 20
93.204267
 11
133.261652
 21
93.204267
  0
LINE
  8
0
  6
CONTINUOUS
 62
1
 10
133.261652
 20
93.704267
 11
133.807543
 21
93.704267
  0
TEXT
  8
0
  6
CONTINUOUS
 62
1
 10
85.003246
 20
86.339564
 40
2.000000
  1
7.9mm
 50
90.000000
 41
1.000000
 51
0.000000
  7
STANDARD
  0
TEXT
  8
0
  6
CONTINUOUS
 62
1
 10
89.003246
 20
85.625278
 40
2.000000
  1
(5/8 )
 50
90.000000
 41
1.000000
 51
0.000000
  7
STANDARD
  0
LINE
  8
0
  6
CONTINUOUS
 62
1
 10
87.414200
 20
92.999626
 11
86.868310
 21
92.999626
  0
LINE
  8
0
  6
CONTINUOUS
 62
1
 10
86.868310
 20
93.499626
 11
87.414200
 21
93.499626
  0
TEXT
  8
0
  6
CONTINUOUS
 62
1
 10
108.913101
 20
120.509999
 40
2.000000
  1
19.0mm
 50
90.000000
 41
1.000000
 51
0.000000
  7
STANDARD
  0
TEXT
  8
0
  6
CONTINUOUS
 62
1
 10
112.913101
 20
120.224285
 40
2.000000
  1
(3/4 )
 50
90.000000
 41
1.000000
 51
0.000000
  7
STANDARD
  0
LINE
  8
0
  6
CONTINUOUS
 62
1
 10
111.324056
 20
127.598633
 11
110.778165
 21
127.598633
  0
LINE
  8
0
  6
CONTINUOUS
 62
1
 10
110.778165
 20
128.098633
 11
111.324056
 21
128.098633
  0
LINE
  8
0
  6
CONTINUOUS
 62
1
 10
106.188674
 20
125.114140
 11
100.226475
 21
125.114140
  0
LINE
  8
0
  6
CONTINUOUS
 62
1
 10
100.226475
 20
125.114140
 11
103.226475
 21
124.685569
  0
LINE
  8
0
  6
CONTINUOUS
 62
1
 10
103.226475
 20
124.685569
 11
103.226475
 21
125.328426
  0
LINE
  8
0
  6
CONTINUOUS
 62
1
 10
103.226475
 20
125.328426
 11
101.512189
 21
125.114140
  0
LINE
  8
0
  6
CONTINUOUS
 62
1
 10
101.512189
 20
125.114140
 11
103.226475
 21
124.899854
  0
LINE
  8
0
  6
CONTINUOUS
 62
1
 10
103.226475
 20
124.899854
 11
103.226475
 21
125.542712
  0
LINE
  8
0
  6
CONTINUOUS
 62
1
 10
103.226475
 20
125.542712
 11
100.226475
 21
125.114140
  0
TEXT
  8
0
  6
CONTINUOUS
 62
1
 10
92.871127
 20
104.971189
 40
2.000000
  1
19.0mm
 50
90.000000
 41
1.000000
 51
0.000000
  7
STANDARD
  0
TEXT
  8
0
  6
CONTINUOUS
 62
1
 10
96.871127
 20
104.685475
 40
2.000000
  1
(3/4 )
 50
90.000000
 41
1.000000
 51
0.000000
  7
STANDARD
  0
LINE
  8
0
  6
CONTINUOUS
 62
1
 10
95.282082
 20
112.059823
 11
94.736191
 21
112.059823
  0
LINE
  8
0
  6
CONTINUOUS
 62
1
 10
94.736191
 20
112.559823
 11
95.282082
 21
112.559823
  0
TEXT
  8
0
  6
CONTINUOUS
 62
1
 10
115.875601
 20
103.365232
 40
2.000000
  1
T6
 50
90.000000
 41
1.000000
 51
0.000000
  7
STANDARD
  0
TEXT
  8
0
  6
CONTINUOUS
 62
1
 10
119.875601
 20
103.365232
 40
2.000000
  1
G/BAR
 50
90.000000
 41
1.000000
 51
0.000000
  7
STANDARD
  0
LINE
  8
0
  6
CONTINUOUS
 62
1
 10
144.499755
 20
180.500357
 11
192.124755
 21
180.500357
  0
LINE
  8
0
  6
CONTINUOUS
 62
1
 10
192.918505
 20
179.706607
 11
192.918505
 21
178.119107
  0
LINE
  8
0
  6
CONTINUOUS
 62
1
 10
169.106005
 20
156.687857
 11
167.518505
 21
156.687857
  0
LINE
  8
0
  6
CONTINUOUS
 62
1
 10
143.706005
 20
178.119107
 11
143.706005
 21
179.706607
  0
LINE
  8
0
  6
CONTINUOUS
 62
1
 10
166.724755
 20
157.481607
 11
166.724755
 21
174.944107
  0
LINE
  8
0
  6
CONTINUOUS
 62
1
 10
169.899755
 20
157.481607
 11
169.899755
 21
174.944107
  0
LINE
  8
0
  6
CONTINUOUS
 62
1
 10
192.124755
 20
177.325357
 11
172.281005
 21
177.325357
  0
LINE
  8
0
  6
CONTINUOUS
 62
1
 10
164.343505
 20
177.325357
 11
144.499755
 21
177.325357
  0
ARC
  8
0
  6
CONTINUOUS
 62
1
 10
172.281005
 20
174.944107
 40
2.381250
 50
90.000000
 51
180.000000
  0
ARC
  8
0
  6
CONTINUOUS
 62
1
 10
164.343505
 20
174.944107
 40
2.381250
 50
0.000000
 51
90.000000
  0
ARC
  8
0
  6
CONTINUOUS
 62
1
 10
144.499755
 20
178.119107
 40
0.793750
 50
180.000000
 51
270.000000
  0
ARC
  8
0
  6
CONTINUOUS
 62
1
 10
144.499755
 20
179.706607
 40
0.793750
 50
90.000000
 51
180.000000
  0
ARC
  8
0
  6
CONTINUOUS
 62
1
 10
192.124755
 20
179.706607
 40
0.793750
 50
0.000000
 51
90.000000
  0
ARC
  8
0
  6
CONTINUOUS
 62
1
 10
192.124755
 20
178.119107
 40
0.793750
 50
270.000000
 51
0.000000
  0
ARC
  8
0
  6
CONTINUOUS
 62
1
 10
167.518505
 20
157.481607
 40
0.793750
 50
180.000000
 51
270.000000
  0
ARC
  8
0
  6
CONTINUOUS
 62
1
 10
169.106005
 20
157.481607
 40
0.793750
 50
270.000000
 51
0.000000
  0
LINE
  8
0
  6
CONTINUOUS
 62
1
 10
143.706005
 20
153.676211
 11
143.706005
 21
147.419670
  0
LINE
  8
0
  6
CONTINUOUS
 62
1
 10
143.706005
 20
149.903878
 11
151.307077
 21
149.903878
  0
LINE
  8
0
  6
CONTINUOUS
 62
1
 10
143.706005
 20
149.903878
 11
146.706005
 21
149.475306
  0
LINE
  8
0
  6
CONTINUOUS
 62
1
 10
146.706005
 20
149.475306
 11
146.706005
 21
150.118163
  0
LINE
  8
0
  6
CONTINUOUS
 62
1
 10
146.706005
 20
150.118163
 11
144.991719
 21
149.903878
  0
LINE
  8
0
  6
CONTINUOUS
 62
1
 10
144.991719
 20
149.903878
 11
146.706005
 21
149.689592
  0
LINE
  8
0
  6
CONTINUOUS
 62
1
 10
146.706005
 20
149.689592
 11
146.706005
 21
150.332449
  0
LINE
  8
0
  6
CONTINUOUS
 62
1
 10
146.706005
 20
150.332449
 11
143.706005
 21
149.903878
  0
LINE
  8
0
  6
CONTINUOUS
 62
1
 10
166.724755
 20
153.676211
 11
166.724755
 21
136.702025
  0
LINE
  8
0
  6
CONTINUOUS
 62
1
 10
169.899755
 20
153.676211
 11
169.899755
 21
136.702025
  0
LINE
  8
0
  6
CONTINUOUS
 62
1
 10
169.899755
 20
149.903878
 11
177.509830
 21
149.903878
  0
LINE
  8
0
  6
CONTINUOUS
 62
1
 10
169.899755
 20
149.903878
 11
172.899755
 21
149.475306
  0
LINE
  8
0
  6
CONTINUOUS
 62
1
 10
172.899755
 20
149.475306
 11
172.899755
 21
150.118163
  0
LINE
  8
0
  6
CONTINUOUS
 62
1
 10
172.899755
 20
150.118163
 11
171.185469
 21
149.903878
  0
LINE
  8
0
  6
CONTINUOUS
 62
1
 10
171.185469
 20
149.903878
 11
172.899755
 21
149.689592
  0
LINE
  8
0
  6
CONTINUOUS
 62
1
 10
172.899755
 20
149.689592
 11
172.899755
 21
150.332449
  0
LINE
  8
0
  6
CONTINUOUS
 62
1
 10
172.899755
 20
150.332449
 11
169.899755
 21
149.903878
  0
LINE
  8
0
  6
CONTINUOUS
 62
1
 10
192.918505
 20
153.676211
 11
192.918505
 21
147.419670
  0
LINE
  8
0
  6
CONTINUOUS
 62
1
 10
192.918505
 20
183.463170
 11
192.918505
 21
193.377586
  0
LINE
  8
0
  6
CONTINUOUS
 62
1
 10
192.918505
 20
190.893378
 11
173.027865
 21
190.893378
  0
LINE
  8
0
  6
CONTINUOUS
 62
1
 10
192.918505
 20
190.893378
 11
189.918505
 21
191.321950
  0
LINE
  8
0
  6
CONTINUOUS
 62
1
 10
189.918505
 20
191.321950
 11
189.918505
 21
190.679093
  0
LINE
  8
0
  6
CONTINUOUS
 62
1
 10
189.918505
 20
190.679093
 11
191.632791
 21
190.893378
  0
LINE
  8
0
  6
CONTINUOUS
 62
1
 10
191.632791
 20
190.893378
 11
189.918505
 21
191.107664
  0
LINE
  8
0
  6
CONTINUOUS
 62
1
 10
189.918505
 20
191.107664
 11
189.918505
 21
190.464807
  0
LINE
  8
0
  6
CONTINUOUS
 62
1
 10
189.918505
 20
190.464807
 11
192.918505
 21
190.893378
  0
LINE
  8
0
  6
CONTINUOUS
 62
1
 10
143.706005
 20
183.463170
 11
143.706005
 21
193.377586
  0
LINE
  8
0
  6
CONTINUOUS
 62
1
 10
142.036913
 20
180.500357
 11
137.040173
 21
180.500357
  0
LINE
  8
0
  6
CONTINUOUS
 62
1
 10
139.070087
 20
180.500357
 11
139.070087
 21
156.687857
  0
LINE
  8
0
  6
CONTINUOUS
 62
1
 10
139.070087
 20
180.500357
 11
138.641515
 21
177.500357
  0
LINE
  8
0
  6
CONTINUOUS
 62
1
 10
138.641515
 20
177.500357
 11
139.284372
 21
177.500357
  0
LINE
  8
0
  6
CONTINUOUS
 62
1
 10
139.284372
 20
177.500357
 11
139.070087
 21
179.214642
  0
LINE
  8
0
  6
CONTINUOUS
 62
1
 10
139.070087
 20
179.214642
 11
138.855801
 21
177.500357
  0
LINE
  8
0
  6
CONTINUOUS
 62
1
 10
138.855801
 20
177.500357
 11
139.498658
 21
177.500357
  0
LINE
  8
0
  6
CONTINUOUS
 62
1
 10
139.498658
 20
177.500357
 11
139.070087
 21
180.500357
  0
LINE
  8
0
  6
CONTINUOUS
 62
1
 10
139.070087
 20
156.687857
 11
139.498658
 21
159.687857
  0
LINE
  8
0
  6
CONTINUOUS
 62
1
 10
139.498658
 20
159.687857
 11
138.855801
 21
159.687857
  0
LINE
  8
0
  6
CONTINUOUS
 62
1
 10
138.855801
 20
159.687857
 11
139.070087
 21
157.973571
  0
LINE
  8
0
  6
CONTINUOUS
 62
1
 10
139.070087
 20
157.973571
 11
139.284372
 21
159.687857
  0
LINE
  8
0
  6
CONTINUOUS
 62
1
 10
139.284372
 20
159.687857
 11
138.641515
 21
159.687857
  0
LINE
  8
0
  6
CONTINUOUS
 62
1
 10
138.641515
 20
159.687857
 11
139.070087
 21
156.687857
  0
LINE
  8
0
  6
CONTINUOUS
 62
1
 10
141.752102
 20
180.500357
 11
137.040173
 21
180.500357
  0
LINE
  8
0
  6
CONTINUOUS
 62
1
 10
137.040173
 20
156.687857
 11
141.752102
 21
156.687857
  0
LINE
  8
0
  6
CONTINUOUS
 62
1
 10
182.366161
 20
137.702025
 11
169.899755
 21
137.702025
  0
LINE
  8
0
  6
CONTINUOUS
 62
1
 10
169.899755
 20
137.702025
 11
172.899755
 21
137.273454
  0
LINE
  8
0
  6
CONTINUOUS
 62
1
 10
172.899755
 20
137.273454
 11
172.899755
 21
137.916311
  0
LINE
  8
0
  6
CONTINUOUS
 62
1
 10
172.899755
 20
137.916311
 11
171.185469
 21
137.702025
  0
LINE
  8
0
  6
CONTINUOUS
 62
1
 10
171.185469
 20
137.702025
 11
172.899755
 21
137.487739
  0
LINE
  8
0
  6
CONTINUOUS
 62
1
 10
172.899755
 20
137.487739
 11
172.899755
 21
138.130597
  0
LINE
  8
0
  6
CONTINUOUS
 62
1
 10
172.899755
 20
138.130597
 11
169.899755
 21
137.702025
  0
LINE
  8
0
  6
CONTINUOUS
 62
1
 10
166.724755
 20
137.702025
 11
161.724755
 21
137.702025
  0
LINE
  8
0
  6
CONTINUOUS
 62
1
 10
166.724755
 20
137.702025
 11
163.724755
 21
138.130597
  0
LINE
  8
0
  6
CONTINUOUS
 62
1
 10
163.724755
 20
138.130597
 11
163.724755
 21
137.487739
  0
LINE
  8
0
  6
CONTINUOUS
 62
1
 10
163.724755
 20
137.487739
 11
165.439041
 21
137.702025
  0
LINE
  8
0
  6
CONTINUOUS
 62
1
 10
165.439041
 20
137.702025
 11
163.724755
 21
137.916311
  0
LINE
  8
0
  6
CONTINUOUS
 62
1
 10
163.724755
 20
137.916311
 11
163.724755
 21
137.273454
  0
LINE
  8
0
  6
CONTINUOUS
 62
1
 10
163.724755
 20
137.273454
 11
166.724755
 21
137.702025
  0
TEXT
  8
0
  6
CONTINUOUS
 62
1
 10
138.070087
 20
163.802440
 40
2.000000
  1
23.8mm
 50
90.000000
 41
1.000000
 51
0.000000
  7
STANDARD
  0
TEXT
  8
0
  6
CONTINUOUS
 62
1
 10
142.070087
 20
163.088154
 40
2.000000
  1
(15/16 )
 50
90.000000
 41
1.000000
 51
0.000000
  7
STANDARD
  0
TEXT
  8
0
  6
CONTINUOUS
 62
1
 10
151.362086
 20
164.439328
 40
2.000000
  1
9849
 50
90.000000
 41
1.000000
 51
0.000000
  7
STANDARD
  0
LINE
  8
0
  6
CONTINUOUS
 62
1
 10
140.532196
 20
172.488068
 11
139.986305
 21
172.488068
  0
LINE
  8
0
  6
CONTINUOUS
 62
1
 10
139.986305
 20
172.988068
 11
140.532196
 21
172.988068
  0
TEXT
  8
0
  6
CONTINUOUS
 62
1
 10
167.312255
 20
185.911236
 40
2.000000
  1
46.0mm
 50
90.000000
 41
1.000000
 51
0.000000
  7
STANDARD
  0
TEXT
  8
0
  6
CONTINUOUS
 62
1
 10
171.312255
 20
183.815997
 40
2.000000
  1
(1 13/16 )
 50
90.000000
 41
1.000000
 51
0.000000
  7
STANDARD
  0
LINE
  8
0
  6
CONTINUOUS
 62
1
 10
169.718377
 20
196.447592
 11
169.172487
 21
196.447592
  0
LINE
  8
0
  6
CONTINUOUS
 62
1
 10
169.172487
 20
196.947592
 11
169.718377
 21
196.947592
  0
LINE
  8
0
  6
CONTINUOUS
 62
1
 10
164.203037
 20
190.893378
 11
143.706005
 21
190.893378
  0
LINE
  8
0
  6
CONTINUOUS
 62
1
 10
143.706005
 20
190.893378
 11
146.706005
 21
190.464807
  0
LINE
  8
0
  6
CONTINUOUS
 62
1
 10
146.706005
 20
190.464807
 11
146.706005
 21
191.107664
  0
LINE
  8
0
  6
CONTINUOUS
 62
1
 10
146.706005
 20
191.107664
 11
144.991719
 21
190.893378
  0
LINE
  8
0
  6
CONTINUOUS
 62
1
 10
144.991719
 20
190.893378
 11
146.706005
 21
190.679093
  0
LINE
  8
0
  6
CONTINUOUS
 62
1
 10
146.706005
 20
190.679093
 11
146.706005
 21
191.321950
  0
LINE
  8
0
  6
CONTINUOUS
 62
1
 10
146.706005
 20
191.321950
 11
143.706005
 21
190.893378
  0
TEXT
  8
0
  6
CONTINUOUS
 62
1
 10
154.215380
 20
145.493163
 40
2.000000
  1
21.4mm
 50
90.000000
 41
1.000000
 51
0.000000
  7
STANDARD
  0
TEXT
  8
0
  6
CONTINUOUS
 62
1
 10
158.215380
 20
143.731259
 40
2.000000
  1
(27/32 )
 50
90.000000
 41
1.000000
 51
0.000000
  7
STANDARD
  0
LINE
  8
0
  6
CONTINUOUS
 62
1
 10
156.660928
 20
154.568474
 11
156.115037
 21
154.568474
  0
LINE
  8
0
  6
CONTINUOUS
 62
1
 10
156.115037
 20
155.068474
 11
156.660928
 21
155.068474
  0
TEXT
  8
0
  6
CONTINUOUS
 62
1
 10
180.352901
 20
145.493163
 40
2.000000
  1
21.4mm
 50
90.000000
 41
1.000000
 51
0.000000
  7
STANDARD
  0
TEXT
  8
0
  6
CONTINUOUS
 62
1
 10
184.352901
 20
143.731259
 40
2.000000
  1
(27/32 )
 50
90.000000
 41
1.000000
 51
0.000000
  7
STANDARD
  0
LINE
  8
0
  6
CONTINUOUS
 62
1
 10
182.798449
 20
154.568474
 11
182.252558
 21
154.568474
  0
LINE
  8
0
  6
CONTINUOUS
 62
1
 10
182.252558
 20
155.068474
 11
182.798449
 21
155.068474
  0
LINE
  8
0
  6
CONTINUOUS
 62
1
 10
160.041328
 20
149.903878
 11
166.724755
 21
149.903878
  0
LINE
  8
0
  6
CONTINUOUS
 62
1
 10
166.724755
 20
149.903878
 11
163.724755
 21
150.332449
  0
LINE
  8
0
  6
CONTINUOUS
 62
1
 10
163.724755
 20
150.332449
 11
163.724755
 21
149.689592
  0
LINE
  8
0
  6
CONTINUOUS
 62
1
 10
163.724755
 20
149.689592
 11
165.439041
 21
149.903878
  0
LINE
  8
0
  6
CONTINUOUS
 62
1
 10
165.439041
 20
149.903878
 11
163.724755
 21
150.118163
  0
LINE
  8
0
  6
CONTINUOUS
 62
1
 10
163.724755
 20
150.118163
 11
163.724755
 21
149.475306
  0
LINE
  8
0
  6
CONTINUOUS
 62
1
 10
163.724755
 20
149.475306
 11
166.724755
 21
149.903878
  0
LINE
  8
0
  6
CONTINUOUS
 62
1
 10
185.661798
 20
149.903878
 11
192.918505
 21
149.903878
  0
LINE
  8
0
  6
CONTINUOUS
 62
1
 10
192.918505
 20
149.903878
 11
189.918505
 21
150.332449
  0
LINE
  8
0
  6
CONTINUOUS
 62
1
 10
189.918505
 20
150.332449
 11
189.918505
 21
149.689592
  0
LINE
  8
0
  6
CONTINUOUS
 62
1
 10
189.918505
 20
149.689592
 11
191.632791
 21
149.903878
  0
LINE
  8
0
  6
CONTINUOUS
 62
1
 10
191.632791
 20
149.903878
 11
189.918505
 21
150.118163
  0
LINE
  8
0
  6
CONTINUOUS
 62
1
 10
189.918505
 20
150.118163
 11
189.918505
 21
149.475306
  0
LINE
  8
0
  6
CONTINUOUS
 62
1
 10
189.918505
 20
149.475306
 11
192.918505
 21
149.903878
  0
TEXT
  8
0
  6
CONTINUOUS
 62
1
 10
185.300692
 20
132.806211
 40
2.000000
  1
3.2mm
 50
90.000000
 41
1.000000
 51
0.000000
  7
STANDARD
  0
TEXT
  8
0
  6
CONTINUOUS
 62
1
 10
189.300692
 20
132.472877
 40
2.000000
  1
(1/8 )
 50
90.000000
 41
1.000000
 51
0.000000
  7
STANDARD
  0
LINE
  8
0
  6
CONTINUOUS
 62
1
 10
187.720818
 20
139.352582
 11
187.174928
 21
139.352582
  0
LINE
  8
0
  6
CONTINUOUS
 62
1
 10
187.174928
 20
139.852582
 11
187.720818
 21
139.852582
  0
LINE
  8
0
  6
CONTINUOUS
 62
1
 10
162.756005
 20
115.728136
 11
181.012255
 21
115.728136
  0
LINE
  8
0
  6
CONTINUOUS
 62
1
 10
182.599755
 20
114.140636
 11
182.599755
 21
113.524686
  0
LINE
  8
0
  6
CONTINUOUS
 62
1
 10
181.806005
 20
112.730936
 11
171.487255
 21
112.730936
  0
LINE
  8
0
  6
CONTINUOUS
 62
1
 10
169.899755
 20
111.143436
 11
169.899755
 21
92.093436
  0
LINE
  8
0
  6
CONTINUOUS
 62
1
 10
166.724755
 20
95.884386
 11
166.724755
 21
109.861749
  0
LINE
  8
0
  6
CONTINUOUS
 62
1
 10
151.643505
 20
90.505936
 11
168.312255
 21
90.505936
  0
LINE
  8
0
  6
CONTINUOUS
 62
1
 10
150.056005
 20
92.709386
 11
150.056005
 21
92.093436
  0
LINE
  8
0
  6
CONTINUOUS
 62
1
 10
150.849755
 20
93.503136
 11
164.343505
 21
93.503136
  0
LINE
  8
0
  6
CONTINUOUS
 62
1
 10
162.756005
 20
115.728136
 11
162.756005
 21
114.140636
  0
LINE
  8
0
  6
CONTINUOUS
 62
1
 10
166.199236
 20
111.041728
 11
162.756005
 21
114.140636
  0
ARC
  8
0
  6
CONTINUOUS
 62
1
 10
168.312255
 20
92.093436
 40
1.587500
 50
270.000000
 51
0.000000
  0
ARC
  8
0
  6
CONTINUOUS
 62
1
 10
171.487255
 20
111.143436
 40
1.587500
 50
90.000000
 51
180.000000
  0
ARC
  8
0
  6
CONTINUOUS
 62
1
 10
151.643505
 20
92.093436
 40
1.587500
 50
180.000000
 51
270.000000
  0
ARC
  8
0
  6
CONTINUOUS
 62
1
 10
181.012255
 20
114.140636
 40
1.587500
 50
0.000000
 51
90.000000
  0
ARC
  8
0
  6
CONTINUOUS
 62
1
 10
165.137255
 20
109.861749
 40
1.587500
 50
0.000000
 51
48.012788
  0
ARC
  8
0
  6
CONTINUOUS
 62
1
 10
181.806005
 20
113.524686
 40
0.793750
 50
270.000000
 51
0.000000
  0
ARC
  8
0
  6
CONTINUOUS
 62
1
 10
150.849755
 20
92.709386
 40
0.793750
 50
90.000000
 51
180.000000
  0
ARC
  8
0
  6
CONTINUOUS
 62
1
 10
164.343505
 20
95.884386
 40
2.381250
 50
270.000000
 51
0.000000
  0
LINE
  8
0
  6
CONTINUOUS
 62
1
 10
162.756005
 20
123.728136
 11
169.120045
 21
123.728136
  0
LINE
  8
0
  6
CONTINUOUS
 62
1
 10
162.756005
 20
123.728136
 11
165.756005
 21
123.299565
  0
LINE
  8
0
  6
CONTINUOUS
 62
1
 10
165.756005
 20
123.299565
 11
165.756005
 21
123.942422
  0
LINE
  8
0
  6
CONTINUOUS
 62
1
 10
165.756005
 20
123.942422
 11
164.041719
 21
123.728136
  0
LINE
  8
0
  6
CONTINUOUS
 62
1
 10
164.041719
 20
123.728136
 11
165.756005
 21
123.513851
  0
LINE
  8
0
  6
CONTINUOUS
 62
1
 10
165.756005
 20
123.513851
 11
165.756005
 21
124.156708
  0
LINE
  8
0
  6
CONTINUOUS
 62
1
 10
165.756005
 20
124.156708
 11
162.756005
 21
123.728136
  0
LINE
  8
0
  6
CONTINUOUS
 62
1
 10
142.056005
 20
115.728136
 11
142.056005
 21
90.505936
  0
LINE
  8
0
  6
CONTINUOUS
 62
1
 10
142.056005
 20
115.728136
 11
141.627433
 21
112.728136
  0
LINE
  8
0
  6
CONTINUOUS
 62
1
 10
141.627433
 20
112.728136
 11
142.270291
 21
112.728136
  0
LINE
  8
0
  6
CONTINUOUS
 62
1
 10
142.270291
 20
112.728136
 11
142.056005
 21
114.442422
  0
LINE
  8
0
  6
CONTINUOUS
 62
1
 10
142.056005
 20
114.442422
 11
141.841719
 21
112.728136
  0
LINE
  8
0
  6
CONTINUOUS
 62
1
 10
141.841719
 20
112.728136
 11
142.484576
 21
112.728136
  0
LINE
  8
0
  6
CONTINUOUS
 62
1
 10
142.484576
 20
112.728136
 11
142.056005
 21
115.728136
  0
LINE
  8
0
  6
CONTINUOUS
 62
1
 10
142.056005
 20
90.505936
 11
142.484576
 21
93.505936
  0
LINE
  8
0
  6
CONTINUOUS
 62
1
 10
142.484576
 20
93.505936
 11
141.841719
 21
93.505936
  0
LINE
  8
0
  6
CONTINUOUS
 62
1
 10
141.841719
 20
93.505936
 11
142.056005
 21
91.791651
  0
LINE
  8
0
  6
CONTINUOUS
 62
1
 10
142.056005
 20
91.791651
 11
142.270291
 21
93.505936
  0
LINE
  8
0
  6
CONTINUOUS
 62
1
 10
142.270291
 20
93.505936
 11
141.627433
 21
93.505936
  0
LINE
  8
0
  6
CONTINUOUS
 62
1
 10
141.627433
 20
93.505936
 11
142.056005
 21
90.505936
  0
LINE
  8
0
  6
CONTINUOUS
 62
1
 10
150.056005
 20
82.505936
 11
156.264048
 21
82.505936
  0
LINE
  8
0
  6
CONTINUOUS
 62
1
 10
150.056005
 20
82.505936
 11
153.056005
 21
82.077365
  0
LINE
  8
0
  6
CONTINUOUS
 62
1
 10
153.056005
 20
82.077365
 11
153.056005
 21
82.720222
  0
LINE
  8
0
  6
CONTINUOUS
 62
1
 10
153.056005
 20
82.720222
 11
151.341719
 21
82.505936
  0
LINE
  8
0
  6
CONTINUOUS
 62
1
 10
151.341719
 20
82.505936
 11
153.056005
 21
82.291651
  0
LINE
  8
0
  6
CONTINUOUS
 62
1
 10
153.056005
 20
82.291651
 11
153.056005
 21
82.934508
  0
LINE
  8
0
  6
CONTINUOUS
 62
1
 10
153.056005
 20
82.934508
 11
150.056005
 21
82.505936
  0
LINE
  8
0
  6
CONTINUOUS
 62
1
 10
169.899755
 20
87.505936
 11
169.899755
 21
80.005936
  0
LINE
  8
0
  6
CONTINUOUS
 62
1
 10
139.556005
 20
115.728136
 11
147.056005
 21
115.728136
  0
LINE
  8
0
  6
CONTINUOUS
 62
1
 10
147.056005
 20
90.505936
 11
139.556005
 21
90.505936
  0
LINE
  8
0
  6
CONTINUOUS
 62
1
 10
162.756005
 20
118.728136
 11
162.756005
 21
126.228136
  0
LINE
  8
0
  6
CONTINUOUS
 62
1
 10
182.599755
 20
126.228136
 11
182.599755
 21
118.728136
  0
LINE
  8
0
  6
CONTINUOUS
 62
1
 10
150.056005
 20
87.505936
 11
150.056005
 21
80.005936
  0
LINE
  8
0
  6
CONTINUOUS
 62
1
 10
182.599755
 20
80.005936
 11
182.599755
 21
87.505936
  0
TEXT
  8
0
  6
CONTINUOUS
 62
1
 10
158.977880
 20
78.095222
 40
2.000000
  1
19.8mm
 50
90.000000
 41
1.000000
 51
0.000000
  7
STANDARD
  0
TEXT
  8
0
  6
CONTINUOUS
 62
1
 10
162.977880
 20
76.333317
 40
2.000000
  1
(25/32 )
 50
90.000000
 41
1.000000
 51
0.000000
  7
STANDARD
  0
LINE
  8
0
  6
CONTINUOUS
 62
1
 10
161.317730
 20
87.092039
 11
160.771840
 21
87.092039
  0
LINE
  8
0
  6
CONTINUOUS
 62
1
 10
160.771840
 20
87.592039
 11
161.317730
 21
87.592039
  0
TEXT
  8
0
  6
CONTINUOUS
 62
1
 10
171.677880
 20
119.317422
 40
2.000000
  1
19.8mm
 50
90.000000
 41
1.000000
 51
0.000000
  7
STANDARD
  0
TEXT
  8
0
  6
CONTINUOUS
 62
1
 10
175.677880
 20
117.555517
 40
2.000000
  1
(25/32 )
 50
90.000000
 41
1.000000
 51
0.000000
  7
STANDARD
  0
LINE
  8
0
  6
CONTINUOUS
 62
1
 10
174.017730
 20
128.314239
 11
173.471840
 21
128.314239
  0
LINE
  8
0
  6
CONTINUOUS
 62
1
 10
173.471840
 20
128.814239
 11
174.017730
 21
128.814239
  0
TEXT
  8
0
  6
CONTINUOUS
 62
1
 10
141.056005
 20
98.230132
 40
2.000000
  1
25.4mm
 50
90.000000
 41
1.000000
 51
0.000000
  7
STANDARD
  0
TEXT
  8
0
  6
CONTINUOUS
 62
1
 10
145.056005
 20
100.896798
 40
2.000000
  1
(1 )
 50
90.000000
 41
1.000000
 51
0.000000
  7
STANDARD
  0
LINE
  8
0
  6
CONTINUOUS
 62
1
 10
143.490100
 20
103.712745
 11
142.944209
 21
103.712745
  0
LINE
  8
0
  6
CONTINUOUS
 62
1
 10
142.944209
 20
104.212745
 11
143.490100
 21
104.212745
  0
LINE
  8
0
  6
CONTINUOUS
 62
1
 10
176.682396
 20
123.728136
 11
182.599755
 21
123.728136
  0
LINE
  8
0
  6
CONTINUOUS
 62
1
 10
182.599755
 20
123.728136
 11
179.599755
 21
124.156708
  0
LINE
  8
0
  6
CONTINUOUS
 62
1
 10
179.599755
 20
124.156708
 11
179.599755
 21
123.513851
  0
LINE
  8
0
  6
CONTINUOUS
 62
1
 10
179.599755
 20
123.513851
 11
181.314041
 21
123.728136
  0
LINE
  8
0
  6
CONTINUOUS
 62
1
 10
181.314041
 20
123.728136
 11
179.599755
 21
123.942422
  0
LINE
  8
0
  6
CONTINUOUS
 62
1
 10
179.599755
 20
123.942422
 11
179.599755
 21
123.299565
  0
LINE
  8
0
  6
CONTINUOUS
 62
1
 10
179.599755
 20
123.299565
 11
182.599755
 21
123.728136
  0
LINE
  8
0
  6
CONTINUOUS
 62
1
 10
164.109987
 20
82.505936
 11
169.899755
 21
82.505936
  0
LINE
  8
0
  6
CONTINUOUS
 62
1
 10
169.899755
 20
82.505936
 11
166.899755
 21
82.934508
  0
LINE
  8
0
  6
CONTINUOUS
 62
1
 10
166.899755
 20
82.934508
 11
166.899755
 21
82.291651
  0
LINE
  8
0
  6
CONTINUOUS
 62
1
 10
166.899755
 20
82.291651
 11
168.614041
 21
82.505936
  0
LINE
  8
0
  6
CONTINUOUS
 62
1
 10
168.614041
 20
82.505936
 11
166.899755
 21
82.720222
  0
LINE
  8
0
  6
CONTINUOUS
 62
1
 10
166.899755
 20
82.720222
 11
166.899755
 21
82.077365
  0
LINE
  8
0
  6
CONTINUOUS
 62
1
 10
166.899755
 20
82.077365
 11
169.899755
 21
82.505936
  0
LINE
  8
0
  6
CONTINUOUS
 62
1
 10
182.599755
 20
82.505936
 11
188.672088
 21
82.505936
  0
LINE
  8
0
  6
CONTINUOUS
 62
1
 10
182.599755
 20
82.505936
 11
185.599755
 21
82.077365
  0
LINE
  8
0
  6
CONTINUOUS
 62
1
 10
185.599755
 20
82.077365
 11
185.599755
 21
82.720222
  0
LINE
  8
0
  6
CONTINUOUS
 62
1
 10
185.599755
 20
82.720222
 11
183.885469
 21
82.505936
  0
LINE
  8
0
  6
CONTINUOUS
 62
1
 10
183.885469
 20
82.505936
 11
185.599755
 21
82.291651
  0
LINE
  8
0
  6
CONTINUOUS
 62
1
 10
185.599755
 20
82.291651
 11
185.599755
 21
82.934508
  0
LINE
  8
0
  6
CONTINUOUS
 62
1
 10
185.599755
 20
82.934508
 11
182.599755
 21
82.505936
  0
TEXT
  8
0
  6
CONTINUOUS
 62
1
 10
192.159986
 20
78.130826
 40
2.000000
  1
12.7mm
 50
90.000000
 41
1.000000
 51
0.000000
  7
STANDARD
  0
TEXT
  8
0
  6
CONTINUOUS
 62
1
 10
196.159986
 20
78.416540
 40
2.000000
  1
(1/2 )
 50
90.000000
 41
1.000000
 51
0.000000
  7
STANDARD
  0
LINE
  8
0
  6
CONTINUOUS
 62
1
 10
194.622461
 20
84.523399
 11
194.076570
 21
84.523399
  0
LINE
  8
0
  6
CONTINUOUS
 62
1
 10
194.076570
 20
85.023399
 11
194.622461
 21
85.023399
  0
TEXT
  8
0
  6
CONTINUOUS
 62
1
 10
159.702679
 20
100.784995
 40
2.000000
  1
F7D
 50
90.000000
 41
1.000000
 51
0.000000
  7
STANDARD
  0
LINE
  8
0
  6
CONTINUOUS
 62
1
 10
189.346630
 20
59.536730
 11
163.549755
 21
59.536730
  0
LINE
  8
0
  6
CONTINUOUS
 62
1
 10
190.934130
 20
57.949230
 11
190.934130
 21
57.333280
  0
LINE
  8
0
  6
CONTINUOUS
 62
1
 10
190.140380
 20
56.539530
 11
171.487255
 21
56.539530
  0
LINE
  8
0
  6
CONTINUOUS
 62
1
 10
162.756005
 20
58.742980
 11
162.756005
 21
58.302737
  0
LINE
  8
0
  6
CONTINUOUS
 62
1
 10
166.724755
 20
53.670343
 11
166.724755
 21
39.692980
  0
LINE
  8
0
  6
CONTINUOUS
 62
1
 10
168.312255
 20
34.314530
 11
151.643505
 21
34.314530
  0
LINE
  8
0
  6
CONTINUOUS
 62
1
 10
169.899755
 20
54.952030
 11
169.899755
 21
35.902030
  0
LINE
  8
0
  6
CONTINUOUS
 62
1
 10
150.849755
 20
37.311730
 11
164.343505
 21
37.311730
  0
LINE
  8
0
  6
CONTINUOUS
 62
1
 10
166.199236
 20
54.850322
 11
163.018764
 21
57.712747
  0
LINE
  8
0
  6
CONTINUOUS
 62
1
 10
150.056005
 20
36.517980
 11
150.056005
 21
35.902030
  0
ARC
  8
0
  6
CONTINUOUS
 62
1
 10
151.643505
 20
35.902030
 40
1.587500
 50
180.000000
 51
270.000000
  0
ARC
  8
0
  6
CONTINUOUS
 62
1
 10
168.312255
 20
35.902030
 40
1.587500
 50
270.000000
 51
0.000000
  0
ARC
  8
0
  6
CONTINUOUS
 62
1
 10
171.487255
 20
54.952030
 40
1.587500
 50
90.000000
 51
180.000000
  0
ARC
  8
0
  6
CONTINUOUS
 62
1
 10
189.346630
 20
57.949230
 40
1.587500
 50
0.000000
 51
90.000000
  0
ARC
  8
0
  6
CONTINUOUS
 62
1
 10
165.137255
 20
53.670343
 40
1.587500
 50
0.000000
 51
48.012788
  0
ARC
  8
0
  6
CONTINUOUS
 62
1
 10
164.343505
 20
39.692980
 40
2.381250
 50
270.000000
 51
0.000000
  0
ARC
  8
0
  6
CONTINUOUS
 62
1
 10
150.849755
 20
36.517980
 40
0.793750
 50
90.000000
 51
180.000000
  0
ARC
  8
0
  6
CONTINUOUS
 62
1
 10
190.140380
 20
57.333280
 40
0.793750
 50
270.000000
 51
0.000000
  0
ARC
  8
0
  6
CONTINUOUS
 62
1
 10
163.549755
 20
58.302737
 40
0.793750
 50
180.000000
 51
228.012788
  0
ARC
  8
0
  6
CONTINUOUS
 62
1
 10
163.549755
 20
58.742980
 40
0.793750
 50
90.000000
 51
180.000000
  0
LINE
  8
0
  6
CONTINUOUS
 62
1
 10
149.706393
 20
30.133053
 11
149.706393
 21
23.702645
  0
LINE
  8
0
  6
CONTINUOUS
 62
1
 10
149.706393
 20
26.186853
 11
156.097007
 21
26.186853
  0
LINE
  8
0
  6
CONTINUOUS
 62
1
 10
149.706393
 20
26.186853
 11
152.706393
 21
25.758282
  0
LINE
  8
0
  6
CONTINUOUS
 62
1
 10
152.706393
 20
25.758282
 11
152.706393
 21
26.401139
  0
LINE
  8
0
  6
CONTINUOUS
 62
1
 10
152.706393
 20
26.401139
 11
150.992107
 21
26.186853
  0
LINE
  8
0
  6
CONTINUOUS
 62
1
 10
150.992107
 20
26.186853
 11
152.706393
 21
25.972567
  0
LINE
  8
0
  6
CONTINUOUS
 62
1
 10
152.706393
 20
25.972567
 11
152.706393
 21
26.615424
  0
LINE
  8
0
  6
CONTINUOUS
 62
1
 10
152.706393
 20
26.615424
 11
149.706393
 21
26.186853
  0
LINE
  8
0
  6
CONTINUOUS
 62
1
 10
169.899755
 20
30.133053
 11
169.899755
 21
23.702645
  0
LINE
  8
0
  6
CONTINUOUS
 62
1
 10
145.037128
 20
59.536730
 11
138.942189
 21
59.536730
  0
LINE
  8
0
  6
CONTINUOUS
 62
1
 10
140.972103
 20
59.536730
 11
140.972103
 21
34.314530
  0
LINE
  8
0
  6
CONTINUOUS
 62
1
 10
140.972103
 20
59.536730
 11
140.543532
 21
56.536730
  0
LINE
  8
0
  6
CONTINUOUS
 62
1
 10
140.543532
 20
56.536730
 11
141.186389
 21
56.536730
  0
LINE
  8
0
  6
CONTINUOUS
 62
1
 10
141.186389
 20
56.536730
 11
140.972103
 21
58.251016
  0
LINE
  8
0
  6
CONTINUOUS
 62
1
 10
140.972103
 20
58.251016
 11
140.757817
 21
56.536730
  0
LINE
  8
0
  6
CONTINUOUS
 62
1
 10
140.757817
 20
56.536730
 11
141.400675
 21
56.536730
  0
LINE
  8
0
  6
CONTINUOUS
 62
1
 10
141.400675
 20
56.536730
 11
140.972103
 21
59.536730
  0
LINE
  8
0
  6
CONTINUOUS
 62
1
 10
140.972103
 20
34.314530
 11
141.400675
 21
37.314530
  0
LINE
  8
0
  6
CONTINUOUS
 62
1
 10
141.400675
 20
37.314530
 11
140.757817
 21
37.314530
  0
LINE
  8
0
  6
CONTINUOUS
 62
1
 10
140.757817
 20
37.314530
 11
140.972103
 21
35.600245
  0
LINE
  8
0
  6
CONTINUOUS
 62
1
 10
140.972103
 20
35.600245
 11
141.186389
 21
37.314530
  0
LINE
  8
0
  6
CONTINUOUS
 62
1
 10
141.186389
 20
37.314530
 11
140.543532
 21
37.314530
  0
LINE
  8
0
  6
CONTINUOUS
 62
1
 10
140.543532
 20
37.314530
 11
140.972103
 21
34.314530
  0
LINE
  8
0
  6
CONTINUOUS
 62
1
 10
144.752317
 20
59.536730
 11
138.942189
 21
59.536730
  0
LINE
  8
0
  6
CONTINUOUS
 62
1
 10
138.942189
 20
34.314530
 11
144.752317
 21
34.314530
  0
LINE
  8
0
  6
CONTINUOUS
 62
1
 10
190.934130
 20
30.133053
 11
190.934130
 21
23.702645
  0
LINE
  8
0
  6
CONTINUOUS
 62
1
 10
190.934130
 20
26.186853
 11
184.353657
 21
26.186853
  0
LINE
  8
0
  6
CONTINUOUS
 62
1
 10
190.934130
 20
26.186853
 11
187.934130
 21
26.615424
  0
LINE
  8
0
  6
CONTINUOUS
 62
1
 10
187.934130
 20
26.615424
 11
187.934130
 21
25.972567
  0
LINE
  8
0
  6
CONTINUOUS
 62
1
 10
187.934130
 20
25.972567
 11
189.648416
 21
26.186853
  0
LINE
  8
0
  6
CONTINUOUS
 62
1
 10
189.648416
 20
26.186853
 11
187.934130
 21
26.401139
  0
LINE
  8
0
  6
CONTINUOUS
 62
1
 10
187.934130
 20
26.401139
 11
187.934130
 21
25.758282
  0
LINE
  8
0
  6
CONTINUOUS
 62
1
 10
187.934130
 20
25.758282
 11
190.934130
 21
26.186853
  0
LINE
  8
0
  6
CONTINUOUS
 62
1
 10
169.899755
 20
30.133053
 11
169.899755
 21
23.702645
  0
LINE
  8
0
  6
CONTINUOUS
 62
1
 10
190.934130
 20
61.208990
 11
190.934130
 21
69.451146
  0
LINE
  8
0
  6
CONTINUOUS
 62
1
 10
190.934130
 20
66.966939
 11
181.624333
 21
66.966939
  0
LINE
  8
0
  6
CONTINUOUS
 62
1
 10
190.934130
 20
66.966939
 11
187.934130
 21
67.395510
  0
LINE
  8
0
  6
CONTINUOUS
 62
1
 10
187.934130
 20
67.395510
 11
187.934130
 21
66.752653
  0
LINE
  8
0
  6
CONTINUOUS
 62
1
 10
187.934130
 20
66.752653
 11
189.648416
 21
66.966939
  0
LINE
  8
0
  6
CONTINUOUS
 62
1
 10
189.648416
 20
66.966939
 11
187.934130
 21
67.181225
  0
LINE
  8
0
  6
CONTINUOUS
 62
1
 10
187.934130
 20
67.181225
 11
187.934130
 21
66.538368
  0
LINE
  8
0
  6
CONTINUOUS
 62
1
 10
187.934130
 20
66.538368
 11
190.934130
 21
66.966939
  0
LINE
  8
0
  6
CONTINUOUS
 62
1
 10
162.756005
 20
61.208990
 11
162.756005
 21
69.451146
  0
TEXT
  8
0
  6
CONTINUOUS
 62
1
 10
139.972103
 20
42.038726
 40
2.000000
  1
25.4mm
 50
90.000000
 41
1.000000
 51
0.000000
  7
STANDARD
  0
TEXT
  8
0
  6
CONTINUOUS
 62
1
 10
143.972103
 20
44.705392
 40
2.000000
  1
(1 )
 50
90.000000
 41
1.000000
 51
0.000000
  7
STANDARD
  0
TEXT
  8
0
  6
CONTINUOUS
 62
1
 10
158.958951
 20
43.475702
 40
2.000000
  1
F7G
 50
90.000000
 41
1.000000
 51
0.000000
  7
STANDARD
  0
LINE
  8
0
  6
CONTINUOUS
 62
1
 10
142.406198
 20
47.521339
 11
141.860308
 21
47.521339
  0
LINE
  8
0
  6
CONTINUOUS
 62
1
 10
141.860308
 20
48.021339
 11
142.406198
 21
48.021339
  0
TEXT
  8
0
  6
CONTINUOUS
 62
1
 10
175.845067
 20
62.127653
 40
2.000000
  1
28.5mm
 50
90.000000
 41
1.000000
 51
0.000000
  7
STANDARD
  0
TEXT
  8
0
  6
CONTINUOUS
 62
1
 10
179.845067
 20
61.127653
 40
2.000000
  1
(1 1/8 )
 50
90.000000
 41
1.000000
 51
0.000000
  7
STANDARD
  0
LINE
  8
0
  6
CONTINUOUS
 62
1
 10
178.281204
 20
71.249067
 11
177.735313
 21
71.249067
  0
LINE
  8
0
  6
CONTINUOUS
 62
1
 10
177.735313
 20
71.749067
 11
178.281204
 21
71.749067
  0
LINE
  8
0
  6
CONTINUOUS
 62
1
 10
172.919196
 20
66.966939
 11
162.756005
 21
66.966939
  0
LINE
  8
0
  6
CONTINUOUS
 62
1
 10
162.756005
 20
66.966939
 11
165.756005
 21
66.538368
  0
LINE
  8
0
  6
CONTINUOUS
 62
1
 10
165.756005
 20
66.538368
 11
165.756005
 21
67.181225
  0
LINE
  8
0
  6
CONTINUOUS
 62
1
 10
165.756005
 20
67.181225
 11
164.041719
 21
66.966939
  0
LINE
  8
0
  6
CONTINUOUS
 62
1
 10
164.041719
 20
66.966939
 11
165.756005
 21
66.752653
  0
LINE
  8
0
  6
CONTINUOUS
 62
1
 10
165.756005
 20
66.752653
 11
165.756005
 21
67.395510
  0
LINE
  8
0
  6
CONTINUOUS
 62
1
 10
165.756005
 20
67.395510
 11
162.756005
 21
66.966939
  0
TEXT
  8
0
  6
CONTINUOUS
 62
1
 10
158.803074
 20
21.776139
 40
2.000000
  1
19.8mm
 50
90.000000
 41
1.000000
 51
0.000000
  7
STANDARD
  0
TEXT
  8
0
  6
CONTINUOUS
 62
1
 10
162.803074
 20
20.014234
 40
2.000000
  1
(25/32 )
 50
90.000000
 41
1.000000
 51
0.000000
  7
STANDARD
  0
LINE
  8
0
  6
CONTINUOUS
 62
1
 10
161.142924
 20
30.772955
 11
160.597034
 21
30.772955
  0
LINE
  8
0
  6
CONTINUOUS
 62
1
 10
160.597034
 20
31.272955
 11
161.142924
 21
31.272955
  0
LINE
  8
0
  6
CONTINUOUS
 62
1
 10
163.773669
 20
26.186853
 11
169.899755
 21
26.186853
  0
LINE
  8
0
  6
CONTINUOUS
 62
1
 10
169.899755
 20
26.186853
 11
166.899755
 21
26.615424
  0
LINE
  8
0
  6
CONTINUOUS
 62
1
 10
166.899755
 20
26.615424
 11
166.899755
 21
25.972567
  0
LINE
  8
0
  6
CONTINUOUS
 62
1
 10
166.899755
 20
25.972567
 11
168.614041
 21
26.186853
  0
LINE
  8
0
  6
CONTINUOUS
 62
1
 10
168.614041
 20
26.186853
 11
166.899755
 21
26.401139
  0
LINE
  8
0
  6
CONTINUOUS
 62
1
 10
166.899755
 20
26.401139
 11
166.899755
 21
25.758282
  0
LINE
  8
0
  6
CONTINUOUS
 62
1
 10
166.899755
 20
25.758282
 11
169.899755
 21
26.186853
  0
TEXT
  8
0
  6
CONTINUOUS
 62
1
 10
179.416942
 20
21.823758
 40
2.000000
  1
21.0mm
 50
90.000000
 41
1.000000
 51
0.000000
  7
STANDARD
  0
TEXT
  8
0
  6
CONTINUOUS
 62
1
 10
183.416942
 20
20.728520
 40
2.000000
  1
(13/16 )
 50
90.000000
 41
1.000000
 51
0.000000
  7
STANDARD
  0
LINE
  8
0
  6
CONTINUOUS
 62
1
 10
181.756793
 20
30.065546
 11
181.210902
 21
30.065546
  0
LINE
  8
0
  6
CONTINUOUS
 62
1
 10
181.210902
 20
30.565546
 11
181.756793
 21
30.565546
  0
LINE
  8
0
  6
CONTINUOUS
 62
1
 10
176.595328
 20
26.186853
 11
169.899755
 21
26.186853
  0
LINE
  8
0
  6
CONTINUOUS
 62
1
 10
169.899755
 20
26.186853
 11
172.899755
 21
25.758282
  0
LINE
  8
0
  6
CONTINUOUS
 62
1
 10
172.899755
 20
25.758282
 11
172.899755
 21
26.401139
  0
LINE
  8
0
  6
CONTINUOUS
 62
1
 10
172.899755
 20
26.401139
 11
171.185469
 21
26.186853
  0
LINE
  8
0
  6
CONTINUOUS
 62
1
 10
171.185469
 20
26.186853
 11
172.899755
 21
25.972567
  0
LINE
  8
0
  6
CONTINUOUS
 62
1
 10
172.899755
 20
25.972567
 11
172.899755
 21
26.615424
  0
LINE
  8
0
  6
CONTINUOUS
 62
1
 10
172.899755
 20
26.615424
 11
169.899755
 21
26.186853
  0
LINE
  8
0
  6
CONTINUOUS
 62
1
 10
257.631976
 20
161.943042
 11
214.769476
 21
161.943042
  0
LINE
  8
0
  6
CONTINUOUS
 62
1
 10
213.181976
 20
160.355542
 11
213.181976
 21
159.739592
  0
LINE
  8
0
  6
CONTINUOUS
 62
1
 10
213.975726
 20
158.945842
 11
222.706976
 21
158.945842
  0
LINE
  8
0
  6
CONTINUOUS
 62
1
 10
259.219476
 20
160.355542
 11
259.219476
 21
159.910606
  0
LINE
  8
0
  6
CONTINUOUS
 62
1
 10
248.007951
 20
158.464196
 11
258.475239
 21
159.118402
  0
LINE
  8
0
  6
CONTINUOUS
 62
1
 10
227.469476
 20
136.720842
 11
244.931976
 21
136.720842
  0
LINE
  8
0
  6
CONTINUOUS
 62
1
 10
246.519476
 20
156.879788
 11
246.519476
 21
138.308342
  0
LINE
  8
0
  6
CONTINUOUS
 62
1
 10
225.881976
 20
138.308342
 11
225.881976
 21
138.740477
  0
LINE
  8
0
  6
CONTINUOUS
 62
1
 10
243.344476
 20
141.809697
 11
243.344476
 21
154.418193
  0
LINE
  8
0
  6
CONTINUOUS
 62
1
 10
226.639684
 20
139.533408
 11
241.829061
 21
140.223834
  0
ARC
  8
0
  6
CONTINUOUS
 62
1
 10
241.756976
 20
141.809697
 40
1.587500
 50
272.602562
 51
0.000000
  0
ARC
  8
0
  6
CONTINUOUS
 62
1
 10
244.931976
 20
138.308342
 40
1.587500
 50
270.000000
 51
0.000000
  0
LINE
  8
0
  6
CONTINUOUS
 62
1
 10
240.412988
 20
157.583841
 11
222.706976
 21
158.945842
  0
ARC
  8
0
  6
CONTINUOUS
 62
1
 10
248.106976
 20
156.879788
 40
1.587500
 50
93.576334
 51
180.000000
  0
ARC
  8
0
  6
CONTINUOUS
 62
1
 10
240.169476
 20
154.418193
 40
3.175000
 50
0.000000
 51
85.601295
  0
ARC
  8
0
  6
CONTINUOUS
 62
1
 10
227.469476
 20
138.308342
 40
1.587500
 50
180.000000
 51
270.000000
  0
ARC
  8
0
  6
CONTINUOUS
 62
1
 10
214.769476
 20
160.355542
 40
1.587500
 50
90.000000
 51
180.000000
  0
ARC
  8
0
  6
CONTINUOUS
 62
1
 10
257.631976
 20
160.355542
 40
1.587500
 50
0.000000
 51
90.000000
  0
ARC
  8
0
  6
CONTINUOUS
 62
1
 10
258.425726
 20
159.910606
 40
0.793750
 50
273.576334
 51
0.000000
  0
ARC
  8
0
  6
CONTINUOUS
 62
1
 10
213.975726
 20
159.739592
 40
0.793750
 50
180.000000
 51
270.000000
  0
ARC
  8
0
  6
CONTINUOUS
 62
1
 10
226.675726
 20
138.740477
 40
0.793750
 50
92.602562
 51
180.000000
  0
LINE
  8
0
  6
CONTINUOUS
 62
1
 10
225.881976
 20
129.985322
 11
225.881976
 21
125.006222
  0
LINE
  8
0
  6
CONTINUOUS
 62
1
 10
225.881976
 20
127.490429
 11
232.549306
 21
127.490429
  0
LINE
  8
0
  6
CONTINUOUS
 62
1
 10
225.881976
 20
127.490429
 11
228.881976
 21
127.061858
  0
LINE
  8
0
  6
CONTINUOUS
 62
1
 10
228.881976
 20
127.061858
 11
228.881976
 21
127.704715
  0
LINE
  8
0
  6
CONTINUOUS
 62
1
 10
228.881976
 20
127.704715
 11
227.167690
 21
127.490429
  0
LINE
  8
0
  6
CONTINUOUS
 62
1
 10
227.167690
 20
127.490429
 11
228.881976
 21
127.276144
  0
LINE
  8
0
  6
CONTINUOUS
 62
1
 10
228.881976
 20
127.276144
 11
228.881976
 21
127.919001
  0
LINE
  8
0
  6
CONTINUOUS
 62
1
 10
228.881976
 20
127.919001
 11
225.881976
 21
127.490429
  0
LINE
  8
0
  6
CONTINUOUS
 62
1
 10
246.519476
 20
129.985322
 11
246.519476
 21
125.006222
  0
LINE
  8
0
  6
CONTINUOUS
 62
1
 10
259.219476
 20
162.952094
 11
259.219476
 21
172.866510
  0
LINE
  8
0
  6
CONTINUOUS
 62
1
 10
259.219476
 20
170.382303
 11
241.202925
 21
170.382303
  0
LINE
  8
0
  6
CONTINUOUS
 62
1
 10
259.219476
 20
170.382303
 11
256.219476
 21
170.810874
  0
LINE
  8
0
  6
CONTINUOUS
 62
1
 10
256.219476
 20
170.810874
 11
256.219476
 21
170.168017
  0
LINE
  8
0
  6
CONTINUOUS
 62
1
 10
256.219476
 20
170.168017
 11
257.933762
 21
170.382303
  0
LINE
  8
0
  6
CONTINUOUS
 62
1
 10
257.933762
 20
170.382303
 11
256.219476
 21
170.596588
  0
LINE
  8
0
  6
CONTINUOUS
 62
1
 10
256.219476
 20
170.596588
 11
256.219476
 21
169.953731
  0
LINE
  8
0
  6
CONTINUOUS
 62
1
 10
256.219476
 20
169.953731
 11
259.219476
 21
170.382303
  0
LINE
  8
0
  6
CONTINUOUS
 62
1
 10
213.181976
 20
162.952094
 11
213.181976
 21
172.866510
  0
LINE
  8
0
  6
CONTINUOUS
 62
1
 10
212.258235
 20
161.943042
 11
204.133382
 21
161.943042
  0
LINE
  8
0
  6
CONTINUOUS
 62
1
 10
206.163296
 20
161.943042
 11
206.163296
 21
136.720842
  0
LINE
  8
0
  6
CONTINUOUS
 62
1
 10
206.163296
 20
161.943042
 11
205.734725
 21
158.943042
  0
LINE
  8
0
  6
CONTINUOUS
 62
1
 10
205.734725
 20
158.943042
 11
206.377582
 21
158.943042
  0
LINE
  8
0
  6
CONTINUOUS
 62
1
 10
206.377582
 20
158.943042
 11
206.163296
 21
160.657327
  0
LINE
  8
0
  6
CONTINUOUS
 62
1
 10
206.163296
 20
160.657327
 11
205.949010
 21
158.943042
  0
LINE
  8
0
  6
CONTINUOUS
 62
1
 10
205.949010
 20
158.943042
 11
206.591868
 21
158.943042
  0
LINE
  8
0
  6
CONTINUOUS
 62
1
 10
206.591868
 20
158.943042
 11
206.163296
 21
161.943042
  0
LINE
  8
0
  6
CONTINUOUS
 62
1
 10
206.163296
 20
136.720842
 11
206.591868
 21
139.720842
  0
LINE
  8
0
  6
CONTINUOUS
 62
1
 10
206.591868
 20
139.720842
 11
205.949010
 21
139.720842
  0
LINE
  8
0
  6
CONTINUOUS
 62
1
 10
205.949010
 20
139.720842
 11
206.163296
 21
138.006556
  0
LINE
  8
0
  6
CONTINUOUS
 62
1
 10
206.163296
 20
138.006556
 11
206.377582
 21
139.720842
  0
LINE
  8
0
  6
CONTINUOUS
 62
1
 10
206.377582
 20
139.720842
 11
205.734725
 21
139.720842
  0
LINE
  8
0
  6
CONTINUOUS
 62
1
 10
205.734725
 20
139.720842
 11
206.163296
 21
136.720842
  0
LINE
  8
0
  6
CONTINUOUS
 62
1
 10
209.943510
 20
161.943042
 11
204.133382
 21
161.943042
  0
LINE
  8
0
  6
CONTINUOUS
 62
1
 10
204.133382
 20
136.720842
 11
209.943510
 21
136.720842
  0
LINE
  8
0
  6
CONTINUOUS
 62
1
 10
259.219476
 20
129.985322
 11
259.219476
 21
125.006222
  0
LINE
  8
0
  6
CONTINUOUS
 62
1
 10
246.519476
 20
129.985322
 11
246.519476
 21
125.006222
  0
TEXT
  8
0
  6
CONTINUOUS
 62
1
 10
205.163296
 20
144.445037
 40
2.000000
  1
25.4mm
 50
90.000000
 41
1.000000
 51
0.000000
  7
STANDARD
  0
TEXT
  8
0
  6
CONTINUOUS
 62
1
 10
209.163296
 20
147.111704
 40
2.000000
  1
(1 )
 50
90.000000
 41
1.000000
 51
0.000000
  7
STANDARD
  0
TEXT
  8
0
  6
CONTINUOUS
 62
1
 10
227.244298
 20
148.921450
 40
2.000000
  1
FZ4
 50
90.000000
 41
1.000000
 51
0.000000
  7
STANDARD
  0
LINE
  8
0
  6
CONTINUOUS
 62
1
 10
207.560864
 20
149.961336
 11
207.014973
 21
149.961336
  0
LINE
  8
0
  6
CONTINUOUS
 62
1
 10
207.014973
 20
150.461336
 11
207.560864
 21
150.461336
  0
TEXT
  8
0
  6
CONTINUOUS
 62
1
 10
235.200726
 20
165.400160
 40
2.000000
  1
46.0mm
 50
90.000000
 41
1.000000
 51
0.000000
  7
STANDARD
  0
TEXT
  8
0
  6
CONTINUOUS
 62
1
 10
239.200726
 20
163.304922
 40
2.000000
  1
(1 13/16 )
 50
90.000000
 41
1.000000
 51
0.000000
  7
STANDARD
  0
LINE
  8
0
  6
CONTINUOUS
 62
1
 10
237.627364
 20
175.885039
 11
237.081473
 21
175.885039
  0
LINE
  8
0
  6
CONTINUOUS
 62
1
 10
237.081473
 20
176.385039
 11
237.627364
 21
176.385039
  0
LINE
  8
0
  6
CONTINUOUS
 62
1
 10
231.988290
 20
170.382303
 11
213.181976
 21
170.382303
  0
LINE
  8
0
  6
CONTINUOUS
 62
1
 10
213.181976
 20
170.382303
 11
216.181976
 21
169.953731
  0
LINE
  8
0
  6
CONTINUOUS
 62
1
 10
216.181976
 20
169.953731
 11
216.181976
 21
170.596588
  0
LINE
  8
0
  6
CONTINUOUS
 62
1
 10
216.181976
 20
170.596588
 11
214.467690
 21
170.382303
  0
LINE
  8
0
  6
CONTINUOUS
 62
1
 10
214.467690
 20
170.382303
 11
216.181976
 21
170.168017
  0
LINE
  8
0
  6
CONTINUOUS
 62
1
 10
216.181976
 20
170.168017
 11
216.181976
 21
170.810874
  0
LINE
  8
0
  6
CONTINUOUS
 62
1
 10
216.181976
 20
170.810874
 11
213.181976
 21
170.382303
  0
TEXT
  8
0
  6
CONTINUOUS
 62
1
 10
235.200726
 20
122.698763
 40
2.000000
  1
20.6mm
 50
90.000000
 41
1.000000
 51
0.000000
  7
STANDARD
  0
TEXT
  8
0
  6
CONTINUOUS
 62
1
 10
239.200726
 20
122.032096
 40
2.000000
  1
(13/16 )
 50
90.000000
 41
1.000000
 51
0.000000
  7
STANDARD
  0
LINE
  8
0
  6
CONTINUOUS
 62
1
 10
237.663906
 20
131.391406
 11
237.118015
 21
131.391406
  0
LINE
  8
0
  6
CONTINUOUS
 62
1
 10
237.118015
 20
131.891406
 11
237.663906
 21
131.891406
  0
LINE
  8
0
  6
CONTINUOUS
 62
1
 10
240.041171
 20
127.490429
 11
246.519476
 21
127.490429
  0
LINE
  8
0
  6
CONTINUOUS
 62
1
 10
246.519476
 20
127.490429
 11
243.519476
 21
127.919001
  0
LINE
  8
0
  6
CONTINUOUS
 62
1
 10
243.519476
 20
127.919001
 11
243.519476
 21
127.276144
  0
LINE
  8
0
  6
CONTINUOUS
 62
1
 10
243.519476
 20
127.276144
 11
245.233762
 21
127.490429
  0
LINE
  8
0
  6
CONTINUOUS
 62
1
 10
245.233762
 20
127.490429
 11
243.519476
 21
127.704715
  0
LINE
  8
0
  6
CONTINUOUS
 62
1
 10
243.519476
 20
127.704715
 11
243.519476
 21
127.061858
  0
LINE
  8
0
  6
CONTINUOUS
 62
1
 10
243.519476
 20
127.061858
 11
246.519476
 21
127.490429
  0
TEXT
  8
0
  6
CONTINUOUS
 62
1
 10
270.022206
 20
123.212510
 40
2.000000
  1
12.7mm
 50
90.000000
 41
1.000000
 51
0.000000
  7
STANDARD
  0
TEXT
  8
0
  6
CONTINUOUS
 62
1
 10
274.022206
 20
123.498224
 40
2.000000
  1
(1/2 )
 50
90.000000
 41
1.000000
 51
0.000000
  7
STANDARD
  0
LINE
  8
0
  6
CONTINUOUS
 62
1
 10
272.484681
 20
129.605083
 11
271.938790
 21
129.605083
  0
LINE
  8
0
  6
CONTINUOUS
 62
1
 10
271.938790
 20
130.105083
 11
272.484681
 21
130.105083
  0
LINE
  8
0
  6
CONTINUOUS
 62
1
 10
266.453542
 20
127.490429
 11
259.219476
 21
127.490429
  0
LINE
  8
0
  6
CONTINUOUS
 62
1
 10
259.219476
 20
127.490429
 11
262.219476
 21
127.061858
  0
LINE
  8
0
  6
CONTINUOUS
 62
1
 10
262.219476
 20
127.061858
 11
262.219476
 21
127.704715
  0
LINE
  8
0
  6
CONTINUOUS
 62
1
 10
262.219476
 20
127.704715
 11
260.505190
 21
127.490429
  0
LINE
  8
0
  6
CONTINUOUS
 62
1
 10
260.505190
 20
127.490429
 11
262.219476
 21
127.276144
  0
LINE
  8
0
  6
CONTINUOUS
 62
1
 10
262.219476
 20
127.276144
 11
262.219476
 21
127.919001
  0
LINE
  8
0
  6
CONTINUOUS
 62
1
 10
262.219476
 20
127.919001
 11
259.219476
 21
127.490429
  0
LINE
  8
0
  6
CONTINUOUS
 62
1
 10
228.050614
 20
101.270244
 11
245.513114
 21
101.270244
  0
LINE
  8
0
  6
CONTINUOUS
 62
1
 10
258.626630
 20
75.870244
 11
215.350614
 21
75.870244
  0
LINE
  8
0
  6
CONTINUOUS
 62
1
 10
214.556864
 20
76.663994
 11
214.556864
 21
78.314002
  0
LINE
  8
0
  6
CONTINUOUS
 62
1
 10
227.256864
 20
100.476494
 11
227.256864
 21
99.729665
  0
LINE
  8
0
  6
CONTINUOUS
 62
1
 10
233.606864
 20
81.377565
 11
233.606864
 21
95.900077
  0
LINE
  8
0
  6
CONTINUOUS
 62
1
 10
230.431864
 20
96.422653
 11
230.431864
 21
81.351479
  0
LINE
  8
0
  6
CONTINUOUS
 62
1
 10
227.629261
 20
99.056983
 11
229.687070
 21
97.768017
  0
LINE
  8
0
  6
CONTINUOUS
 62
1
 10
246.306864
 20
100.476494
 11
246.306864
 21
99.589703
  0
LINE
  8
0
  6
CONTINUOUS
 62
1
 10
245.611566
 20
98.802082
 11
234.997459
 21
97.475319
  0
LINE
  8
0
  6
CONTINUOUS
 62
1
 10
258.187955
 20
79.069320
 11
235.144681
 21
79.790843
  0
LINE
  8
0
  6
CONTINUOUS
 62
1
 10
215.312221
 20
79.106823
 11
228.921149
 21
79.765838
  0
ARC
  8
0
  6
CONTINUOUS
 62
1
 10
235.194364
 20
81.377565
 40
1.587500
 50
180.000000
 51
268.206561
  0
ARC
  8
0
  6
CONTINUOUS
 62
1
 10
235.194364
 20
95.900077
 40
1.587500
 50
97.125016
 51
180.000000
  0
ARC
  8
0
  6
CONTINUOUS
 62
1
 10
228.844364
 20
96.422653
 40
1.587500
 50
0.000000
 51
57.937878
  0
ARC
  8
0
  6
CONTINUOUS
 62
1
 10
228.844364
 20
81.351479
 40
1.587500
 50
272.772394
 51
0.000000
  0
ARC
  8
0
  6
CONTINUOUS
 62
1
 10
215.350614
 20
78.314002
 40
0.793750
 50
92.772394
 51
180.000000
  0
ARC
  8
0
  6
CONTINUOUS
 62
1
 10
215.350614
 20
76.663994
 40
0.793750
 50
180.000000
 51
270.000000
  0
ARC
  8
0
  6
CONTINUOUS
 62
1
 10
245.513114
 20
99.589703
 40
0.793750
 50
277.125016
 51
0.000000
  0
ARC
  8
0
  6
CONTINUOUS
 62
1
 10
245.513114
 20
100.476494
 40
0.793750
 50
0.000000
 51
90.000000
  0
ARC
  8
0
  6
CONTINUOUS
 62
1
 10
228.050614
 20
100.476494
 40
0.793750
 50
90.000000
 51
180.000000
  0
ARC
  8
0
  6
CONTINUOUS
 62
1
 10
228.050614
 20
99.729665
 40
0.793750
 50
180.000000
 51
237.937878
  0
LINE
  8
0
  6
CONTINUOUS
 62
1
 10
259.219476
 20
78.250113
 11
259.219476
 21
76.638148
  0
ARC
  8
0
  6
CONTINUOUS
 62
1
 10
258.425726
 20
76.638148
 40
0.793750
 50
284.661465
 51
0.000000
  0
ARC
  8
0
  6
CONTINUOUS
 62
1
 10
258.425726
 20
78.250113
 40
0.793750
 50
0.000000
 51
88.206561
  0
LINE
  8
0
  6
CONTINUOUS
 62
1
 10
214.556864
 20
68.591441
 11
214.556864
 21
63.623026
  0
LINE
  8
0
  6
CONTINUOUS
 62
1
 10
214.556864
 20
66.107233
 11
232.339236
 21
66.107233
  0
LINE
  8
0
  6
CONTINUOUS
 62
1
 10
214.556864
 20
66.107233
 11
217.556864
 21
65.678662
  0
LINE
  8
0
  6
CONTINUOUS
 62
1
 10
217.556864
 20
65.678662
 11
217.556864
 21
66.321519
  0
LINE
  8
0
  6
CONTINUOUS
 62
1
 10
217.556864
 20
66.321519
 11
215.842578
 21
66.107233
  0
LINE
  8
0
  6
CONTINUOUS
 62
1
 10
215.842578
 20
66.107233
 11
217.556864
 21
65.892947
  0
LINE
  8
0
  6
CONTINUOUS
 62
1
 10
217.556864
 20
65.892947
 11
217.556864
 21
66.535805
  0
LINE
  8
0
  6
CONTINUOUS
 62
1
 10
217.556864
 20
66.535805
 11
214.556864
 21
66.107233
  0
LINE
  8
0
  6
CONTINUOUS
 62
1
 10
259.219476
 20
68.591441
 11
259.219476
 21
63.623026
  0
LINE
  8
0
  6
CONTINUOUS
 62
1
 10
211.786341
 20
101.270244
 11
205.691402
 21
101.270244
  0
LINE
  8
0
  6
CONTINUOUS
 62
1
 10
205.691402
 20
101.270244
 11
205.691402
 21
76.174052
  0
LINE
  8
0
  6
CONTINUOUS
 62
1
 10
205.691402
 20
101.270244
 11
205.262830
 21
98.270244
  0
LINE
  8
0
  6
CONTINUOUS
 62
1
 10
205.262830
 20
98.270244
 11
205.905687
 21
98.270244
  0
LINE
  8
0
  6
CONTINUOUS
 62
1
 10
205.905687
 20
98.270244
 11
205.691402
 21
99.984530
  0
LINE
  8
0
  6
CONTINUOUS
 62
1
 10
205.691402
 20
99.984530
 11
205.477116
 21
98.270244
  0
LINE
  8
0
  6
CONTINUOUS
 62
1
 10
205.477116
 20
98.270244
 11
206.119973
 21
98.270244
  0
LINE
  8
0
  6
CONTINUOUS
 62
1
 10
206.119973
 20
98.270244
 11
205.691402
 21
101.270244
  0
LINE
  8
0
  6
CONTINUOUS
 62
1
 10
205.691402
 20
76.174052
 11
206.119973
 21
79.174052
  0
LINE
  8
0
  6
CONTINUOUS
 62
1
 10
206.119973
 20
79.174052
 11
205.477116
 21
79.174052
  0
LINE
  8
0
  6
CONTINUOUS
 62
1
 10
205.477116
 20
79.174052
 11
205.691402
 21
77.459766
  0
LINE
  8
0
  6
CONTINUOUS
 62
1
 10
205.691402
 20
77.459766
 11
205.905687
 21
79.174052
  0
LINE
  8
0
  6
CONTINUOUS
 62
1
 10
205.905687
 20
79.174052
 11
205.262830
 21
79.174052
  0
LINE
  8
0
  6
CONTINUOUS
 62
1
 10
205.262830
 20
79.174052
 11
205.691402
 21
76.174052
  0
LINE
  8
0
  6
CONTINUOUS
 62
1
 10
209.471615
 20
101.270244
 11
203.661487
 21
101.270244
  0
LINE
  8
0
  6
CONTINUOUS
 62
1
 10
203.661487
 20
76.174052
 11
209.471615
 21
76.174052
  0
LINE
  8
0
  6
CONTINUOUS
 62
1
 10
246.306864
 20
102.401513
 11
246.306864
 21
111.233098
  0
LINE
  8
0
  6
CONTINUOUS
 62
1
 10
246.306864
 20
109.850534
 11
240.632453
 21
109.850534
  0
LINE
  8
0
  6
CONTINUOUS
 62
1
 10
246.306864
 20
109.850534
 11
243.306864
 21
110.279105
  0
LINE
  8
0
  6
CONTINUOUS
 62
1
 10
243.306864
 20
110.279105
 11
243.306864
 21
109.636248
  0
LINE
  8
0
  6
CONTINUOUS
 62
1
 10
243.306864
 20
109.636248
 11
245.021149
 21
109.850534
  0
LINE
  8
0
  6
CONTINUOUS
 62
1
 10
245.021149
 20
109.850534
 11
243.306864
 21
110.064819
  0
LINE
  8
0
  6
CONTINUOUS
 62
1
 10
243.306864
 20
110.064819
 11
243.306864
 21
109.421962
  0
LINE
  8
0
  6
CONTINUOUS
 62
1
 10
243.306864
 20
109.421962
 11
246.306864
 21
109.850534
  0
LINE
  8
0
  6
CONTINUOUS
 62
1
 10
227.256864
 20
102.401513
 11
227.256864
 21
111.233098
  0
TEXT
  8
0
  6
CONTINUOUS
 62
1
 10
204.691402
 20
83.835243
 40
2.000000
  1
25.4mm
 50
90.000000
 41
1.000000
 51
0.000000
  7
STANDARD
  0
TEXT
  8
0
  6
CONTINUOUS
 62
1
 10
208.691402
 20
86.501910
 40
2.000000
  1
(1 )
 50
90.000000
 41
1.000000
 51
0.000000
  7
STANDARD
  0
TEXT
  8
0
  6
CONTINUOUS
 62
1
 10
222.212944
 20
88.248652
 40
2.000000
  1
F3
 50
90.000000
 41
1.000000
 51
0.000000
  7
STANDARD
  0
LINE
  8
0
  6
CONTINUOUS
 62
1
 10
207.105838
 20
89.326520
 11
206.559947
 21
89.326520
  0
LINE
  8
0
  6
CONTINUOUS
 62
1
 10
206.559947
 20
89.826520
 11
207.105838
 21
89.826520
  0
TEXT
  8
0
  6
CONTINUOUS
 62
1
 10
235.781864
 20
105.439819
 40
2.000000
  1
19.0mm
 50
90.000000
 41
1.000000
 51
0.000000
  7
STANDARD
  0
TEXT
  8
0
  6
CONTINUOUS
 62
1
 10
239.781864
 20
105.154105
 40
2.000000
  1
(3/4 )
 50
90.000000
 41
1.000000
 51
0.000000
  7
STANDARD
  0
LINE
  8
0
  6
CONTINUOUS
 62
1
 10
238.228029
 20
112.992156
 11
237.682138
 21
112.992156
  0
LINE
  8
0
  6
CONTINUOUS
 62
1
 10
237.682138
 20
113.492156
 11
238.228029
 21
113.492156
  0
LINE
  8
0
  6
CONTINUOUS
 62
1
 10
233.137358
 20
109.850534
 11
227.256864
 21
109.850534
  0
LINE
  8
0
  6
CONTINUOUS
 62
1
 10
227.256864
 20
109.850534
 11
230.256864
 21
109.421962
  0
LINE
  8
0
  6
CONTINUOUS
 62
1
 10
230.256864
 20
109.421962
 11
230.256864
 21
110.064819
  0
LINE
  8
0
  6
CONTINUOUS
 62
1
 10
230.256864
 20
110.064819
 11
228.542578
 21
109.850534
  0
LINE
  8
0
  6
CONTINUOUS
 62
1
 10
228.542578
 20
109.850534
 11
230.256864
 21
109.636248
  0
LINE
  8
0
  6
CONTINUOUS
 62
1
 10
230.256864
 20
109.636248
 11
230.256864
 21
110.279105
  0
LINE
  8
0
  6
CONTINUOUS
 62
1
 10
230.256864
 20
110.279105
 11
227.256864
 21
109.850534
  0
TEXT
  8
0
  6
CONTINUOUS
 62
1
 10
235.888170
 20
61.029852
 40
2.000000
  1
44.5mm
 50
90.000000
 41
1.000000
 51
0.000000
  7
STANDARD
  0
TEXT
  8
0
  6
CONTINUOUS
 62
1
 10
239.888170
 20
59.791757
 40
2.000000
  1
(1 3/4 )
 50
90.000000
 41
1.000000
 51
0.000000
  7
STANDARD
  0
LINE
  8
0
  6
CONTINUOUS
 62
1
 10
238.310964
 20
70.871444
 11
237.765073
 21
70.871444
  0
LINE
  8
0
  6
CONTINUOUS
 62
1
 10
237.765073
 20
71.371444
 11
238.310964
 21
71.371444
  0
LINE
  8
0
  6
CONTINUOUS
 62
1
 10
242.097947
 20
66.107233
 11
259.219476
 21
66.107233
  0
LINE
  8
0
  6
CONTINUOUS
 62
1
 10
259.219476
 20
66.107233
 11
256.219476
 21
66.535805
  0
LINE
  8
0
  6
CONTINUOUS
 62
1
 10
256.219476
 20
66.535805
 11
256.219476
 21
65.892947
  0
LINE
  8
0
  6
CONTINUOUS
 62
1
 10
256.219476
 20
65.892947
 11
257.933762
 21
66.107233
  0
LINE
  8
0
  6
CONTINUOUS
 62
1
 10
257.933762
 20
66.107233
 11
256.219476
 21
66.321519
  0
LINE
  8
0
  6
CONTINUOUS
 62
1
 10
256.219476
 20
66.321519
 11
256.219476
 21
65.678662
  0
LINE
  8
0
  6
CONTINUOUS
 62
1
 10
256.219476
 20
65.678662
 11
259.219476
 21
66.107233
  0
ENDSEC
  0
EOF
