  0
SECTION
  2
HEADER
  9
$LIMMIN
 10
0.000000
 20
0.000000
  9
$LIMMAX
 10
297.301779
 20
210.224104
  9
$EXTMIN
 10
0.000000
 20
0.000000
  9
$EXTMAX
 10
297.301779
 20
210.224104
  9
$ANGBASE
 50
0.0
  9
$ANGDIR
 70
0
  9
$DIMRND
 40
0.100000
  9
$DIMSE1
 70
0
  9
$DIMSE2
 70
0
  9
$DIMTXT
 40
2.500000
  9
$LTSCALE
 40
1.000000
  9
$LUPREC
 70
3
  9
$AUPREC
 70
3
  9
$PDMODE
 70
2
  9
$PDSIZE
 40
1.486509
  0
ENDSEC
  0
SECTION
  2
TABLES
  0
TABLE
  2
VPORT
  70
1
  0
VPORT
  2
*ACTIVE
 70
0
  10
0.0
 20
0.0
 11
1.0
 21
1.0
 12
594.0
 22
420.0
 13
0.0
 23
0.0
 14
10.0
 24
10.0
 15
10.0
 25
10.0
 16
0.0
 26
0.0
 36
1.0
 17
594.0
 27
420.0
 37
100.0
 40
1000.0
 41
1.0
 42
50.0
 43
0.0
 44
0.0
 50
0.0
 51
0.0
 71
0
 72
2000
 73
1
 74
3
 75
0
 76
0
 77
0
 78
1
  0
ENDTAB
  0
TABLE
  2
LTYPE
 70
4
  0
LTYPE
  2
CONTINUOUS
 70
0
  3
Solid line
 72
65
 73
0
 40
0.0
  0
LTYPE
  2
DASHED
 70
0
  3
Dashed line
 72
65
 73
2
 40
6.000000
 49
3.000000
 49
-3.000000
  0
LTYPE
  2
CENTER
 70
0
  3
Chain line
 72
65
 73
4
 40
24.000000
 49
15.000000
 49
-3.000000
 49
3.000000
 49
-3.000000
  0
LTYPE
  2
RANDOM
 70
0
  3
Random line
 72
65
 73
4
 40
22.500000
 49
6.000000
 49
-3.000000
 49
4.500000
 49
-9.000000
  0
ENDTAB
  0
TABLE
  2
STYLE
 70
9
  0
STYLE
  2
STANDARD
 40
0
 41
1.0
 50
0.0
 71
0
 42
0
  3
simplex
  4

 70
0
  0
ENDTAB
  0
TABLE
  2
LAYER
 70
2
  0
LAYER
  2
0
 70
0
 62
7
  6
CONTINUOUS
  0
LAYER
  2
0
 62
1
  6
CONTINUOUS
 70
0
  0
ENDTAB
  0
ENDSEC
  0
SECTION
  2
BLOCKS
  0
ENDSEC
  0
SECTION
  2
ENTITIES
  0
LINE
  8
0
  6
CONTINUOUS
 62
1
 10
17.709024
 20
175.875224
 11
22.771524
 21
175.875224
  0
LINE
  8
0
  6
CONTINUOUS
 62
1
 10
17.709024
 20
188.868974
 11
22.771524
 21
188.868974
  0
LINE
  8
0
  6
CONTINUOUS
 62
1
 10
22.771524
 20
189.881474
 11
18.813570
 21
189.881474
  0
LINE
  8
0
  6
CONTINUOUS
 62
1
 10
22.771524
 20
174.862724
 11
18.813570
 21
174.862724
  0
LINE
  8
0
  6
CONTINUOUS
 62
1
 10
13.152774
 20
184.692412
 11
13.152774
 21
180.051787
  0
LINE
  8
0
  6
CONTINUOUS
 62
1
 10
14.165274
 20
179.123662
 11
14.165274
 21
181.865849
  0
LINE
  8
0
  6
CONTINUOUS
 62
1
 10
14.165274
 20
182.878349
 11
14.165274
 21
185.620537
  0
LINE
  8
0
  6
CONTINUOUS
 62
1
 10
13.152774
 20
180.051787
 11
10.621524
 21
182.372099
  0
LINE
  8
0
  6
CONTINUOUS
 62
1
 10
22.771524
 20
171.234599
 11
18.813570
 21
174.862724
  0
LINE
  8
0
  6
CONTINUOUS
 62
1
 10
16.696524
 20
176.803349
 11
14.165274
 21
179.123662
  0
LINE
  8
0
  6
CONTINUOUS
 62
1
 10
18.813570
 20
189.881474
 11
22.771524
 21
193.509599
  0
LINE
  8
0
  6
CONTINUOUS
 62
1
 10
10.621524
 20
182.372099
 11
13.152774
 21
184.692412
  0
LINE
  8
0
  6
CONTINUOUS
 62
1
 10
14.165274
 20
185.620537
 11
16.696524
 21
187.940849
  0
LINE
  8
0
  6
CONTINUOUS
 62
1
 10
22.771524
 20
174.862724
 11
22.771524
 21
171.234599
  0
LINE
  8
0
  6
CONTINUOUS
 62
1
 10
22.771524
 20
181.865849
 11
22.771524
 21
175.875224
  0
LINE
  8
0
  6
CONTINUOUS
 62
1
 10
22.771524
 20
193.509599
 11
22.771524
 21
189.881474
  0
LINE
  8
0
  6
CONTINUOUS
 62
1
 10
22.771524
 20
188.868974
 11
22.771524
 21
182.878349
  0
LINE
  8
0
  6
CONTINUOUS
 62
1
 10
22.771524
 20
181.865849
 11
17.709024
 21
181.865849
  0
LINE
  8
0
  6
CONTINUOUS
 62
1
 10
16.696524
 20
181.865849
 11
14.165274
 21
181.865849
  0
LINE
  8
0
  6
CONTINUOUS
 62
1
 10
22.771524
 20
182.878349
 11
17.709024
 21
182.878349
  0
LINE
  8
0
  6
CONTINUOUS
 62
1
 10
16.696524
 20
182.878349
 11
14.165274
 21
182.878349
  0
LINE
  8
0
  6
CONTINUOUS
 62
1
 10
16.696524
 20
187.940849
 11
16.696524
 21
182.878349
  0
LINE
  8
0
  6
CONTINUOUS
 62
1
 10
16.696524
 20
181.865849
 11
16.696524
 21
176.803349
  0
LINE
  8
0
  6
CONTINUOUS
 62
1
 10
17.709024
 20
175.875224
 11
17.709024
 21
181.865849
  0
LINE
  8
0
  6
CONTINUOUS
 62
1
 10
17.709024
 20
182.878349
 11
17.709024
 21
188.868974
  0
LINE
  8
0
  6
CONTINUOUS
 62
1
 10
12.950274
 20
180.237412
 11
12.950274
 21
184.506787
  0
LINE
  8
0
  6
CONTINUOUS
 62
1
 10
12.747774
 20
184.321162
 11
12.747774
 21
180.423037
  0
LINE
  8
0
  6
CONTINUOUS
 62
1
 10
12.545274
 20
180.608662
 11
12.545274
 21
184.135537
  0
LINE
  8
0
  6
CONTINUOUS
 62
1
 10
12.342774
 20
183.949912
 11
12.342774
 21
180.794287
  0
LINE
  8
0
  6
CONTINUOUS
 62
1
 10
12.140274
 20
180.979912
 11
12.140274
 21
183.764287
  0
LINE
  8
0
  6
CONTINUOUS
 62
1
 10
11.937774
 20
183.578662
 11
11.937774
 21
181.165537
  0
LINE
  8
0
  6
CONTINUOUS
 62
1
 10
11.735274
 20
181.351162
 11
11.735274
 21
183.393037
  0
LINE
  8
0
  6
CONTINUOUS
 62
1
 10
11.532774
 20
183.207412
 11
11.532774
 21
181.536787
  0
LINE
  8
0
  6
CONTINUOUS
 62
1
 10
11.330274
 20
181.722412
 11
11.330274
 21
183.021787
  0
LINE
  8
0
  6
CONTINUOUS
 62
1
 10
11.127774
 20
182.836162
 11
11.127774
 21
181.908037
  0
LINE
  8
0
  6
CONTINUOUS
 62
1
 10
10.925274
 20
182.093662
 11
10.925274
 21
182.650537
  0
LINE
  8
0
  6
CONTINUOUS
 62
1
 10
10.722774
 20
182.464912
 11
10.722774
 21
182.279287
  0
LINE
  8
0
  6
CONTINUOUS
 62
1
 10
22.366524
 20
175.875224
 11
22.366524
 21
181.865849
  0
LINE
  8
0
  6
CONTINUOUS
 62
1
 10
21.961524
 20
181.865849
 11
21.961524
 21
175.875224
  0
LINE
  8
0
  6
CONTINUOUS
 62
1
 10
21.556524
 20
175.875224
 11
21.556524
 21
181.865849
  0
LINE
  8
0
  6
CONTINUOUS
 62
1
 10
21.151524
 20
181.865849
 11
21.151524
 21
175.875224
  0
LINE
  8
0
  6
CONTINUOUS
 62
1
 10
20.746524
 20
175.875224
 11
20.746524
 21
181.865849
  0
LINE
  8
0
  6
CONTINUOUS
 62
1
 10
20.341524
 20
181.865849
 11
20.341524
 21
175.875224
  0
LINE
  8
0
  6
CONTINUOUS
 62
1
 10
19.936524
 20
175.875224
 11
19.936524
 21
181.865849
  0
LINE
  8
0
  6
CONTINUOUS
 62
1
 10
19.531524
 20
181.865849
 11
19.531524
 21
175.875224
  0
LINE
  8
0
  6
CONTINUOUS
 62
1
 10
19.126524
 20
175.875224
 11
19.126524
 21
181.865849
  0
LINE
  8
0
  6
CONTINUOUS
 62
1
 10
18.721524
 20
181.865849
 11
18.721524
 21
175.875224
  0
LINE
  8
0
  6
CONTINUOUS
 62
1
 10
18.316524
 20
175.875224
 11
18.316524
 21
181.865849
  0
LINE
  8
0
  6
CONTINUOUS
 62
1
 10
17.911524
 20
181.865849
 11
17.911524
 21
175.875224
  0
LINE
  8
0
  6
CONTINUOUS
 62
1
 10
22.366524
 20
182.878349
 11
22.366524
 21
188.868974
  0
LINE
  8
0
  6
CONTINUOUS
 62
1
 10
21.961524
 20
188.868974
 11
21.961524
 21
182.878349
  0
LINE
  8
0
  6
CONTINUOUS
 62
1
 10
21.556524
 20
182.878349
 11
21.556524
 21
188.868974
  0
LINE
  8
0
  6
CONTINUOUS
 62
1
 10
21.151524
 20
188.868974
 11
21.151524
 21
182.878349
  0
LINE
  8
0
  6
CONTINUOUS
 62
1
 10
21.151524
 20
188.868974
 11
21.151524
 21
182.878349
  0
LINE
  8
0
  6
CONTINUOUS
 62
1
 10
20.746524
 20
182.878349
 11
20.746524
 21
188.868974
  0
LINE
  8
0
  6
CONTINUOUS
 62
1
 10
20.341524
 20
188.868974
 11
20.341524
 21
182.878349
  0
LINE
  8
0
  6
CONTINUOUS
 62
1
 10
19.936524
 20
182.878349
 11
19.936524
 21
188.868974
  0
LINE
  8
0
  6
CONTINUOUS
 62
1
 10
19.531524
 20
188.868974
 11
19.531524
 21
182.878349
  0
LINE
  8
0
  6
CONTINUOUS
 62
1
 10
19.126524
 20
182.878349
 11
19.126524
 21
188.868974
  0
LINE
  8
0
  6
CONTINUOUS
 62
1
 10
18.721524
 20
188.868974
 11
18.721524
 21
182.878349
  0
LINE
  8
0
  6
CONTINUOUS
 62
1
 10
18.316524
 20
182.878349
 11
18.316524
 21
188.868974
  0
LINE
  8
0
  6
CONTINUOUS
 62
1
 10
17.911524
 20
188.868974
 11
17.911524
 21
182.878349
  0
LINE
  8
0
  6
CONTINUOUS
 62
1
 10
16.291524
 20
182.878349
 11
16.291524
 21
187.569599
  0
LINE
  8
0
  6
CONTINUOUS
 62
1
 10
15.886524
 20
187.198349
 11
15.886524
 21
182.878349
  0
LINE
  8
0
  6
CONTINUOUS
 62
1
 10
15.481524
 20
182.878349
 11
15.481524
 21
186.827099
  0
LINE
  8
0
  6
CONTINUOUS
 62
1
 10
15.076524
 20
186.455849
 11
15.076524
 21
182.878349
  0
LINE
  8
0
  6
CONTINUOUS
 62
1
 10
14.671524
 20
182.878349
 11
14.671524
 21
186.084599
  0
LINE
  8
0
  6
CONTINUOUS
 62
1
 10
14.266524
 20
185.713349
 11
14.266524
 21
182.878349
  0
LINE
  8
0
  6
CONTINUOUS
 62
1
 10
16.291524
 20
177.174599
 11
16.291524
 21
181.865849
  0
LINE
  8
0
  6
CONTINUOUS
 62
1
 10
15.886524
 20
181.865849
 11
15.886524
 21
177.545849
  0
LINE
  8
0
  6
CONTINUOUS
 62
1
 10
15.481524
 20
177.917099
 11
15.481524
 21
181.865849
  0
LINE
  8
0
  6
CONTINUOUS
 62
1
 10
15.076524
 20
181.865849
 11
15.076524
 21
178.288349
  0
LINE
  8
0
  6
CONTINUOUS
 62
1
 10
14.671524
 20
178.659599
 11
14.671524
 21
181.865849
  0
LINE
  8
0
  6
CONTINUOUS
 62
1
 10
14.266524
 20
181.865849
 11
14.266524
 21
179.030849
  0
LINE
  8
0
  6
CONTINUOUS
 62
1
 10
22.366524
 20
171.605849
 11
22.366524
 21
174.862724
  0
LINE
  8
0
  6
CONTINUOUS
 62
1
 10
21.961524
 20
174.862724
 11
21.961524
 21
171.977099
  0
LINE
  8
0
  6
CONTINUOUS
 62
1
 10
21.556524
 20
172.348349
 11
21.556524
 21
174.862724
  0
LINE
  8
0
  6
CONTINUOUS
 62
1
 10
21.151524
 20
174.862724
 11
21.151524
 21
172.719599
  0
LINE
  8
0
  6
CONTINUOUS
 62
1
 10
20.746524
 20
173.090849
 11
20.746524
 21
174.862724
  0
LINE
  8
0
  6
CONTINUOUS
 62
1
 10
20.341524
 20
174.862724
 11
20.341524
 21
173.462099
  0
LINE
  8
0
  6
CONTINUOUS
 62
1
 10
19.936524
 20
173.833349
 11
19.936524
 21
174.862724
  0
LINE
  8
0
  6
CONTINUOUS
 62
1
 10
19.531524
 20
174.862724
 11
19.531524
 21
174.204599
  0
LINE
  8
0
  6
CONTINUOUS
 62
1
 10
19.126524
 20
174.575849
 11
19.126524
 21
174.862724
  0
LINE
  8
0
  6
CONTINUOUS
 62
1
 10
22.366524
 20
189.881474
 11
22.366524
 21
193.138349
  0
LINE
  8
0
  6
CONTINUOUS
 62
1
 10
21.961524
 20
192.767099
 11
21.961524
 21
189.881474
  0
LINE
  8
0
  6
CONTINUOUS
 62
1
 10
21.556524
 20
189.881474
 11
21.556524
 21
192.395849
  0
LINE
  8
0
  6
CONTINUOUS
 62
1
 10
21.151524
 20
192.024599
 11
21.151524
 21
189.881474
  0
LINE
  8
0
  6
CONTINUOUS
 62
1
 10
20.746524
 20
189.881474
 11
20.746524
 21
191.653349
  0
LINE
  8
0
  6
CONTINUOUS
 62
1
 10
20.341524
 20
191.282099
 11
20.341524
 21
189.881474
  0
LINE
  8
0
  6
CONTINUOUS
 62
1
 10
19.936524
 20
189.881474
 11
19.936524
 21
190.910849
  0
LINE
  8
0
  6
CONTINUOUS
 62
1
 10
19.531524
 20
190.539599
 11
19.531524
 21
189.881474
  0
LINE
  8
0
  6
CONTINUOUS
 62
1
 10
19.126524
 20
189.881474
 11
19.126524
 21
190.168349
  0
LINE
  8
0
  6
CONTINUOUS
 62
1
 10
22.569024
 20
175.875224
 11
22.569024
 21
181.865849
  0
LINE
  8
0
  6
CONTINUOUS
 62
1
 10
22.164024
 20
181.865849
 11
22.164024
 21
175.875224
  0
LINE
  8
0
  6
CONTINUOUS
 62
1
 10
21.759024
 20
181.865849
 11
21.759024
 21
175.875224
  0
LINE
  8
0
  6
CONTINUOUS
 62
1
 10
21.354024
 20
175.875224
 11
21.354024
 21
181.865849
  0
LINE
  8
0
  6
CONTINUOUS
 62
1
 10
19.329024
 20
175.875224
 11
19.329024
 21
181.865849
  0
LINE
  8
0
  6
CONTINUOUS
 62
1
 10
18.924024
 20
181.865849
 11
18.924024
 21
175.875224
  0
LINE
  8
0
  6
CONTINUOUS
 62
1
 10
18.519024
 20
175.875224
 11
18.519024
 21
181.865849
  0
LINE
  8
0
  6
CONTINUOUS
 62
1
 10
18.114024
 20
181.865849
 11
18.114024
 21
175.875224
  0
LINE
  8
0
  6
CONTINUOUS
 62
1
 10
19.734024
 20
181.865849
 11
19.734024
 21
175.875224
  0
LINE
  8
0
  6
CONTINUOUS
 62
1
 10
20.139024
 20
175.875224
 11
20.139024
 21
181.865849
  0
LINE
  8
0
  6
CONTINUOUS
 62
1
 10
20.544024
 20
181.865849
 11
20.544024
 21
175.875224
  0
LINE
  8
0
  6
CONTINUOUS
 62
1
 10
20.949024
 20
175.875224
 11
20.949024
 21
181.865849
  0
LINE
  8
0
  6
CONTINUOUS
 62
1
 10
22.569024
 20
182.878349
 11
22.569024
 21
188.868974
  0
LINE
  8
0
  6
CONTINUOUS
 62
1
 10
22.164024
 20
188.868974
 11
22.164024
 21
182.878349
  0
LINE
  8
0
  6
CONTINUOUS
 62
1
 10
18.114024
 20
182.878349
 11
18.114024
 21
188.868974
  0
LINE
  8
0
  6
CONTINUOUS
 62
1
 10
18.519024
 20
188.868974
 11
18.519024
 21
182.878349
  0
LINE
  8
0
  6
CONTINUOUS
 62
1
 10
18.924024
 20
188.868974
 11
18.924024
 21
182.878349
  0
LINE
  8
0
  6
CONTINUOUS
 62
1
 10
19.329024
 20
182.878349
 11
19.329024
 21
188.868974
  0
LINE
  8
0
  6
CONTINUOUS
 62
1
 10
19.734024
 20
182.878349
 11
19.734024
 21
188.868974
  0
LINE
  8
0
  6
CONTINUOUS
 62
1
 10
20.139024
 20
182.878349
 11
20.139024
 21
188.868974
  0
LINE
  8
0
  6
CONTINUOUS
 62
1
 10
20.544024
 20
182.878349
 11
20.544024
 21
188.868974
  0
LINE
  8
0
  6
CONTINUOUS
 62
1
 10
20.949024
 20
188.868974
 11
20.949024
 21
182.878349
  0
LINE
  8
0
  6
CONTINUOUS
 62
1
 10
21.354024
 20
188.868974
 11
21.354024
 21
182.878349
  0
LINE
  8
0
  6
CONTINUOUS
 62
1
 10
21.759024
 20
182.878349
 11
21.759024
 21
188.868974
  0
LINE
  8
0
  6
CONTINUOUS
 62
1
 10
22.569024
 20
189.881474
 11
22.569024
 21
193.323974
  0
LINE
  8
0
  6
CONTINUOUS
 62
1
 10
22.164024
 20
192.952724
 11
22.164024
 21
189.881474
  0
LINE
  8
0
  6
CONTINUOUS
 62
1
 10
21.759024
 20
189.881474
 11
21.759024
 21
192.581474
  0
LINE
  8
0
  6
CONTINUOUS
 62
1
 10
21.354024
 20
192.210224
 11
21.354024
 21
189.881474
  0
LINE
  8
0
  6
CONTINUOUS
 62
1
 10
20.949024
 20
189.881474
 11
20.949024
 21
191.838974
  0
LINE
  8
0
  6
CONTINUOUS
 62
1
 10
20.544024
 20
191.467724
 11
20.544024
 21
189.881474
  0
LINE
  8
0
  6
CONTINUOUS
 62
1
 10
20.139024
 20
191.096474
 11
20.139024
 21
189.881474
  0
LINE
  8
0
  6
CONTINUOUS
 62
1
 10
19.734024
 20
190.725224
 11
19.734024
 21
189.881474
  0
LINE
  8
0
  6
CONTINUOUS
 62
1
 10
19.329024
 20
189.881474
 11
19.329024
 21
190.353974
  0
LINE
  8
0
  6
CONTINUOUS
 62
1
 10
18.924024
 20
189.982724
 11
18.924024
 21
189.881474
  0
LINE
  8
0
  6
CONTINUOUS
 62
1
 10
22.569024
 20
171.420224
 11
22.569024
 21
174.862724
  0
LINE
  8
0
  6
CONTINUOUS
 62
1
 10
22.164024
 20
174.862724
 11
22.164024
 21
171.791474
  0
LINE
  8
0
  6
CONTINUOUS
 62
1
 10
21.759024
 20
172.162724
 11
21.759024
 21
174.862724
  0
LINE
  8
0
  6
CONTINUOUS
 62
1
 10
21.354024
 20
174.862724
 11
21.354024
 21
172.533974
  0
LINE
  8
0
  6
CONTINUOUS
 62
1
 10
20.949024
 20
172.905224
 11
20.949024
 21
174.862724
  0
LINE
  8
0
  6
CONTINUOUS
 62
1
 10
20.544024
 20
174.862724
 11
20.544024
 21
173.276474
  0
LINE
  8
0
  6
CONTINUOUS
 62
1
 10
20.139024
 20
173.647724
 11
20.139024
 21
174.862724
  0
LINE
  8
0
  6
CONTINUOUS
 62
1
 10
19.734024
 20
174.862724
 11
19.734024
 21
174.018974
  0
LINE
  8
0
  6
CONTINUOUS
 62
1
 10
19.329024
 20
174.390224
 11
19.329024
 21
174.862724
  0
LINE
  8
0
  6
CONTINUOUS
 62
1
 10
18.924024
 20
174.862724
 11
18.924024
 21
174.761474
  0
LINE
  8
0
  6
CONTINUOUS
 62
1
 10
16.494024
 20
182.878349
 11
16.494024
 21
187.755224
  0
LINE
  8
0
  6
CONTINUOUS
 62
1
 10
16.089024
 20
187.383974
 11
16.089024
 21
182.878349
  0
LINE
  8
0
  6
CONTINUOUS
 62
1
 10
15.684024
 20
182.878349
 11
15.684024
 21
187.012724
  0
LINE
  8
0
  6
CONTINUOUS
 62
1
 10
15.279024
 20
186.641474
 11
15.279024
 21
182.878349
  0
LINE
  8
0
  6
CONTINUOUS
 62
1
 10
14.874024
 20
182.878349
 11
14.874024
 21
186.270224
  0
LINE
  8
0
  6
CONTINUOUS
 62
1
 10
14.469024
 20
185.898974
 11
14.469024
 21
182.878349
  0
LINE
  8
0
  6
CONTINUOUS
 62
1
 10
14.469024
 20
181.865849
 11
14.469024
 21
178.845224
  0
LINE
  8
0
  6
CONTINUOUS
 62
1
 10
14.874024
 20
178.473974
 11
14.874024
 21
181.865849
  0
LINE
  8
0
  6
CONTINUOUS
 62
1
 10
15.279024
 20
181.865849
 11
15.279024
 21
178.102724
  0
LINE
  8
0
  6
CONTINUOUS
 62
1
 10
15.684024
 20
177.731474
 11
15.684024
 21
181.865849
  0
LINE
  8
0
  6
CONTINUOUS
 62
1
 10
16.089024
 20
181.865849
 11
16.089024
 21
177.360224
  0
LINE
  8
0
  6
CONTINUOUS
 62
1
 10
16.494024
 20
176.988974
 11
16.494024
 21
181.865849
  0
LINE
  8
0
  6
CONTINUOUS
 62
1
 10
33.571524
 20
198.957126
 11
33.571524
 21
165.787045
  0
LINE
  8
0
  6
CONTINUOUS
 62
1
 10
24.796524
 20
165.787045
 11
24.796524
 21
198.957126
  0
ARC
  8
0
  6
CONTINUOUS
 62
1
 10
27.461923
 20
168.074104
 40
1.075798
 50
101.065051
 51
132.065051
  0
ARC
  8
0
  6
CONTINUOUS
 62
1
 10
27.572266
 20
168.135782
 40
1.110793
 50
138.434949
 51
168.434949
  0
ARC
  8
0
  6
CONTINUOUS
 62
1
 10
28.788962
 20
167.972760
 40
2.336988
 50
170.500000
 51
189.499999
  0
ARC
  8
0
  6
CONTINUOUS
 62
1
 10
28.208722
 20
167.511743
 40
1.726341
 50
177.500000
 51
272.499999
  0
LINE
  8
0
  6
CONTINUOUS
 62
1
 10
28.284024
 20
165.787045
 11
29.826881
 21
165.787045
  0
ARC
  8
0
  6
CONTINUOUS
 62
1
 10
29.701546
 20
168.734479
 40
2.950098
 50
272.434949
 51
304.434949
  0
ARC
  8
0
  6
CONTINUOUS
 62
1
 10
30.617539
 20
167.320288
 40
1.266522
 50
306.434949
 51
0.434948
  0
LINE
  8
0
  6
CONTINUOUS
 62
1
 10
31.884024
 20
167.329902
 11
31.884024
 21
167.844188
  0
ARC
  8
0
  6
CONTINUOUS
 62
1
 10
30.643121
 20
167.905751
 40
1.242430
 50
357.159808
 51
80.159810
  0
LINE
  8
0
  6
CONTINUOUS
 62
1
 10
31.884024
 20
170.415617
 11
26.484024
 21
170.415617
  0
LINE
  8
0
  6
CONTINUOUS
 62
1
 10
26.484024
 20
170.415617
 11
26.484024
 21
172.729902
  0
ARC
  8
0
  6
CONTINUOUS
 62
1
 10
27.512596
 20
172.729902
 40
1.028571
 50
90.000000
 51
180.000000
  0
ARC
  8
0
  6
CONTINUOUS
 62
1
 10
27.512596
 20
172.472760
 40
1.285714
 50
0.000001
 51
90.000000
  0
LINE
  8
0
  6
CONTINUOUS
 62
1
 10
28.798310
 20
172.472760
 11
28.798310
 21
170.158474
  0
LINE
  8
0
  6
CONTINUOUS
 62
1
 10
28.798310
 20
171.958474
 11
31.884024
 21
173.758474
  0
LINE
  8
0
  6
CONTINUOUS
 62
1
 10
31.884024
 20
175.044188
 11
26.484024
 21
175.044188
  0
LINE
  8
0
  6
CONTINUOUS
 62
1
 10
26.484024
 20
178.129902
 11
31.884024
 21
178.129902
  0
LINE
  8
0
  6
CONTINUOUS
 62
1
 10
26.484024
 20
176.329902
 11
26.484024
 21
179.929902
  0
LINE
  8
0
  6
CONTINUOUS
 62
1
 10
26.484024
 20
183.015617
 11
31.884024
 21
183.015617
  0
LINE
  8
0
  6
CONTINUOUS
 62
1
 10
26.484024
 20
181.215617
 11
26.484024
 21
184.815617
  0
LINE
  8
0
  6
CONTINUOUS
 62
1
 10
31.884024
 20
186.101331
 11
26.484024
 21
188.158474
  0
LINE
  8
0
  6
CONTINUOUS
 62
1
 10
26.484024
 20
188.158474
 11
31.884024
 21
190.215617
  0
LINE
  8
0
  6
CONTINUOUS
 62
1
 10
30.084024
 20
186.872760
 11
30.084024
 21
189.701331
  0
LINE
  8
0
  6
CONTINUOUS
 62
1
 10
31.884024
 20
191.501331
 11
26.484024
 21
191.501331
  0
LINE
  8
0
  6
CONTINUOUS
 62
1
 10
31.884024
 20
191.501331
 11
31.884024
 21
194.587045
  0
LINE
  8
0
  6
CONTINUOUS
 62
1
 10
31.884024
 20
195.872760
 11
26.484024
 21
195.872760
  0
LINE
  8
0
  6
CONTINUOUS
 62
1
 10
31.884024
 20
195.872760
 11
31.884024
 21
198.958474
  0
TEXT
  8
0
  6
CONTINUOUS
 62
1
 10
20.000000
 20
20.843750
 40
6.000000
  1
Composite Windows
 50
90.000000
 41
1.000000
 51
0.000000
  7
STANDARD
  0
TEXT
  8
0
  6
CONTINUOUS
 62
1
 10
277.476378
 20
19.947503
 40
2.000000
  1
This drawing is the property of Crittall Windows Ltd and is a
 50
90.000000
 41
1.000000
 51
0.000000
  7
STANDARD
  0
TEXT
  8
0
  6
CONTINUOUS
 62
1
 10
281.476378
 20
19.947503
 40
2.000000
  1
confidential document and must not be copied or its contents
 50
90.000000
 41
1.000000
 51
0.000000
  7
STANDARD
  0
TEXT
  8
0
  6
CONTINUOUS
 62
1
 10
285.476378
 20
19.947503
 40
2.000000
  1
divulged without prior consent.
 50
90.000000
 41
1.000000
 51
0.000000
  7
STANDARD
  0
LINE
  8
0
  6
CONTINUOUS
 62
1
 10
248.875000
 20
194.750000
 11
247.000000
 21
195.125000
  0
ARC
  8
0
  6
CONTINUOUS
 62
1
 10
253.476645
 20
194.005033
 40
6.572766
 50
132.189205
 51
170.189206
  0
ARC
  8
0
  6
CONTINUOUS
 62
1
 10
252.896828
 20
194.099269
 40
6.124514
 50
83.760205
 51
128.760205
  0
ARC
  8
0
  6
CONTINUOUS
 62
1
 10
253.603472
 20
194.429723
 40
5.757923
 50
20.407710
 51
90.407711
  0
ARC
  8
0
  6
CONTINUOUS
 62
1
 10
249.641348
 20
192.523066
 40
10.144316
 50
334.698047
 51
22.698047
  0
ARC
  8
0
  6
CONTINUOUS
 62
1
 10
253.553432
 20
190.730485
 40
5.841624
 50
281.194241
 51
334.194240
  0
ARC
  8
0
  6
CONTINUOUS
 62
1
 10
253.045255
 20
190.972177
 40
6.193857
 50
234.375329
 51
285.375328
  0
ARC
  8
0
  6
CONTINUOUS
 62
1
 10
253.619172
 20
190.904317
 40
6.492738
 50
195.905245
 51
229.905243
  0
LINE
  8
0
  6
CONTINUOUS
 62
1
 10
247.375000
 20
189.125000
 11
249.250000
 21
189.687500
  0
ARC
  8
0
  6
CONTINUOUS
 62
1
 10
253.383590
 20
190.655953
 40
4.245523
 50
193.185925
 51
249.185926
  0
ARC
  8
0
  6
CONTINUOUS
 62
1
 10
253.150721
 20
191.147114
 40
4.638494
 50
254.036243
 51
314.036243
  0
ARC
  8
0
  6
CONTINUOUS
 62
1
 10
250.036920
 20
192.440009
 40
7.847618
 50
323.866366
 51
12.866365
  0
ARC
  8
0
  6
CONTINUOUS
 62
1
 10
252.174284
 20
193.539736
 40
5.551140
 50
6.701124
 51
43.701125
  0
ARC
  8
0
  6
CONTINUOUS
 62
1
 10
253.130790
 20
193.701632
 40
4.778819
 50
50.235226
 51
105.235225
  0
ARC
  8
0
  6
CONTINUOUS
 62
1
 10
253.398962
 20
193.984755
 40
4.588228
 50
109.399092
 51
170.399094
  0
ARC
  8
0
  6
CONTINUOUS
 62
1
 10
235.124992
 20
192.500946
 40
9.111727
 50
346.911226
 51
26.911227
  0
ARC
  8
0
  6
CONTINUOUS
 62
1
 10
237.361167
 20
191.543052
 40
6.730256
 50
283.545409
 51
350.545408
  0
ARC
  8
0
  6
CONTINUOUS
 62
1
 10
237.143785
 20
191.996021
 40
7.222307
 50
234.380344
 51
284.380345
  0
ARC
  8
0
  6
CONTINUOUS
 62
1
 10
237.654381
 20
192.013881
 40
7.545057
 50
176.305945
 51
231.305944
  0
ARC
  8
0
  6
CONTINUOUS
 62
1
 10
237.654381
 20
192.986119
 40
7.545057
 50
128.694058
 51
183.694056
  0
ARC
  8
0
  6
CONTINUOUS
 62
1
 10
237.171794
 20
192.854601
 40
7.360330
 50
76.119656
 51
125.119655
  0
ARC
  8
0
  6
CONTINUOUS
 62
1
 10
237.474895
 20
193.688407
 40
6.478844
 50
26.952957
 51
76.952957
  0
ARC
  8
0
  6
CONTINUOUS
 62
1
 10
237.196683
 20
193.496002
 40
5.004282
 50
33.389540
 51
89.389541
  0
ARC
  8
0
  6
CONTINUOUS
 62
1
 10
237.087057
 20
193.668076
 40
4.834670
 50
88.068592
 51
167.068594
  0
ARC
  8
0
  6
CONTINUOUS
 62
1
 10
239.698676
 20
192.498514
 40
7.661947
 50
162.911227
 51
210.911227
  0
ARC
  8
0
  6
CONTINUOUS
 62
1
 10
237.088889
 20
191.373888
 40
4.859662
 50
215.346176
 51
285.346177
  0
ARC
  8
0
  6
CONTINUOUS
 62
1
 10
237.417728
 20
191.267476
 40
4.678947
 50
281.805571
 51
337.805572
  0
ARC
  8
0
  6
CONTINUOUS
 62
1
 10
233.800532
 20
192.443779
 40
8.477021
 50
339.679830
 51
26.679832
  0
LINE
  8
0
  6
CONTINUOUS
 62
1
 10
226.937500
 20
191.937500
 11
226.937500
 21
185.000000
  0
LINE
  8
0
  6
CONTINUOUS
 62
1
 10
226.937500
 20
185.000000
 11
223.937500
 21
185.000000
  0
LINE
  8
0
  6
CONTINUOUS
 62
1
 10
223.937500
 20
185.000000
 11
221.875000
 21
191.375000
  0
LINE
  8
0
  6
CONTINUOUS
 62
1
 10
221.875000
 20
191.375000
 11
219.812500
 21
197.750000
  0
LINE
  8
0
  6
CONTINUOUS
 62
1
 10
219.812500
 20
197.750000
 11
217.750000
 21
191.000000
  0
LINE
  8
0
  6
CONTINUOUS
 62
1
 10
217.750000
 20
191.000000
 11
215.875000
 21
185.000000
  0
LINE
  8
0
  6
CONTINUOUS
 62
1
 10
215.875000
 20
185.000000
 11
212.687500
 21
185.000000
  0
LINE
  8
0
  6
CONTINUOUS
 62
1
 10
212.687500
 20
185.000000
 11
212.687500
 21
192.875000
  0
LINE
  8
0
  6
CONTINUOUS
 62
1
 10
212.687500
 20
192.875000
 11
212.687500
 21
200.000000
  0
LINE
  8
0
  6
CONTINUOUS
 62
1
 10
212.687500
 20
200.000000
 11
214.750000
 21
200.000000
  0
LINE
  8
0
  6
CONTINUOUS
 62
1
 10
214.750000
 20
200.000000
 11
214.750000
 21
193.062500
  0
LINE
  8
0
  6
CONTINUOUS
 62
1
 10
214.750000
 20
193.062500
 11
214.750000
 21
187.062500
  0
LINE
  8
0
  6
CONTINUOUS
 62
1
 10
214.750000
 20
187.062500
 11
216.625000
 21
193.250000
  0
LINE
  8
0
  6
CONTINUOUS
 62
1
 10
216.625000
 20
193.250000
 11
218.687500
 21
200.000000
  0
LINE
  8
0
  6
CONTINUOUS
 62
1
 10
218.687500
 20
200.000000
 11
220.937500
 21
200.000000
  0
LINE
  8
0
  6
CONTINUOUS
 62
1
 10
220.937500
 20
200.000000
 11
223.000000
 21
193.437500
  0
LINE
  8
0
  6
CONTINUOUS
 62
1
 10
223.000000
 20
193.437500
 11
224.875000
 21
187.250000
  0
LINE
  8
0
  6
CONTINUOUS
 62
1
 10
224.875000
 20
187.250000
 11
224.875000
 21
194.000000
  0
LINE
  8
0
  6
CONTINUOUS
 62
1
 10
224.875000
 20
194.000000
 11
224.875000
 21
200.000000
  0
LINE
  8
0
  6
CONTINUOUS
 62
1
 10
224.875000
 20
200.000000
 11
226.937500
 21
200.000000
  0
LINE
  8
0
  6
CONTINUOUS
 62
1
 10
226.937500
 20
200.000000
 11
226.937500
 21
191.937500
  0
LINE
  8
0
  6
CONTINUOUS
 62
1
 10
208.937500
 20
191.750000
 11
208.937500
 21
185.000000
  0
LINE
  8
0
  6
CONTINUOUS
 62
1
 10
208.937500
 20
185.000000
 11
202.750000
 21
185.000000
  0
ARC
  8
0
  6
CONTINUOUS
 62
1
 10
202.715078
 20
192.882385
 40
7.882462
 50
252.253838
 51
270.253838
  0
ARC
  8
0
  6
CONTINUOUS
 62
1
 10
201.656087
 20
188.968587
 40
3.836547
 50
200.500001
 51
249.500000
  0
ARC
  8
0
  6
CONTINUOUS
 62
1
 10
203.168890
 20
189.271857
 40
5.365386
 50
147.874983
 51
197.874984
  0
ARC
  8
0
  6
CONTINUOUS
 62
1
 10
201.516889
 20
190.224666
 40
3.460389
 50
100.690068
 51
146.690068
  0
ARC
  8
0
  6
CONTINUOUS
 62
1
 10
204.476163
 20
178.326814
 40
15.716325
 50
94.246162
 51
103.246162
  0
LINE
  8
0
  6
CONTINUOUS
 62
1
 10
203.312500
 20
194.000000
 11
206.875000
 21
194.000000
  0
LINE
  8
0
  6
CONTINUOUS
 62
1
 10
206.875000
 20
194.000000
 11
206.875000
 21
200.000000
  0
LINE
  8
0
  6
CONTINUOUS
 62
1
 10
206.875000
 20
200.000000
 11
208.937500
 21
200.000000
  0
LINE
  8
0
  6
CONTINUOUS
 62
1
 10
208.937500
 20
200.000000
 11
208.937500
 21
191.750000
  0
LINE
  8
0
  6
CONTINUOUS
 62
1
 10
206.875000
 20
186.687500
 11
206.875000
 21
192.125000
  0
LINE
  8
0
  6
CONTINUOUS
 62
1
 10
206.875000
 20
192.125000
 11
202.375000
 21
192.125000
  0
ARC
  8
0
  6
CONTINUOUS
 62
1
 10
202.618763
 20
188.581211
 40
3.552163
 50
93.934949
 51
122.934949
  0
ARC
  8
0
  6
CONTINUOUS
 62
1
 10
202.475151
 20
189.497333
 40
2.731412
 50
130.880135
 51
183.880135
  0
ARC
  8
0
  6
CONTINUOUS
 62
1
 10
202.430273
 20
189.286488
 40
2.680399
 50
179.443955
 51
229.443956
  0
ARC
  8
0
  6
CONTINUOUS
 62
1
 10
202.535559
 20
189.963717
 40
3.283228
 50
235.744881
 51
273.744883
  0
LINE
  8
0
  6
CONTINUOUS
 62
1
 10
202.750000
 20
186.687500
 11
206.875000
 21
186.687500
  0
ARC
  8
0
  6
CONTINUOUS
 62
1
 10
185.999992
 20
192.500946
 40
9.111727
 50
346.911226
 51
26.911227
  0
ARC
  8
0
  6
CONTINUOUS
 62
1
 10
188.236167
 20
191.543052
 40
6.730256
 50
283.545409
 51
350.545408
  0
ARC
  8
0
  6
CONTINUOUS
 62
1
 10
188.018785
 20
191.996021
 40
7.222307
 50
234.380344
 51
284.380345
  0
ARC
  8
0
  6
CONTINUOUS
 62
1
 10
188.529381
 20
192.013881
 40
7.545057
 50
176.305945
 51
231.305944
  0
ARC
  8
0
  6
CONTINUOUS
 62
1
 10
188.529381
 20
192.986119
 40
7.545057
 50
128.694058
 51
183.694056
  0
ARC
  8
0
  6
CONTINUOUS
 62
1
 10
188.046794
 20
192.854601
 40
7.360330
 50
76.119656
 51
125.119655
  0
ARC
  8
0
  6
CONTINUOUS
 62
1
 10
188.349895
 20
193.688407
 40
6.478844
 50
26.952957
 51
76.952957
  0
ARC
  8
0
  6
CONTINUOUS
 62
1
 10
188.071683
 20
193.496002
 40
5.004282
 50
33.389540
 51
89.389541
  0
ARC
  8
0
  6
CONTINUOUS
 62
1
 10
187.962057
 20
193.668076
 40
4.834670
 50
88.068592
 51
167.068594
  0
ARC
  8
0
  6
CONTINUOUS
 62
1
 10
190.573676
 20
192.498514
 40
7.661947
 50
162.911227
 51
210.911227
  0
ARC
  8
0
  6
CONTINUOUS
 62
1
 10
187.963889
 20
191.373888
 40
4.859662
 50
215.346176
 51
285.346177
  0
ARC
  8
0
  6
CONTINUOUS
 62
1
 10
188.292728
 20
191.267476
 40
4.678947
 50
281.805571
 51
337.805572
  0
ARC
  8
0
  6
CONTINUOUS
 62
1
 10
184.675532
 20
192.443779
 40
8.477021
 50
339.679830
 51
26.679832
  0
LINE
  8
0
  6
CONTINUOUS
 62
1
 10
178.187500
 20
194.750000
 11
176.312500
 21
194.750000
  0
ARC
  8
0
  6
CONTINUOUS
 62
1
 10
171.938223
 20
194.428881
 40
4.386048
 50
4.198591
 51
42.198592
  0
ARC
  8
0
  6
CONTINUOUS
 62
1
 10
172.005299
 20
193.436889
 40
5.063114
 50
51.059965
 51
90.059967
  0
ARC
  8
0
  6
CONTINUOUS
 62
1
 10
171.892236
 20
194.224870
 40
4.276488
 50
88.556045
 51
132.556044
  0
ARC
  8
0
  6
CONTINUOUS
 62
1
 10
170.586173
 20
195.942506
 40
2.137285
 50
137.914383
 51
213.914386
  0
ARC
  8
0
  6
CONTINUOUS
 62
1
 10
171.481197
 20
197.072828
 40
3.538004
 50
221.036243
 51
257.036244
  0
LINE
  8
0
  6
CONTINUOUS
 62
1
 10
170.687500
 20
193.625000
 11
174.062500
 21
192.687500
  0
ARC
  8
0
  6
CONTINUOUS
 62
1
 10
173.129459
 20
187.982879
 40
4.796251
 50
30.782407
 51
78.782407
  0
ARC
  8
0
  6
CONTINUOUS
 62
1
 10
173.679910
 20
188.900759
 40
3.886787
 50
325.289408
 51
23.289407
  0
ARC
  8
0
  6
CONTINUOUS
 62
1
 10
172.942844
 20
189.864312
 40
5.055095
 50
272.065052
 51
321.065051
  0
ARC
  8
0
  6
CONTINUOUS
 62
1
 10
172.292459
 20
191.370312
 40
6.610448
 50
238.235225
 51
277.235226
  0
ARC
  8
0
  6
CONTINUOUS
 62
1
 10
171.296749
 20
189.332171
 40
4.359294
 50
180.258542
 51
235.258541
  0
LINE
  8
0
  6
CONTINUOUS
 62
1
 10
166.937500
 20
189.312500
 11
168.812500
 21
189.312500
  0
ARC
  8
0
  6
CONTINUOUS
 62
1
 10
172.056073
 20
189.696772
 40
3.266256
 50
186.756437
 51
233.756439
  0
ARC
  8
0
  6
CONTINUOUS
 62
1
 10
172.502111
 20
192.048557
 40
5.523714
 50
244.510447
 51
290.510447
  0
ARC
  8
0
  6
CONTINUOUS
 62
1
 10
173.479650
 20
188.760175
 40
2.114560
 50
296.934949
 51
9.934947
  0
ARC
  8
0
  6
CONTINUOUS
 62
1
 10
173.657601
 20
188.720101
 40
1.947455
 50
12.000000
 51
78.000002
  0
LINE
  8
0
  6
CONTINUOUS
 62
1
 10
174.062500
 20
190.625000
 11
169.000000
 21
192.125000
  0
ARC
  8
0
  6
CONTINUOUS
 62
1
 10
170.426022
 20
195.823385
 40
3.963785
 50
192.914382
 51
248.914383
  0
ARC
  8
0
  6
CONTINUOUS
 62
1
 10
170.844736
 20
195.697588
 40
4.349170
 50
133.065052
 51
190.065051
  0
ARC
  8
0
  6
CONTINUOUS
 62
1
 10
171.692720
 20
194.014843
 40
6.180300
 50
87.150123
 51
128.150124
  0
ARC
  8
0
  6
CONTINUOUS
 62
1
 10
172.331233
 20
192.924917
 40
7.270132
 50
63.611341
 51
92.611342
  0
ARC
  8
0
  6
CONTINUOUS
 62
1
 10
172.974345
 20
194.909383
 40
5.215591
 50
358.248827
 51
60.248826
  0
LINE
  8
0
  6
CONTINUOUS
 62
1
 10
163.000000
 20
192.500000
 11
163.000000
 21
185.000000
  0
LINE
  8
0
  6
CONTINUOUS
 62
1
 10
163.000000
 20
185.000000
 11
160.937500
 21
185.000000
  0
LINE
  8
0
  6
CONTINUOUS
 62
1
 10
160.937500
 20
185.000000
 11
160.937500
 21
192.312500
  0
LINE
  8
0
  6
CONTINUOUS
 62
1
 10
160.937500
 20
192.312500
 11
160.937500
 21
200.000000
  0
LINE
  8
0
  6
CONTINUOUS
 62
1
 10
160.937500
 20
200.000000
 11
163.000000
 21
200.000000
  0
LINE
  8
0
  6
CONTINUOUS
 62
1
 10
163.000000
 20
200.000000
 11
163.000000
 21
192.500000
  0
LINE
  8
0
  6
CONTINUOUS
 62
1
 10
151.187500
 20
200.000000
 11
153.250000
 21
200.000000
  0
LINE
  8
0
  6
CONTINUOUS
 62
1
 10
153.250000
 20
200.000000
 11
153.250000
 21
193.250000
  0
LINE
  8
0
  6
CONTINUOUS
 62
1
 10
153.250000
 20
193.250000
 11
153.250000
 21
186.687500
  0
LINE
  8
0
  6
CONTINUOUS
 62
1
 10
153.250000
 20
186.687500
 11
158.312500
 21
186.687500
  0
LINE
  8
0
  6
CONTINUOUS
 62
1
 10
158.312500
 20
186.687500
 11
158.312500
 21
185.000000
  0
LINE
  8
0
  6
CONTINUOUS
 62
1
 10
158.312500
 20
185.000000
 11
152.125000
 21
185.000000
  0
LINE
  8
0
  6
CONTINUOUS
 62
1
 10
152.125000
 20
185.000000
 11
146.312500
 21
185.000000
  0
LINE
  8
0
  6
CONTINUOUS
 62
1
 10
146.312500
 20
185.000000
 11
146.312500
 21
186.687500
  0
LINE
  8
0
  6
CONTINUOUS
 62
1
 10
146.312500
 20
186.687500
 11
151.187500
 21
186.687500
  0
LINE
  8
0
  6
CONTINUOUS
 62
1
 10
151.187500
 20
186.687500
 11
151.187500
 21
193.625000
  0
LINE
  8
0
  6
CONTINUOUS
 62
1
 10
151.187500
 20
193.625000
 11
151.187500
 21
200.000000
  0
LINE
  8
0
  6
CONTINUOUS
 62
1
 10
143.687500
 20
191.937500
 11
143.687500
 21
185.000000
  0
LINE
  8
0
  6
CONTINUOUS
 62
1
 10
143.687500
 20
185.000000
 11
133.000000
 21
185.000000
  0
LINE
  8
0
  6
CONTINUOUS
 62
1
 10
133.000000
 20
185.000000
 11
133.000000
 21
186.687500
  0
LINE
  8
0
  6
CONTINUOUS
 62
1
 10
133.000000
 20
186.687500
 11
141.625000
 21
186.687500
  0
LINE
  8
0
  6
CONTINUOUS
 62
1
 10
141.625000
 20
186.687500
 11
141.625000
 21
191.375000
  0
LINE
  8
0
  6
CONTINUOUS
 62
1
 10
141.625000
 20
191.375000
 11
133.562500
 21
191.375000
  0
LINE
  8
0
  6
CONTINUOUS
 62
1
 10
133.562500
 20
191.375000
 11
133.562500
 21
193.062500
  0
LINE
  8
0
  6
CONTINUOUS
 62
1
 10
133.562500
 20
193.062500
 11
141.625000
 21
193.062500
  0
LINE
  8
0
  6
CONTINUOUS
 62
1
 10
141.625000
 20
193.062500
 11
141.625000
 21
198.312500
  0
LINE
  8
0
  6
CONTINUOUS
 62
1
 10
141.625000
 20
198.312500
 11
132.437500
 21
198.312500
  0
LINE
  8
0
  6
CONTINUOUS
 62
1
 10
132.437500
 20
198.312500
 11
132.437500
 21
200.000000
  0
LINE
  8
0
  6
CONTINUOUS
 62
1
 10
132.437500
 20
200.000000
 11
143.687500
 21
200.000000
  0
LINE
  8
0
  6
CONTINUOUS
 62
1
 10
143.687500
 20
200.000000
 11
143.687500
 21
191.937500
  0
LINE
  8
0
  6
CONTINUOUS
 62
1
 10
283.017931
 20
185.867245
 11
279.549181
 21
185.867245
  0
LINE
  8
0
  6
CONTINUOUS
 62
1
 10
279.549181
 20
185.867245
 11
279.549181
 21
188.585995
  0
ARC
  8
0
  6
CONTINUOUS
 62
1
 10
284.082288
 20
188.697206
 40
4.534471
 50
163.405357
 51
181.405357
  0
ARC
  8
0
  6
CONTINUOUS
 62
1
 10
282.276492
 20
189.104592
 40
2.690458
 50
112.735705
 51
160.735705
  0
ARC
  8
0
  6
CONTINUOUS
 62
1
 10
283.298120
 20
186.356150
 40
5.621460
 50
74.512786
 51
111.512788
  0
ARC
  8
0
  6
CONTINUOUS
 62
1
 10
284.059959
 20
188.782035
 40
3.081441
 50
35.119655
 51
76.119655
  0
ARC
  8
0
  6
CONTINUOUS
 62
1
 10
283.434290
 20
188.772116
 40
3.616071
 50
358.536243
 51
29.536243
  0
LINE
  8
0
  6
CONTINUOUS
 62
1
 10
287.049181
 20
188.679745
 11
287.049181
 21
185.867245
  0
LINE
  8
0
  6
CONTINUOUS
 62
1
 10
287.049181
 20
185.867245
 11
283.017931
 21
185.867245
  0
LINE
  8
0
  6
CONTINUOUS
 62
1
 10
280.392931
 20
186.898495
 11
286.205431
 21
186.898495
  0
LINE
  8
0
  6
CONTINUOUS
 62
1
 10
286.205431
 20
186.898495
 11
286.205431
 21
188.679745
  0
ARC
  8
0
  6
CONTINUOUS
 62
1
 10
282.423325
 20
188.448778
 40
3.789152
 50
3.494617
 51
22.494616
  0
ARC
  8
0
  6
CONTINUOUS
 62
1
 10
284.412876
 20
189.043439
 40
1.736423
 50
29.500000
 51
60.500000
  0
ARC
  8
0
  6
CONTINUOUS
 62
1
 10
283.183318
 20
185.930017
 40
5.072841
 50
65.736358
 51
104.736360
  0
ARC
  8
0
  6
CONTINUOUS
 62
1
 10
282.607265
 20
188.646423
 40
2.303150
 50
108.068592
 51
147.068593
  0
ARC
  8
0
  6
CONTINUOUS
 62
1
 10
283.165631
 20
188.678229
 40
2.774234
 50
153.905243
 51
181.905244
  0
LINE
  8
0
  6
CONTINUOUS
 62
1
 10
280.392931
 20
188.585995
 11
280.392931
 21
186.898495
  0
LINE
  8
0
  6
CONTINUOUS
 62
1
 10
282.267931
 20
193.929745
 11
281.424181
 21
193.929745
  0
ARC
  8
0
  6
CONTINUOUS
 62
1
 10
277.005240
 20
191.796048
 40
4.907108
 50
25.773689
 51
58.773690
  0
LINE
  8
0
  6
CONTINUOUS
 62
1
 10
279.549181
 20
195.992245
 11
279.549181
 21
196.648495
  0
LINE
  8
0
  6
CONTINUOUS
 62
1
 10
279.549181
 20
196.648495
 11
283.299181
 21
196.648495
  0
LINE
  8
0
  6
CONTINUOUS
 62
1
 10
283.299181
 20
196.648495
 11
287.049181
 21
196.648495
  0
LINE
  8
0
  6
CONTINUOUS
 62
1
 10
287.049181
 20
196.648495
 11
287.049181
 21
195.617245
  0
LINE
  8
0
  6
CONTINUOUS
 62
1
 10
287.049181
 20
195.617245
 11
281.236681
 21
195.617245
  0
ARC
  8
0
  6
CONTINUOUS
 62
1
 10
278.368210
 20
192.705436
 40
4.087390
 50
17.429565
 51
45.429566
  0
LINE
  8
0
  6
CONTINUOUS
 62
1
 10
164.044571
 20
70.545252
 11
164.044571
 21
75.133252
  0
LINE
  8
0
  6
CONTINUOUS
 62
1
 10
164.044571
 20
71.345252
 11
164.044571
 21
78.921252
  0
LINE
  8
0
  6
CONTINUOUS
 62
1
 10
161.944571
 20
66.983252
 11
145.944571
 21
66.983252
  0
LINE
  8
0
  6
CONTINUOUS
 62
1
 10
145.944571
 20
66.983252
 11
145.944571
 21
68.283252
  0
LINE
  8
0
  6
CONTINUOUS
 62
1
 10
145.944571
 20
68.283252
 11
161.944571
 21
68.283252
  0
LINE
  8
0
  6
CONTINUOUS
 62
1
 10
161.944571
 20
66.983252
 11
161.944571
 21
68.283252
  0
LINE
  8
0
  6
CONTINUOUS
 62
1
 10
155.590225
 20
65.033252
 11
164.694467
 21
65.033252
  0
LINE
  8
0
  6
CONTINUOUS
 62
1
 10
166.878289
 20
58.033252
 11
156.115157
 21
58.033252
  0
LINE
  8
0
  6
CONTINUOUS
 62
1
 10
165.164314
 20
64.704262
 11
167.348135
 21
58.704262
  0
LINE
  8
0
  6
CONTINUOUS
 62
1
 10
155.092128
 20
64.489674
 11
155.617060
 21
58.489674
  0
LINE
  8
0
  6
CONTINUOUS
 62
1
 10
157.031489
 20
59.283252
 11
165.450141
 21
59.283252
  0
LINE
  8
0
  6
CONTINUOUS
 62
1
 10
165.685064
 20
59.618757
 11
164.229183
 21
63.618757
  0
LINE
  8
0
  6
CONTINUOUS
 62
1
 10
163.994260
 20
63.783252
 11
156.681534
 21
63.783252
  0
LINE
  8
0
  6
CONTINUOUS
 62
1
 10
156.782440
 20
59.511463
 11
156.432485
 21
63.511463
  0
LINE
  8
0
  6
CENTER
 62
1
 10
160.044571
 20
61.283252
 11
160.044571
 21
72.033252
  0
LINE
  8
0
  6
CONTINUOUS
 62
1
 10
158.544571
 20
72.033252
 11
158.413395
 21
72.033252
  0
LINE
  8
0
  6
DASHED
 62
1
 10
157.544571
 20
67.283252
 11
157.544571
 21
65.033252
  0
LINE
  8
0
  6
DASHED
 62
1
 10
162.544571
 20
65.033252
 11
162.544571
 21
69.433252
  0
LINE
  8
0
  6
DASHED
 62
1
 10
159.044571
 20
65.033252
 11
159.044571
 21
68.283252
  0
LINE
  8
0
  6
DASHED
 62
1
 10
157.544571
 20
67.283252
 11
156.544571
 21
67.860602
  0
LINE
  8
0
  6
CONTINUOUS
 62
1
 10
156.544571
 20
67.860602
 11
156.698403
 21
68.283252
  0
LINE
  8
0
  6
CONTINUOUS
 62
1
 10
161.794571
 20
72.033252
 11
161.742911
 21
72.033252
  0
LINE
  8
0
  6
DASHED
 62
1
 10
160.544571
 20
65.033252
 11
160.848343
 21
69.286053
  0
ARC
  8
0
  6
CONTINUOUS
 62
1
 10
161.742911
 20
71.283252
 40
0.750000
 50
90.000000
 51
175.914383
  0
ARC
  8
0
  6
CONTINUOUS
 62
1
 10
161.794571
 20
71.283252
 40
0.750000
 50
0.000000
 51
90.000000
  0
ARC
  8
0
  6
CONTINUOUS
 62
1
 10
158.544571
 20
71.533252
 40
0.500000
 50
0.000000
 51
90.000000
  0
ARC
  8
0
  6
CONTINUOUS
 62
1
 10
158.413395
 20
71.533252
 40
0.500000
 50
90.000000
 51
160.000000
  0
ARC
  8
0
  6
CONTINUOUS
 62
1
 10
163.994260
 20
63.533252
 40
0.250000
 50
20.000000
 51
90.000000
  0
ARC
  8
0
  6
CONTINUOUS
 62
1
 10
165.450141
 20
59.533252
 40
0.250000
 50
270.000000
 51
20.000000
  0
ARC
  8
0
  6
CONTINUOUS
 62
1
 10
157.031489
 20
59.533252
 40
0.250000
 50
185.000000
 51
270.000000
  0
ARC
  8
0
  6
CONTINUOUS
 62
1
 10
156.681534
 20
63.533252
 40
0.250000
 50
90.000000
 51
185.000000
  0
ARC
  8
0
  6
CONTINUOUS
 62
1
 10
156.115157
 20
58.533252
 40
0.500000
 50
185.000000
 51
270.000000
  0
ARC
  8
0
  6
CONTINUOUS
 62
1
 10
155.590225
 20
64.533252
 40
0.500000
 50
90.000000
 51
185.000000
  0
ARC
  8
0
  6
CONTINUOUS
 62
1
 10
164.694467
 20
64.533252
 40
0.500000
 50
20.000000
 51
90.000000
  0
ARC
  8
0
  6
CONTINUOUS
 62
1
 10
166.878289
 20
58.533252
 40
0.500000
 50
270.000000
 51
20.000000
  0
LINE
  8
0
  6
CONTINUOUS
 62
1
 10
156.698403
 20
68.283252
 11
157.943549
 21
71.704262
  0
LINE
  8
0
  6
CONTINUOUS
 62
1
 10
159.044571
 20
68.283252
 11
159.044571
 21
71.533252
  0
LINE
  8
0
  6
CONTINUOUS
 62
1
 10
160.848343
 20
69.286053
 11
160.994817
 21
71.336687
  0
LINE
  8
0
  6
CONTINUOUS
 62
1
 10
162.544571
 20
69.433252
 11
162.544571
 21
71.283252
  0
LINE
  8
0
  6
CONTINUOUS
 62
1
 10
131.244571
 20
65.133252
 11
184.244571
 21
65.133252
  0
LINE
  8
0
  6
CONTINUOUS
 62
1
 10
135.744571
 20
68.133252
 11
135.744571
 21
69.383252
  0
LINE
  8
0
  6
CONTINUOUS
 62
1
 10
130.244571
 20
66.133252
 11
130.244571
 21
67.633252
  0
LINE
  8
0
  6
CONTINUOUS
 62
1
 10
130.494571
 20
67.883252
 11
135.494571
 21
67.883252
  0
LINE
  8
0
  6
CONTINUOUS
 62
1
 10
135.994571
 20
69.633252
 11
136.744571
 21
69.633252
  0
LINE
  8
0
  6
CONTINUOUS
 62
1
 10
137.744571
 20
68.633252
 11
136.994571
 21
68.633252
  0
LINE
  8
0
  6
CONTINUOUS
 62
1
 10
136.744571
 20
68.383252
 11
136.744571
 21
67.133252
  0
LINE
  8
0
  6
CONTINUOUS
 62
1
 10
136.994571
 20
66.883252
 11
143.994571
 21
66.883252
  0
LINE
  8
0
  6
CONTINUOUS
 62
1
 10
144.244571
 20
67.133252
 11
144.244571
 21
68.383252
  0
LINE
  8
0
  6
CONTINUOUS
 62
1
 10
143.994571
 20
68.633252
 11
143.244571
 21
68.633252
  0
LINE
  8
0
  6
CONTINUOUS
 62
1
 10
144.244571
 20
69.633252
 11
145.244571
 21
69.633252
  0
LINE
  8
0
  6
CONTINUOUS
 62
1
 10
145.244571
 20
68.133252
 11
145.244571
 21
67.133252
  0
LINE
  8
0
  6
CONTINUOUS
 62
1
 10
183.844571
 20
82.483252
 11
183.844571
 21
66.783252
  0
LINE
  8
0
  6
CONTINUOUS
 62
1
 10
183.594571
 20
66.533252
 11
164.294571
 21
66.533252
  0
LINE
  8
0
  6
CONTINUOUS
 62
1
 10
182.844571
 20
84.133252
 11
163.644571
 21
84.133252
  0
LINE
  8
0
  6
CONTINUOUS
 62
1
 10
164.294571
 20
82.733252
 11
183.594571
 21
82.733252
  0
LINE
  8
0
  6
CONTINUOUS
 62
1
 10
185.044571
 20
75.133252
 11
185.244571
 21
75.333252
  0
LINE
  8
0
  6
CONTINUOUS
 62
1
 10
185.244571
 20
66.133252
 11
185.244571
 21
74.933252
  0
LINE
  8
0
  6
CONTINUOUS
 62
1
 10
185.244571
 20
75.333252
 11
185.244571
 21
100.433252
  0
LINE
  8
0
  6
CONTINUOUS
 62
1
 10
185.044571
 20
75.133252
 11
185.244571
 21
74.933252
  0
LINE
  8
0
  6
CONTINUOUS
 62
1
 10
181.494571
 20
100.333252
 11
183.844571
 21
100.333252
  0
LINE
  8
0
  6
CONTINUOUS
 62
1
 10
183.594571
 20
98.933252
 11
181.494571
 21
98.933252
  0
ARC
  8
0
  6
CONTINUOUS
 62
1
 10
184.544571
 20
100.433252
 40
0.700000
 50
0.000000
 51
90.000000
  0
ARC
  8
0
  6
CONTINUOUS
 62
1
 10
184.544571
 20
100.433252
 40
0.700000
 50
90.000000
 51
180.000000
  0
LINE
  8
0
  6
CONTINUOUS
 62
1
 10
176.244571
 20
99.696052
 11
176.244571
 21
99.570452
  0
LINE
  8
0
  6
CONTINUOUS
 62
1
 10
178.744571
 20
100.463379
 11
178.744571
 21
101.133252
  0
LINE
  8
0
  6
CONTINUOUS
 62
1
 10
181.244571
 20
101.133252
 11
181.244571
 21
100.583252
  0
LINE
  8
0
  6
CONTINUOUS
 62
1
 10
183.844571
 20
100.433252
 11
183.844571
 21
100.333252
  0
LINE
  8
0
  6
CONTINUOUS
 62
1
 10
183.844571
 20
98.683252
 11
183.844571
 21
85.133252
  0
LINE
  8
0
  6
CONTINUOUS
 62
1
 10
181.244571
 20
101.133252
 11
178.744571
 21
100.463379
  0
LINE
  8
0
  6
CONTINUOUS
 62
1
 10
178.744571
 20
101.133252
 11
176.985752
 21
100.661978
  0
LINE
  8
0
  6
CONTINUOUS
 62
1
 10
181.244571
 20
98.133252
 11
178.744571
 21
98.803125
  0
LINE
  8
0
  6
CONTINUOUS
 62
1
 10
178.744571
 20
98.803125
 11
178.744571
 21
98.133252
  0
LINE
  8
0
  6
CONTINUOUS
 62
1
 10
178.744571
 20
98.133252
 11
176.985752
 21
98.604526
  0
LINE
  8
0
  6
CONTINUOUS
 62
1
 10
181.244571
 20
98.683252
 11
181.244571
 21
98.133252
  0
LINE
  8
0
  6
CONTINUOUS
 62
1
 10
145.494571
 20
66.883252
 11
162.394571
 21
66.883252
  0
ARC
  8
0
  6
CONTINUOUS
 62
1
 10
131.244571
 20
66.133252
 40
1.000000
 50
180.000000
 51
270.000000
  0
ARC
  8
0
  6
CONTINUOUS
 62
1
 10
136.744571
 20
68.633252
 40
1.000000
 50
0.000000
 51
90.000000
  0
ARC
  8
0
  6
CONTINUOUS
 62
1
 10
144.244571
 20
68.633252
 40
1.000000
 50
90.000000
 51
180.000000
  0
ARC
  8
0
  6
CONTINUOUS
 62
1
 10
184.244571
 20
66.133252
 40
1.000000
 50
270.000000
 51
0.000000
  0
ARC
  8
0
  6
CONTINUOUS
 62
1
 10
182.844571
 20
85.133252
 40
1.000000
 50
270.000000
 51
0.000000
  0
ARC
  8
0
  6
CONTINUOUS
 62
1
 10
177.244571
 20
99.696052
 40
1.000000
 50
105.000000
 51
180.000000
  0
ARC
  8
0
  6
CONTINUOUS
 62
1
 10
177.244571
 20
99.570452
 40
1.000000
 50
180.000000
 51
255.000000
  0
LINE
  8
0
  6
CONTINUOUS
 62
1
 10
156.994571
 20
100.333252
 11
154.644571
 21
100.333252
  0
LINE
  8
0
  6
CONTINUOUS
 62
1
 10
154.894571
 20
98.933252
 11
156.994571
 21
98.933252
  0
ARC
  8
0
  6
CONTINUOUS
 62
1
 10
153.944571
 20
100.433252
 40
0.700000
 50
90.000000
 51
180.000000
  0
ARC
  8
0
  6
CONTINUOUS
 62
1
 10
153.944571
 20
100.433252
 40
0.700000
 50
0.000000
 51
90.000000
  0
LINE
  8
0
  6
CONTINUOUS
 62
1
 10
162.244571
 20
99.696052
 11
162.244571
 21
99.570452
  0
LINE
  8
0
  6
CONTINUOUS
 62
1
 10
159.744571
 20
100.463379
 11
159.744571
 21
101.133252
  0
LINE
  8
0
  6
CONTINUOUS
 62
1
 10
157.244571
 20
101.133252
 11
157.244571
 21
100.583252
  0
LINE
  8
0
  6
CONTINUOUS
 62
1
 10
154.644571
 20
100.433252
 11
154.644571
 21
100.333252
  0
LINE
  8
0
  6
CONTINUOUS
 62
1
 10
157.244571
 20
101.133252
 11
159.744571
 21
100.463379
  0
LINE
  8
0
  6
CONTINUOUS
 62
1
 10
159.744571
 20
101.133252
 11
161.503390
 21
100.661978
  0
LINE
  8
0
  6
CONTINUOUS
 62
1
 10
157.244571
 20
98.133252
 11
159.744571
 21
98.803125
  0
LINE
  8
0
  6
CONTINUOUS
 62
1
 10
159.744571
 20
98.803125
 11
159.744571
 21
98.133252
  0
LINE
  8
0
  6
CONTINUOUS
 62
1
 10
159.744571
 20
98.133252
 11
161.503390
 21
98.604526
  0
LINE
  8
0
  6
CONTINUOUS
 62
1
 10
157.244571
 20
98.683252
 11
157.244571
 21
98.133252
  0
ARC
  8
0
  6
CONTINUOUS
 62
1
 10
161.244571
 20
99.696052
 40
1.000000
 50
0.000000
 51
75.000000
  0
ARC
  8
0
  6
CONTINUOUS
 62
1
 10
161.244571
 20
99.570452
 40
1.000000
 50
285.000000
 51
0.000000
  0
LINE
  8
0
  6
CONTINUOUS
 62
1
 10
153.244571
 20
79.933252
 11
153.244571
 21
78.733252
  0
LINE
  8
0
  6
CONTINUOUS
 62
1
 10
154.644571
 20
79.383252
 11
154.644571
 21
79.933252
  0
LINE
  8
0
  6
CONTINUOUS
 62
1
 10
164.044571
 20
66.783252
 11
164.044571
 21
82.483252
  0
LINE
  8
0
  6
CONTINUOUS
 62
1
 10
155.644571
 20
79.133252
 11
154.894571
 21
79.133252
  0
LINE
  8
0
  6
CONTINUOUS
 62
1
 10
154.894571
 20
86.633252
 11
155.644571
 21
86.633252
  0
LINE
  8
0
  6
CONTINUOUS
 62
1
 10
155.894571
 20
86.383252
 11
155.894571
 21
79.383252
  0
ARC
  8
0
  6
CONTINUOUS
 62
1
 10
153.944571
 20
79.933252
 40
0.700000
 50
0.000000
 51
90.000000
  0
ARC
  8
0
  6
CONTINUOUS
 62
1
 10
153.944571
 20
79.933252
 40
0.700000
 50
90.000000
 51
180.000000
  0
LINE
  8
0
  6
CONTINUOUS
 62
1
 10
153.244571
 20
85.833252
 11
153.244571
 21
100.433252
  0
ARC
  8
0
  6
CONTINUOUS
 62
1
 10
153.944571
 20
85.833252
 40
0.700000
 50
180.000000
 51
270.000000
  0
LINE
  8
0
  6
CONTINUOUS
 62
1
 10
154.644571
 20
86.383252
 11
154.644571
 21
85.833252
  0
ARC
  8
0
  6
CONTINUOUS
 62
1
 10
153.944571
 20
85.833252
 40
0.700000
 50
270.000000
 51
0.000000
  0
LINE
  8
0
  6
CONTINUOUS
 62
1
 10
157.044571
 20
88.033252
 11
154.894571
 21
88.033252
  0
LINE
  8
0
  6
CONTINUOUS
 62
1
 10
154.644571
 20
98.683252
 11
154.644571
 21
88.283252
  0
LINE
  8
0
  6
CONTINUOUS
 62
1
 10
154.244571
 20
77.733252
 11
161.644571
 21
77.733252
  0
LINE
  8
0
  6
CONTINUOUS
 62
1
 10
157.294571
 20
80.133252
 11
157.294571
 21
87.783252
  0
LINE
  8
0
  6
CONTINUOUS
 62
1
 10
161.644571
 20
79.133252
 11
158.294571
 21
79.133252
  0
ARC
  8
0
  6
CONTINUOUS
 62
1
 10
154.244571
 20
78.733252
 40
1.000000
 50
180.000000
 51
270.000000
  0
ARC
  8
0
  6
CONTINUOUS
 62
1
 10
158.294571
 20
80.133252
 40
1.000000
 50
180.000000
 51
270.000000
  0
LINE
  8
0
  6
CONTINUOUS
 62
1
 10
162.394571
 20
68.383252
 11
161.144571
 21
68.383252
  0
LINE
  8
0
  6
CONTINUOUS
 62
1
 10
161.144571
 20
69.383252
 11
162.394571
 21
69.383252
  0
ARC
  8
0
  6
CONTINUOUS
 62
1
 10
161.144571
 20
68.883252
 40
0.500000
 50
180.000000
 51
270.000000
  0
ARC
  8
0
  6
CONTINUOUS
 62
1
 10
161.144571
 20
68.883252
 40
0.500000
 50
90.000000
 51
180.000000
  0
LINE
  8
0
  6
CONTINUOUS
 62
1
 10
162.644571
 20
68.133252
 11
162.644571
 21
67.133252
  0
LINE
  8
0
  6
CONTINUOUS
 62
1
 10
162.644571
 20
83.133252
 11
162.644571
 21
80.133252
  0
LINE
  8
0
  6
CONTINUOUS
 62
1
 10
162.644571
 20
76.733252
 11
162.644571
 21
69.633252
  0
ARC
  8
0
  6
CONTINUOUS
 62
1
 10
161.644571
 20
76.733252
 40
1.000000
 50
0.000000
 51
90.000000
  0
ARC
  8
0
  6
CONTINUOUS
 62
1
 10
161.644571
 20
80.133252
 40
1.000000
 50
270.000000
 51
0.000000
  0
ARC
  8
0
  6
CONTINUOUS
 62
1
 10
163.644571
 20
83.133252
 40
1.000000
 50
90.000000
 51
180.000000
  0
ARC
  8
0
  6
CONTINUOUS
 62
1
 10
130.494571
 20
67.633252
 40
0.250000
 50
90.000000
 51
180.000000
  0
ARC
  8
0
  6
CONTINUOUS
 62
1
 10
135.494571
 20
68.133252
 40
0.250000
 50
270.000000
 51
0.000000
  0
ARC
  8
0
  6
CONTINUOUS
 62
1
 10
135.994571
 20
69.383252
 40
0.250000
 50
90.000000
 51
180.000000
  0
ARC
  8
0
  6
CONTINUOUS
 62
1
 10
136.994571
 20
68.383252
 40
0.250000
 50
90.000000
 51
180.000000
  0
ARC
  8
0
  6
CONTINUOUS
 62
1
 10
136.994571
 20
67.133252
 40
0.250000
 50
180.000000
 51
270.000000
  0
ARC
  8
0
  6
CONTINUOUS
 62
1
 10
143.994571
 20
67.133252
 40
0.250000
 50
270.000000
 51
0.000000
  0
ARC
  8
0
  6
CONTINUOUS
 62
1
 10
143.994571
 20
68.383252
 40
0.250000
 50
0.000000
 51
90.000000
  0
ARC
  8
0
  6
CONTINUOUS
 62
1
 10
145.494571
 20
67.133252
 40
0.250000
 50
180.000000
 51
270.000000
  0
ARC
  8
0
  6
CONTINUOUS
 62
1
 10
162.394571
 20
67.133252
 40
0.250000
 50
270.000000
 51
0.000000
  0
ARC
  8
0
  6
CONTINUOUS
 62
1
 10
162.394571
 20
68.133252
 40
0.250000
 50
0.000000
 51
90.000000
  0
ARC
  8
0
  6
CONTINUOUS
 62
1
 10
162.394571
 20
69.633252
 40
0.250000
 50
270.000000
 51
0.000000
  0
ARC
  8
0
  6
CONTINUOUS
 62
1
 10
154.894571
 20
79.383252
 40
0.250000
 50
180.000000
 51
270.000000
  0
ARC
  8
0
  6
CONTINUOUS
 62
1
 10
155.644571
 20
79.383252
 40
0.250000
 50
270.000000
 51
0.000000
  0
ARC
  8
0
  6
CONTINUOUS
 62
1
 10
155.644571
 20
86.383252
 40
0.250000
 50
0.000000
 51
90.000000
  0
ARC
  8
0
  6
CONTINUOUS
 62
1
 10
154.894571
 20
86.383252
 40
0.250000
 50
90.000000
 51
180.000000
  0
ARC
  8
0
  6
CONTINUOUS
 62
1
 10
156.994571
 20
100.583252
 40
0.250000
 50
270.000000
 51
0.000000
  0
ARC
  8
0
  6
CONTINUOUS
 62
1
 10
156.994571
 20
98.683252
 40
0.250000
 50
0.000000
 51
90.000000
  0
ARC
  8
0
  6
CONTINUOUS
 62
1
 10
154.894571
 20
98.683252
 40
0.250000
 50
90.000000
 51
180.000000
  0
ARC
  8
0
  6
CONTINUOUS
 62
1
 10
154.894571
 20
88.283252
 40
0.250000
 50
180.000000
 51
270.000000
  0
ARC
  8
0
  6
CONTINUOUS
 62
1
 10
157.044571
 20
87.783252
 40
0.250000
 50
0.000000
 51
90.000000
  0
ARC
  8
0
  6
CONTINUOUS
 62
1
 10
183.594571
 20
98.683252
 40
0.250000
 50
0.000000
 51
90.000000
  0
ARC
  8
0
  6
CONTINUOUS
 62
1
 10
181.494571
 20
98.683252
 40
0.250000
 50
90.000000
 51
180.000000
  0
ARC
  8
0
  6
CONTINUOUS
 62
1
 10
181.494571
 20
100.583252
 40
0.250000
 50
180.000000
 51
270.000000
  0
ARC
  8
0
  6
CONTINUOUS
 62
1
 10
183.594571
 20
82.483252
 40
0.250000
 50
0.000000
 51
90.000000
  0
ARC
  8
0
  6
CONTINUOUS
 62
1
 10
164.294571
 20
82.483252
 40
0.250000
 50
90.000000
 51
180.000000
  0
ARC
  8
0
  6
CONTINUOUS
 62
1
 10
164.294571
 20
66.783252
 40
0.250000
 50
180.000000
 51
270.000000
  0
ARC
  8
0
  6
CONTINUOUS
 62
1
 10
183.594571
 20
66.783252
 40
0.250000
 50
270.000000
 51
0.000000
  0
LINE
  8
0
  6
CONTINUOUS
 62
1
 10
146.744571
 20
68.383252
 11
145.494571
 21
68.383252
  0
ARC
  8
0
  6
CONTINUOUS
 62
1
 10
145.494571
 20
68.133252
 40
0.250000
 50
90.000000
 51
180.000000
  0
ARC
  8
0
  6
CONTINUOUS
 62
1
 10
146.744571
 20
68.883252
 40
0.500000
 50
270.000000
 51
0.000000
  0
ARC
  8
0
  6
CONTINUOUS
 62
1
 10
146.744571
 20
68.883252
 40
0.500000
 50
0.000000
 51
90.000000
  0
LINE
  8
0
  6
CONTINUOUS
 62
1
 10
146.744571
 20
69.383252
 11
145.244571
 21
69.633252
  0
LINE
  8
0
  6
CONTINUOUS
 62
1
 10
153.244571
 20
101.508252
 11
153.244571
 21
123.258252
  0
LINE
  8
0
  6
CONTINUOUS
 62
1
 10
155.244571
 20
125.258252
 11
183.244571
 21
125.258252
  0
LINE
  8
0
  6
CONTINUOUS
 62
1
 10
185.244571
 20
123.258252
 11
185.244571
 21
101.508252
  0
LINE
  8
0
  6
CONTINUOUS
 62
1
 10
184.994571
 20
101.258252
 11
175.494571
 21
101.258252
  0
LINE
  8
0
  6
CONTINUOUS
 62
1
 10
175.244571
 20
101.008252
 11
175.244571
 21
98.258252
  0
LINE
  8
0
  6
CONTINUOUS
 62
1
 10
175.494571
 20
98.008252
 11
183.244571
 21
98.008252
  0
LINE
  8
0
  6
CONTINUOUS
 62
1
 10
181.494571
 20
93.008252
 11
156.994571
 21
93.008252
  0
LINE
  8
0
  6
CONTINUOUS
 62
1
 10
183.494571
 20
97.758252
 11
183.494571
 21
95.008252
  0
LINE
  8
0
  6
CONTINUOUS
 62
1
 10
163.244571
 20
98.258252
 11
163.244571
 21
101.008252
  0
LINE
  8
0
  6
CONTINUOUS
 62
1
 10
162.994571
 20
101.258252
 11
153.494571
 21
101.258252
  0
LINE
  8
0
  6
CONTINUOUS
 62
1
 10
162.994571
 20
98.008252
 11
155.244571
 21
98.008252
  0
LINE
  8
0
  6
CONTINUOUS
 62
1
 10
154.994571
 20
97.758252
 11
154.994571
 21
95.008252
  0
ARC
  8
0
  6
CONTINUOUS
 62
1
 10
155.244571
 20
123.258252
 40
2.000000
 50
90.000000
 51
180.000000
  0
ARC
  8
0
  6
CONTINUOUS
 62
1
 10
183.244571
 20
123.258252
 40
2.000000
 50
0.000000
 51
90.000000
  0
ARC
  8
0
  6
CONTINUOUS
 62
1
 10
184.994571
 20
101.508252
 40
0.250000
 50
270.000000
 51
0.000000
  0
ARC
  8
0
  6
CONTINUOUS
 62
1
 10
175.494571
 20
101.008252
 40
0.250000
 50
90.000000
 51
180.000000
  0
ARC
  8
0
  6
CONTINUOUS
 62
1
 10
175.494571
 20
98.258252
 40
0.250000
 50
180.000000
 51
270.000000
  0
ARC
  8
0
  6
CONTINUOUS
 62
1
 10
183.244571
 20
97.758252
 40
0.250000
 50
0.000000
 51
90.000000
  0
ARC
  8
0
  6
CONTINUOUS
 62
1
 10
155.244571
 20
97.758252
 40
0.250000
 50
90.000000
 51
180.000000
  0
ARC
  8
0
  6
CONTINUOUS
 62
1
 10
162.994571
 20
98.258252
 40
0.250000
 50
270.000000
 51
0.000000
  0
ARC
  8
0
  6
CONTINUOUS
 62
1
 10
162.994571
 20
101.008252
 40
0.250000
 50
0.000000
 51
90.000000
  0
ARC
  8
0
  6
CONTINUOUS
 62
1
 10
153.494571
 20
101.508252
 40
0.250000
 50
180.000000
 51
270.000000
  0
ARC
  8
0
  6
RANDOM
 62
1
 10
153.244571
 20
93.258252
 40
15.000000
 50
0.000000
 51
90.000000
  0
ARC
  8
0
  6
RANDOM
 62
1
 10
153.244571
 20
93.258252
 40
20.000000
 50
0.000000
 51
90.000000
  0
ARC
  8
0
  6
RANDOM
 62
1
 10
153.244571
 20
93.258252
 40
30.000000
 50
15.466010
 51
90.000000
  0
ARC
  8
0
  6
RANDOM
 62
1
 10
153.244571
 20
93.258252
 40
35.000000
 50
23.895508
 51
66.104492
  0
ARC
  8
0
  6
RANDOM
 62
1
 10
152.494571
 20
93.008252
 40
5.000000
 50
0.000000
 51
60.000000
  0
ARC
  8
0
  6
RANDOM
 62
1
 10
153.244571
 20
93.258252
 40
40.000000
 50
36.869898
 51
53.130102
  0
ARC
  8
0
  6
RANDOM
 62
1
 10
153.244571
 20
93.008252
 40
25.000000
 50
0.000000
 51
11.536959
  0
ARC
  8
0
  6
RANDOM
 62
1
 10
153.244571
 20
93.258252
 40
25.000000
 50
18.662925
 51
90.000000
  0
ARC
  8
0
  6
RANDOM
 62
1
 10
154.244571
 20
93.008252
 40
10.000000
 50
0.000000
 51
30.000000
  0
ARC
  8
0
  6
RANDOM
 62
1
 10
153.244571
 20
93.258252
 40
10.000000
 50
53.130102
 51
90.000000
  0
ARC
  8
0
  6
CONTINUOUS
 62
1
 10
181.494571
 20
95.008252
 40
2.000000
 50
270.000000
 51
0.000000
  0
ARC
  8
0
  6
CONTINUOUS
 62
1
 10
156.994571
 20
95.008252
 40
2.000000
 50
180.000000
 51
270.000000
  0
LINE
  8
0
  6
CONTINUOUS
 62
1
 10
108.600229
 20
125.258252
 11
153.244571
 21
125.258252
  0
LINE
  8
0
  6
CONTINUOUS
 62
1
 10
130.244571
 20
65.133252
 11
108.600229
 21
65.133252
  0
LINE
  8
0
  6
CONTINUOUS
 62
1
 10
108.600229
 20
73.110160
 11
148.244571
 21
73.110160
  0
LINE
  8
0
  6
CONTINUOUS
 62
1
 10
148.244571
 20
101.110160
 11
148.244571
 21
73.110160
  0
LINE
  8
0
  6
CONTINUOUS
 62
1
 10
133.244571
 20
77.110160
 11
133.244571
 21
97.110160
  0
LINE
  8
0
  6
CONTINUOUS
 62
1
 10
133.244571
 20
97.110160
 11
148.244571
 21
77.110160
  0
LINE
  8
0
  6
CONTINUOUS
 62
1
 10
148.244571
 20
97.110160
 11
133.244571
 21
77.110160
  0
LINE
  8
0
  6
CONTINUOUS
 62
1
 10
135.444571
 20
67.983252
 11
130.344571
 21
67.983252
  0
ARC
  8
0
  6
CONTINUOUS
 62
1
 10
130.344571
 20
67.783252
 40
0.200000
 50
90.000000
 51
180.000000
  0
LINE
  8
0
  6
CONTINUOUS
 62
1
 10
130.144571
 20
67.783252
 11
130.144571
 21
66.283252
  0
LINE
  8
0
  6
CONTINUOUS
 62
1
 10
130.144571
 20
66.283252
 11
108.600229
 21
66.283252
  0
LINE
  8
0
  6
CONTINUOUS
 62
1
 10
135.644571
 20
69.433252
 11
135.644571
 21
68.183252
  0
ARC
  8
0
  6
CONTINUOUS
 62
1
 10
135.444571
 20
68.183252
 40
0.200000
 50
270.000000
 51
0.000000
  0
LINE
  8
0
  6
CONTINUOUS
 62
1
 10
136.744571
 20
69.633252
 11
135.844571
 21
69.633252
  0
ARC
  8
0
  6
CONTINUOUS
 62
1
 10
135.844571
 20
69.433252
 40
0.200000
 50
90.000000
 51
180.000000
  0
ARC
  8
0
  6
CONTINUOUS
 62
1
 10
136.744571
 20
68.533252
 40
1.100000
 50
354.784091
 51
90.000000
  0
LINE
  8
0
  6
CONTINUOUS
 62
1
 10
136.994571
 20
68.433252
 11
137.840016
 21
68.433252
  0
LINE
  8
0
  6
CONTINUOUS
 62
1
 10
136.994571
 20
68.433252
 11
138.544571
 21
66.883252
  0
LINE
  8
0
  6
CONTINUOUS
 62
1
 10
138.544571
 20
66.883252
 11
140.094571
 21
68.433252
  0
LINE
  8
0
  6
CONTINUOUS
 62
1
 10
145.267426
 20
69.633252
 11
144.244571
 21
69.633252
  0
ARC
  8
0
  6
CONTINUOUS
 62
1
 10
144.244571
 20
68.533252
 40
1.100000
 50
90.000000
 51
185.215909
  0
LINE
  8
0
  6
CONTINUOUS
 62
1
 10
143.149126
 20
68.433252
 11
143.994571
 21
68.433252
  0
LINE
  8
0
  6
CONTINUOUS
 62
1
 10
143.994571
 20
68.433252
 11
142.444571
 21
66.883252
  0
LINE
  8
0
  6
CONTINUOUS
 62
1
 10
142.444571
 20
66.883252
 11
140.894571
 21
68.433252
  0
LINE
  8
0
  6
CONTINUOUS
 62
1
 10
140.094571
 20
68.433252
 11
140.894571
 21
68.433252
  0
LINE
  8
0
  6
CONTINUOUS
 62
1
 10
136.871760
 20
71.633252
 11
139.467245
 21
71.633252
  0
LINE
  8
0
  6
CONTINUOUS
 62
1
 10
136.621432
 20
71.665091
 11
131.419277
 21
73.010160
  0
LINE
  8
0
  6
CONTINUOUS
 62
1
 10
130.685743
 20
72.839805
 11
133.278006
 21
70.448045
  0
LINE
  8
0
  6
CONTINUOUS
 62
1
 10
130.734348
 20
73.027197
 11
131.289867
 21
73.027197
  0
ARC
  8
0
  6
CONTINUOUS
 62
1
 10
131.289867
 20
72.527197
 40
0.500000
 50
75.000000
 51
90.000000
  0
ARC
  8
0
  6
CONTINUOUS
 62
1
 10
130.734348
 20
72.927197
 40
0.100000
 50
90.000000
 51
240.918154
  0
LINE
  8
0
  6
CONTINUOUS
 62
1
 10
133.049574
 20
69.897467
 11
127.902558
 21
72.944792
  0
ARC
  8
0
  6
CONTINUOUS
 62
1
 10
127.685101
 20
72.501287
 40
0.493948
 50
63.880546
 51
226.165558
  0
ARC
  8
0
  6
CONTINUOUS
 62
1
 10
133.132189
 20
70.185867
 40
0.300000
 50
254.015176
 51
60.918154
  0
LINE
  8
0
  6
CONTINUOUS
 62
1
 10
141.202181
 20
72.953974
 11
140.174352
 21
71.926145
  0
ARC
  8
0
  6
CONTINUOUS
 62
1
 10
139.467245
 20
72.633252
 40
1.000000
 50
270.000000
 51
315.000000
  0
ARC
  8
0
  6
CONTINUOUS
 62
1
 10
141.378958
 20
72.777197
 40
0.250000
 50
90.000000
 51
135.000000
  0
LINE
  8
0
  6
CONTINUOUS
 62
1
 10
141.378958
 20
73.027197
 11
141.389011
 21
73.027197
  0
LINE
  8
0
  6
CONTINUOUS
 62
1
 10
141.546220
 20
72.971582
 11
143.700786
 21
71.229075
  0
ARC
  8
0
  6
CONTINUOUS
 62
1
 10
141.389011
 20
72.777197
 40
0.250000
 50
51.035770
 51
90.000000
  0
ARC
  8
0
  6
CONTINUOUS
 62
1
 10
136.871760
 20
72.633252
 40
1.000000
 50
255.503090
 51
270.000000
  0
ARC
  8
0
  6
CONTINUOUS
 62
1
 10
143.767426
 20
69.633252
 40
1.500000
 50
0.000000
 51
82.883405
  0
ARC
  8
0
  6
CONTINUOUS
 62
1
 10
144.015204
 20
71.617844
 40
0.500000
 50
231.035770
 51
262.883405
  0
ARC
  8
0
  6
CONTINUOUS
 62
1
 10
103.469534
 20
62.181074
 40
25.869325
 50
9.124082
 51
22.653859
  0
LINE
  8
0
  6
RANDOM
 62
1
 10
108.600229
 20
65.133252
 11
108.600229
 21
125.258252
  0
TEXT
  8
0
  6
CONTINUOUS
 62
1
 10
96.299163
 20
23.111799
 40
2.000000
  1
GLAZING GASKET
 50
90.000000
 41
1.000000
 51
0.000000
  7
STANDARD
  0
LINE
  8
0
  6
CONTINUOUS
 62
1
 10
148.244571
 20
74.110160
 11
108.600229
 21
74.110160
  0
LINE
  8
0
  6
CONTINUOUS
 62
1
 10
108.600229
 20
75.110160
 11
148.244571
 21
75.110160
  0
LINE
  8
0
  6
CONTINUOUS
 62
1
 10
148.244571
 20
76.110160
 11
108.600229
 21
76.110160
  0
LINE
  8
0
  6
CONTINUOUS
 62
1
 10
108.600229
 20
77.110160
 11
148.244571
 21
77.110160
  0
LINE
  8
0
  6
CONTINUOUS
 62
1
 10
108.600229
 20
100.110160
 11
148.244571
 21
100.110160
  0
LINE
  8
0
  6
CONTINUOUS
 62
1
 10
148.244571
 20
99.110160
 11
108.600229
 21
99.110160
  0
LINE
  8
0
  6
CONTINUOUS
 62
1
 10
108.600229
 20
98.110160
 11
148.244571
 21
98.110160
  0
LINE
  8
0
  6
CONTINUOUS
 62
1
 10
148.244571
 20
97.110160
 11
108.600229
 21
97.110160
  0
LINE
  8
0
  6
DASHED
 62
1
 10
153.004267
 20
85.244426
 11
153.004267
 21
113.344426
  0
LINE
  8
0
  6
DASHED
 62
1
 10
152.754267
 20
113.594426
 11
138.554267
 21
113.594426
  0
LINE
  8
0
  6
DASHED
 62
1
 10
138.304267
 20
113.344426
 11
138.304267
 21
111.444426
  0
LINE
  8
0
  6
DASHED
 62
1
 10
152.204267
 20
83.594426
 11
153.379267
 21
83.594426
  0
LINE
  8
0
  6
DASHED
 62
1
 10
138.554267
 20
111.194426
 11
148.604267
 21
111.194426
  0
LINE
  8
0
  6
DASHED
 62
1
 10
155.654267
 20
84.194426
 11
155.654267
 21
86.069426
  0
LINE
  8
0
  6
DASHED
 62
1
 10
154.804267
 20
86.069426
 11
154.804267
 21
85.244426
  0
LINE
  8
0
  6
DASHED
 62
1
 10
154.554267
 20
84.994426
 11
153.254267
 21
84.994426
  0
LINE
  8
0
  6
DASHED
 62
1
 10
151.604267
 20
108.194426
 11
151.604267
 21
84.194426
  0
ARC
  8
0
  6
DASHED
 62
1
 10
148.604267
 20
108.194426
 40
3.000000
 50
0.000000
 51
90.000000
  0
ARC
  8
0
  6
DASHED
 62
1
 10
155.229267
 20
86.069426
 40
0.425000
 50
90.000000
 51
180.000000
  0
ARC
  8
0
  6
DASHED
 62
1
 10
155.229267
 20
86.069426
 40
0.425000
 50
0.000000
 51
90.000000
  0
ARC
  8
0
  6
DASHED
 62
1
 10
155.054267
 20
84.194426
 40
0.600000
 50
270.000000
 51
0.000000
  0
ARC
  8
0
  6
DASHED
 62
1
 10
152.204267
 20
84.194426
 40
0.600000
 50
180.000000
 51
270.000000
  0
ARC
  8
0
  6
CONTINUOUS
 62
1
 10
154.554267
 20
85.244426
 40
0.250000
 50
270.000000
 51
0.000000
  0
ARC
  8
0
  6
CONTINUOUS
 62
1
 10
153.254267
 20
85.244426
 40
0.250000
 50
180.000000
 51
270.000000
  0
ARC
  8
0
  6
CONTINUOUS
 62
1
 10
152.754267
 20
113.344426
 40
0.250000
 50
0.000000
 51
90.000000
  0
ARC
  8
0
  6
CONTINUOUS
 62
1
 10
138.554267
 20
113.344426
 40
0.250000
 50
90.000000
 51
180.000000
  0
ARC
  8
0
  6
CONTINUOUS
 62
1
 10
138.554267
 20
111.444426
 40
0.250000
 50
180.000000
 51
270.000000
  0
LINE
  8
0
  6
DASHED
 62
1
 10
153.879267
 20
83.594426
 11
155.054267
 21
83.594426
  0
ARC
  8
0
  6
CONTINUOUS
 62
1
 10
153.629267
 20
83.594426
 40
0.250000
 50
180.000000
 51
0.000000
  0
LINE
  8
0
  6
CONTINUOUS
 62
1
 10
148.304267
 20
101.196334
 11
108.659925
 21
101.196334
  0
LINE
  8
0
  6
CONTINUOUS
 62
1
 10
129.304267
 20
118.344426
 11
108.659925
 21
118.344426
  0
LINE
  8
0
  6
CONTINUOUS
 62
1
 10
129.304267
 20
118.344426
 11
129.304267
 21
107.338080
  0
ARC
  8
0
  6
CONTINUOUS
 62
1
 10
140.062923
 20
101.250409
 40
12.802124
 50
154.429672
 51
180.018236
  0
LINE
  8
0
  6
CONTINUOUS
 62
1
 10
129.754267
 20
107.144426
 11
129.754267
 21
105.544426
  0
LINE
  8
0
  6
CONTINUOUS
 62
1
 10
129.416744
 20
107.344426
 11
129.554267
 21
107.344426
  0
ARC
  8
0
  6
CONTINUOUS
 62
1
 10
129.554267
 20
107.144426
 40
0.200000
 50
0.000000
 51
90.000000
  0
LINE
  8
0
  6
CONTINUOUS
 62
1
 10
132.604267
 20
105.294426
 11
130.004267
 21
105.294426
  0
ARC
  8
0
  6
CONTINUOUS
 62
1
 10
130.004267
 20
105.544426
 40
0.250000
 50
180.000000
 51
270.000000
  0
LINE
  8
0
  6
CONTINUOUS
 62
1
 10
132.854267
 20
106.044426
 11
132.854267
 21
105.544426
  0
ARC
  8
0
  6
CONTINUOUS
 62
1
 10
132.604267
 20
105.544426
 40
0.250000
 50
270.000000
 51
0.000000
  0
LINE
  8
0
  6
CONTINUOUS
 62
1
 10
133.104267
 20
106.294426
 11
135.354267
 21
106.294426
  0
ARC
  8
0
  6
CONTINUOUS
 62
1
 10
133.104267
 20
106.044426
 40
0.250000
 50
90.000000
 51
180.000000
  0
LINE
  8
0
  6
CONTINUOUS
 62
1
 10
127.260799
 20
101.246334
 11
131.304267
 21
101.246334
  0
ARC
  8
0
  6
CONTINUOUS
 62
1
 10
131.665997
 20
97.497405
 40
9.538915
 50
23.142181
 51
67.253474
  0
LINE
  8
0
  6
CONTINUOUS
 62
1
 10
140.437339
 20
101.246334
 11
137.300234
 21
101.246334
  0
ARC
  8
0
  6
CONTINUOUS
 62
1
 10
134.302250
 20
92.725542
 40
9.032819
 50
70.615920
 51
109.384080
  0
ARC
  8
0
  6
CONTINUOUS
 62
1
 10
134.302250
 20
92.725542
 40
10.032819
 50
72.092984
 51
107.756739
  0
ARC
  8
0
  6
CONTINUOUS
 62
1
 10
130.889347
 20
102.942059
 40
0.750000
 50
90.533136
 51
298.088987
  0
ARC
  8
0
  6
CONTINUOUS
 62
1
 10
133.292762
 20
95.333989
 40
8.698667
 50
59.905591
 51
106.087152
  0
ARC
  8
0
  6
CONTINUOUS
 62
1
 10
137.397789
 20
102.622174
 40
0.350000
 50
268.245528
 51
42.822203
  0
ARC
  8
0
  6
CONTINUOUS
 62
1
 10
129.416744
 20
106.344426
 40
1.000000
 50
90.000000
 51
154.429672
  0
LINE
  8
0
  6
CONTINUOUS
 62
1
 10
129.804267
 20
105.594426
 11
129.804267
 21
116.344426
  0
LINE
  8
0
  6
CONTINUOUS
 62
1
 10
131.804267
 20
118.344426
 11
150.804267
 21
118.344426
  0
LINE
  8
0
  6
CONTINUOUS
 62
1
 10
152.804267
 20
116.344426
 11
152.804267
 21
114.094426
  0
LINE
  8
0
  6
CONTINUOUS
 62
1
 10
130.054267
 20
105.344426
 11
132.554267
 21
105.344426
  0
LINE
  8
0
  6
CONTINUOUS
 62
1
 10
132.804267
 20
105.594426
 11
132.804267
 21
106.094426
  0
LINE
  8
0
  6
CONTINUOUS
 62
1
 10
137.804267
 20
113.594426
 11
137.804267
 21
111.094426
  0
LINE
  8
0
  6
CONTINUOUS
 62
1
 10
152.554267
 20
113.844426
 11
138.054267
 21
113.844426
  0
LINE
  8
0
  6
CONTINUOUS
 62
1
 10
138.054267
 20
110.844426
 11
145.054267
 21
110.844426
  0
LINE
  8
0
  6
CONTINUOUS
 62
1
 10
145.304267
 20
110.594426
 11
145.304267
 21
105.594426
  0
LINE
  8
0
  6
CONTINUOUS
 62
1
 10
145.054267
 20
105.344426
 11
142.554267
 21
105.344426
  0
LINE
  8
0
  6
CONTINUOUS
 62
1
 10
142.304267
 20
105.594426
 11
142.304267
 21
106.094426
  0
LINE
  8
0
  6
CONTINUOUS
 62
1
 10
142.054267
 20
106.344426
 11
133.054267
 21
106.344426
  0
ARC
  8
0
  6
CONTINUOUS
 62
1
 10
131.804267
 20
116.344426
 40
2.000000
 50
90.000000
 51
180.000000
  0
ARC
  8
0
  6
CONTINUOUS
 62
1
 10
150.804267
 20
116.344426
 40
2.000000
 50
0.000000
 51
90.000000
  0
ARC
  8
0
  6
CONTINUOUS
 62
1
 10
152.554267
 20
114.094426
 40
0.250000
 50
270.000000
 51
0.000000
  0
ARC
  8
0
  6
CONTINUOUS
 62
1
 10
138.054267
 20
113.594426
 40
0.250000
 50
90.000000
 51
180.000000
  0
ARC
  8
0
  6
CONTINUOUS
 62
1
 10
138.054267
 20
111.094426
 40
0.250000
 50
180.000000
 51
270.000000
  0
ARC
  8
0
  6
CONTINUOUS
 62
1
 10
145.054267
 20
110.594426
 40
0.250000
 50
0.000000
 51
90.000000
  0
ARC
  8
0
  6
CONTINUOUS
 62
1
 10
145.054267
 20
105.594426
 40
0.250000
 50
270.000000
 51
0.000000
  0
ARC
  8
0
  6
CONTINUOUS
 62
1
 10
142.554267
 20
105.594426
 40
0.250000
 50
180.000000
 51
270.000000
  0
ARC
  8
0
  6
CONTINUOUS
 62
1
 10
142.054267
 20
106.094426
 40
0.250000
 50
0.000000
 51
90.000000
  0
ARC
  8
0
  6
CONTINUOUS
 62
1
 10
133.054267
 20
106.094426
 40
0.250000
 50
90.000000
 51
180.000000
  0
ARC
  8
0
  6
CONTINUOUS
 62
1
 10
132.554267
 20
105.594426
 40
0.250000
 50
270.000000
 51
0.000000
  0
ARC
  8
0
  6
CONTINUOUS
 62
1
 10
130.054267
 20
105.594426
 40
0.250000
 50
180.000000
 51
270.000000
  0
LINE
  8
0
  6
CONTINUOUS
 62
1
 10
153.244571
 20
101.196334
 11
148.304267
 21
101.196334
  0
LINE
  8
0
  6
CONTINUOUS
 62
1
 10
148.304267
 20
73.196334
 11
153.244571
 21
73.196334
  0
LINE
  8
0
  6
CONTINUOUS
 62
1
 10
153.244571
 20
73.196334
 11
153.244571
 21
101.196334
  0
LINE
  8
0
  6
CONTINUOUS
 62
1
 10
153.244571
 20
73.196334
 11
148.304267
 21
101.196334
  0
LINE
  8
0
  6
CONTINUOUS
 62
1
 10
153.244571
 20
101.196334
 11
148.244571
 21
73.110160
  0
LINE
  8
0
  6
CONTINUOUS
 62
1
 10
108.600229
 20
107.338080
 11
129.304267
 21
107.338080
  0
TEXT
  8
0
  6
CONTINUOUS
 62
1
 10
129.057129
 20
23.111799
 40
2.000000
  1
SETTING BLOCK
 50
90.000000
 41
1.000000
 51
0.000000
  7
STANDARD
  0
TEXT
  8
0
  6
CONTINUOUS
 62
1
 10
133.057129
 20
23.111799
 40
2.000000
  1
BY GLAZIER
 50
90.000000
 41
1.000000
 51
0.000000
  7
STANDARD
  0
TEXT
  8
0
  6
CONTINUOUS
 62
1
 10
74.489414
 20
137.970437
 40
2.000000
  1
VISION STRIP
 50
90.000000
 41
1.000000
 51
0.000000
  7
STANDARD
  0
TEXT
  8
0
  6
CONTINUOUS
 62
1
 10
93.744799
 20
137.970437
 40
2.000000
  1
BEAD
 50
90.000000
 41
1.000000
 51
0.000000
  7
STANDARD
  0
TEXT
  8
0
  6
CONTINUOUS
 62
1
 10
97.744799
 20
137.970437
 40
2.000000
  1
(TIMBER TO MATCH)
 50
90.000000
 41
1.000000
 51
0.000000
  7
STANDARD
  0
TEXT
  8
0
  6
CONTINUOUS
 62
1
 10
112.744799
 20
137.970437
 40
2.000000
  1
BEAD CLIP
 50
90.000000
 41
1.000000
 51
0.000000
  7
STANDARD
  0
TEXT
  8
0
  6
CONTINUOUS
 62
1
 10
116.744799
 20
137.970437
 40
2.000000
  1
(SHOWN DOTTED)
 50
90.000000
 41
1.000000
 51
0.000000
  7
STANDARD
  0
TEXT
  8
0
  6
CONTINUOUS
 62
1
 10
131.744799
 20
137.970437
 40
2.000000
  1
HEEL BEAD
 50
90.000000
 41
1.000000
 51
0.000000
  7
STANDARD
  0
LINE
  8
0
  6
CONTINUOUS
 62
1
 10
73.501958
 20
134.907315
 11
126.495410
 21
104.834291
  0
LINE
  8
0
  6
CONTINUOUS
 62
1
 10
126.495410
 20
104.834291
 11
124.896948
 21
106.069919
  0
LINE
  8
0
  6
CONTINUOUS
 62
1
 10
124.896948
 20
106.069919
 11
124.685420
 21
105.697173
  0
LINE
  8
0
  6
CONTINUOUS
 62
1
 10
124.685420
 20
105.697173
 11
125.749918
 21
105.257347
  0
LINE
  8
0
  6
CONTINUOUS
 62
1
 10
125.749918
 20
105.257347
 11
124.826438
 21
105.945671
  0
LINE
  8
0
  6
CONTINUOUS
 62
1
 10
124.826438
 20
105.945671
 11
124.614910
 21
105.572925
  0
LINE
  8
0
  6
CONTINUOUS
 62
1
 10
124.614910
 20
105.572925
 11
126.495410
 21
104.834291
  0
LINE
  8
0
  6
CONTINUOUS
 62
1
 10
94.567678
 20
134.907315
 11
131.103536
 21
118.823246
  0
LINE
  8
0
  6
CONTINUOUS
 62
1
 10
131.103536
 20
118.823246
 11
129.388162
 21
119.890577
  0
LINE
  8
0
  6
CONTINUOUS
 62
1
 10
129.388162
 20
119.890577
 11
129.215484
 21
119.498329
  0
LINE
  8
0
  6
CONTINUOUS
 62
1
 10
129.215484
 20
119.498329
 11
130.319039
 21
119.168603
  0
LINE
  8
0
  6
CONTINUOUS
 62
1
 10
130.319039
 20
119.168603
 11
129.330603
 21
119.759828
  0
LINE
  8
0
  6
CONTINUOUS
 62
1
 10
129.330603
 20
119.759828
 11
129.157924
 21
119.367579
  0
LINE
  8
0
  6
CONTINUOUS
 62
1
 10
129.157924
 20
119.367579
 11
131.103536
 21
118.823246
  0
LINE
  8
0
  6
CONTINUOUS
 62
1
 10
114.152215
 20
134.907315
 11
141.142668
 21
113.556816
  0
LINE
  8
0
  6
CONTINUOUS
 62
1
 10
141.142668
 20
113.556816
 11
139.751265
 21
115.021794
  0
LINE
  8
0
  6
CONTINUOUS
 62
1
 10
139.751265
 20
115.021794
 11
139.485361
 21
114.685650
  0
LINE
  8
0
  6
CONTINUOUS
 62
1
 10
139.485361
 20
114.685650
 11
140.470380
 21
114.088623
  0
LINE
  8
0
  6
CONTINUOUS
 62
1
 10
140.470380
 20
114.088623
 11
139.662630
 21
114.909746
  0
LINE
  8
0
  6
CONTINUOUS
 62
1
 10
139.662630
 20
114.909746
 11
139.396727
 21
114.573602
  0
LINE
  8
0
  6
CONTINUOUS
 62
1
 10
139.396727
 20
114.573602
 11
141.142668
 21
113.556816
  0
LINE
  8
0
  6
CONTINUOUS
 62
1
 10
130.774384
 20
134.907315
 11
149.536041
 21
103.846836
  0
LINE
  8
0
  6
CONTINUOUS
 62
1
 10
149.536041
 20
103.846836
 11
148.746533
 21
105.706494
  0
LINE
  8
0
  6
CONTINUOUS
 62
1
 10
148.746533
 20
105.706494
 11
148.379689
 21
105.484908
  0
LINE
  8
0
  6
CONTINUOUS
 62
1
 10
148.379689
 20
105.484908
 11
149.092868
 21
104.580522
  0
LINE
  8
0
  6
CONTINUOUS
 62
1
 10
149.092868
 20
104.580522
 11
148.624252
 21
105.632632
  0
LINE
  8
0
  6
CONTINUOUS
 62
1
 10
148.624252
 20
105.632632
 11
148.257408
 21
105.411046
  0
LINE
  8
0
  6
CONTINUOUS
 62
1
 10
148.257408
 20
105.411046
 11
149.536041
 21
103.846836
  0
LINE
  8
0
  6
CONTINUOUS
 62
1
 10
148.244571
 20
101.110160
 11
153.244571
 21
104.053574
  0
LINE
  8
0
  6
CONTINUOUS
 62
1
 10
148.304267
 20
100.196334
 11
153.244571
 21
100.196334
  0
LINE
  8
0
  6
CONTINUOUS
 62
1
 10
150.089664
 20
102.196334
 11
153.244571
 21
102.196334
  0
LINE
  8
0
  6
CONTINUOUS
 62
1
 10
153.244571
 20
103.196334
 11
151.788372
 21
103.196334
  0
LINE
  8
0
  6
CONTINUOUS
 62
1
 10
153.244571
 20
99.196334
 11
148.304267
 21
99.196334
  0
LINE
  8
0
  6
CONTINUOUS
 62
1
 10
148.304267
 20
98.196334
 11
153.244571
 21
98.196334
  0
LINE
  8
0
  6
CONTINUOUS
 62
1
 10
153.244571
 20
97.196334
 11
148.304267
 21
97.196334
  0
LINE
  8
0
  6
CONTINUOUS
 62
1
 10
148.304267
 20
96.196334
 11
153.244571
 21
96.196334
  0
ARC
  8
0
  6
CONTINUOUS
 62
1
 10
150.744571
 20
96.430722
 40
3.000000
 50
213.557310
 51
326.442690
  0
LINE
  8
0
  6
CONTINUOUS
 62
1
 10
153.244571
 20
95.196334
 11
148.304267
 21
95.196334
  0
LINE
  8
0
  6
CONTINUOUS
 62
1
 10
148.742694
 20
94.196334
 11
152.746449
 21
94.196334
  0
LINE
  8
0
  6
CONTINUOUS
 62
1
 10
148.744571
 20
94.194654
 11
148.744571
 21
101.404502
  0
LINE
  8
0
  6
CONTINUOUS
 62
1
 10
149.744571
 20
101.993184
 11
149.744571
 21
93.602295
  0
LINE
  8
0
  6
CONTINUOUS
 62
1
 10
150.744571
 20
93.430722
 11
150.744571
 21
102.581867
  0
LINE
  8
0
  6
CONTINUOUS
 62
1
 10
151.744571
 20
103.170550
 11
151.744571
 21
93.602295
  0
LINE
  8
0
  6
CONTINUOUS
 62
1
 10
152.744571
 20
94.194654
 11
152.744571
 21
103.759233
  0
LINE
  8
0
  6
CONTINUOUS
 62
1
 10
130.055426
 20
50.159760
 11
150.886615
 21
72.534000
  0
LINE
  8
0
  6
CONTINUOUS
 62
1
 10
150.886615
 20
72.534000
 11
149.314665
 21
71.264903
  0
LINE
  8
0
  6
CONTINUOUS
 62
1
 10
149.314665
 20
71.264903
 11
149.628334
 21
70.972866
  0
LINE
  8
0
  6
CONTINUOUS
 62
1
 10
149.628334
 20
70.972866
 11
150.302542
 21
71.906663
  0
LINE
  8
0
  6
CONTINUOUS
 62
1
 10
150.302542
 20
71.906663
 11
149.419221
 21
71.167558
  0
LINE
  8
0
  6
CONTINUOUS
 62
1
 10
149.419221
 20
71.167558
 11
149.732890
 21
70.875521
  0
LINE
  8
0
  6
CONTINUOUS
 62
1
 10
149.732890
 20
70.875521
 11
150.886615
 21
72.534000
  0
LINE
  8
0
  6
CONTINUOUS
 62
1
 10
95.465365
 20
50.159760
 11
127.226499
 21
69.962249
  0
LINE
  8
0
  6
CONTINUOUS
 62
1
 10
127.226499
 20
69.962249
 11
125.377931
 21
69.146447
  0
LINE
  8
0
  6
CONTINUOUS
 62
1
 10
125.377931
 20
69.146447
 11
125.604706
 21
68.782722
  0
LINE
  8
0
  6
CONTINUOUS
 62
1
 10
125.604706
 20
68.782722
 11
126.499048
 21
69.508698
  0
LINE
  8
0
  6
CONTINUOUS
 62
1
 10
126.499048
 20
69.508698
 11
125.453522
 21
69.025205
  0
LINE
  8
0
  6
CONTINUOUS
 62
1
 10
125.453522
 20
69.025205
 11
125.680298
 21
68.661480
  0
LINE
  8
0
  6
CONTINUOUS
 62
1
 10
125.680298
 20
68.661480
 11
127.226499
 21
69.962249
  0
TEXT
  8
0
  6
CONTINUOUS
 62
1
 10
196.450292
 20
67.584503
 40
3.000000
  1
28.0mm DOUBLE GLASS
 50
90.000000
 41
1.000000
 51
0.000000
  7
STANDARD
  0
LINE
  8
0
  6
CONTINUOUS
 62
1
 10
197.450292
 20
119.419859
 11
197.450292
 21
67.584503
  0
TEXT
  8
0
  6
CONTINUOUS
 62
1
 10
30.000000
 20
20.843750
 40
3.000000
  1
GLAZING DETAILS
 50
90.000000
 41
1.000000
 51
0.000000
  7
STANDARD
  0
LINE
  8
0
  6
CONTINUOUS
 62
1
 10
31.000000
 20
56.167776
 11
31.000000
 21
20.843750
  0
ENDSEC
  0
EOF
