  0
SECTION
  2
HEADER
  9
$LIMMIN
 10
0.000000
 20
0.000000
  9
$LIMMAX
 10
297.301779
 20
210.224104
  9
$EXTMIN
 10
0.000000
 20
0.000000
  9
$EXTMAX
 10
297.301779
 20
210.224104
  9
$ANGBASE
 50
0.0
  9
$ANGDIR
 70
0
  9
$DIMRND
 40
0.100000
  9
$DIMSE1
 70
0
  9
$DIMSE2
 70
0
  9
$DIMTXT
 40
2.500000
  9
$LTSCALE
 40
1.000000
  9
$LUPREC
 70
3
  9
$AUPREC
 70
3
  9
$PDMODE
 70
2
  9
$PDSIZE
 40
1.486509
  0
ENDSEC
  0
SECTION
  2
TABLES
  0
TABLE
  2
VPORT
  70
1
  0
VPORT
  2
*ACTIVE
 70
0
  10
0.0
 20
0.0
 11
1.0
 21
1.0
 12
594.0
 22
420.0
 13
0.0
 23
0.0
 14
10.0
 24
10.0
 15
10.0
 25
10.0
 16
0.0
 26
0.0
 36
1.0
 17
594.0
 27
420.0
 37
100.0
 40
1000.0
 41
1.0
 42
50.0
 43
0.0
 44
0.0
 50
0.0
 51
0.0
 71
0
 72
2000
 73
1
 74
3
 75
0
 76
0
 77
0
 78
1
  0
ENDTAB
  0
TABLE
  2
LTYPE
 70
4
  0
LTYPE
  2
CONTINUOUS
 70
0
  3
Solid line
 72
65
 73
0
 40
0.0
  0
LTYPE
  2
DASHED
 70
0
  3
Dashed line
 72
65
 73
2
 40
6.000000
 49
3.000000
 49
-3.000000
  0
LTYPE
  2
CENTER
 70
0
  3
Chain line
 72
65
 73
4
 40
24.000000
 49
15.000000
 49
-3.000000
 49
3.000000
 49
-3.000000
  0
LTYPE
  2
RANDOM
 70
0
  3
Random line
 72
65
 73
4
 40
22.500000
 49
6.000000
 49
-3.000000
 49
4.500000
 49
-9.000000
  0
ENDTAB
  0
TABLE
  2
STYLE
 70
9
  0
STYLE
  2
STANDARD
 40
0
 41
1.0
 50
0.0
 71
0
 42
0
  3
simplex
  4

 70
0
  0
ENDTAB
  0
TABLE
  2
LAYER
 70
2
  0
LAYER
  2
0
 70
0
 62
7
  6
CONTINUOUS
  0
LAYER
  2
0
 62
1
  6
CONTINUOUS
 70
0
  0
ENDTAB
  0
ENDSEC
  0
SECTION
  2
BLOCKS
  0
ENDSEC
  0
SECTION
  2
ENTITIES
  0
LINE
  8
0
  6
CONTINUOUS
 62
1
 10
17.709024
 20
175.875224
 11
22.771524
 21
175.875224
  0
LINE
  8
0
  6
CONTINUOUS
 62
1
 10
17.709024
 20
188.868974
 11
22.771524
 21
188.868974
  0
LINE
  8
0
  6
CONTINUOUS
 62
1
 10
22.771524
 20
189.881474
 11
18.813570
 21
189.881474
  0
LINE
  8
0
  6
CONTINUOUS
 62
1
 10
22.771524
 20
174.862724
 11
18.813570
 21
174.862724
  0
LINE
  8
0
  6
CONTINUOUS
 62
1
 10
13.152774
 20
184.692412
 11
13.152774
 21
180.051787
  0
LINE
  8
0
  6
CONTINUOUS
 62
1
 10
14.165274
 20
179.123662
 11
14.165274
 21
181.865849
  0
LINE
  8
0
  6
CONTINUOUS
 62
1
 10
14.165274
 20
182.878349
 11
14.165274
 21
185.620537
  0
LINE
  8
0
  6
CONTINUOUS
 62
1
 10
13.152774
 20
180.051787
 11
10.621524
 21
182.372099
  0
LINE
  8
0
  6
CONTINUOUS
 62
1
 10
22.771524
 20
171.234599
 11
18.813570
 21
174.862724
  0
LINE
  8
0
  6
CONTINUOUS
 62
1
 10
16.696524
 20
176.803349
 11
14.165274
 21
179.123662
  0
LINE
  8
0
  6
CONTINUOUS
 62
1
 10
18.813570
 20
189.881474
 11
22.771524
 21
193.509599
  0
LINE
  8
0
  6
CONTINUOUS
 62
1
 10
10.621524
 20
182.372099
 11
13.152774
 21
184.692412
  0
LINE
  8
0
  6
CONTINUOUS
 62
1
 10
14.165274
 20
185.620537
 11
16.696524
 21
187.940849
  0
LINE
  8
0
  6
CONTINUOUS
 62
1
 10
22.771524
 20
174.862724
 11
22.771524
 21
171.234599
  0
LINE
  8
0
  6
CONTINUOUS
 62
1
 10
22.771524
 20
181.865849
 11
22.771524
 21
175.875224
  0
LINE
  8
0
  6
CONTINUOUS
 62
1
 10
22.771524
 20
193.509599
 11
22.771524
 21
189.881474
  0
LINE
  8
0
  6
CONTINUOUS
 62
1
 10
22.771524
 20
188.868974
 11
22.771524
 21
182.878349
  0
LINE
  8
0
  6
CONTINUOUS
 62
1
 10
22.771524
 20
181.865849
 11
17.709024
 21
181.865849
  0
LINE
  8
0
  6
CONTINUOUS
 62
1
 10
16.696524
 20
181.865849
 11
14.165274
 21
181.865849
  0
LINE
  8
0
  6
CONTINUOUS
 62
1
 10
22.771524
 20
182.878349
 11
17.709024
 21
182.878349
  0
LINE
  8
0
  6
CONTINUOUS
 62
1
 10
16.696524
 20
182.878349
 11
14.165274
 21
182.878349
  0
LINE
  8
0
  6
CONTINUOUS
 62
1
 10
16.696524
 20
187.940849
 11
16.696524
 21
182.878349
  0
LINE
  8
0
  6
CONTINUOUS
 62
1
 10
16.696524
 20
181.865849
 11
16.696524
 21
176.803349
  0
LINE
  8
0
  6
CONTINUOUS
 62
1
 10
17.709024
 20
175.875224
 11
17.709024
 21
181.865849
  0
LINE
  8
0
  6
CONTINUOUS
 62
1
 10
17.709024
 20
182.878349
 11
17.709024
 21
188.868974
  0
LINE
  8
0
  6
CONTINUOUS
 62
1
 10
12.950274
 20
180.237412
 11
12.950274
 21
184.506787
  0
LINE
  8
0
  6
CONTINUOUS
 62
1
 10
12.747774
 20
184.321162
 11
12.747774
 21
180.423037
  0
LINE
  8
0
  6
CONTINUOUS
 62
1
 10
12.545274
 20
180.608662
 11
12.545274
 21
184.135537
  0
LINE
  8
0
  6
CONTINUOUS
 62
1
 10
12.342774
 20
183.949912
 11
12.342774
 21
180.794287
  0
LINE
  8
0
  6
CONTINUOUS
 62
1
 10
12.140274
 20
180.979912
 11
12.140274
 21
183.764287
  0
LINE
  8
0
  6
CONTINUOUS
 62
1
 10
11.937774
 20
183.578662
 11
11.937774
 21
181.165537
  0
LINE
  8
0
  6
CONTINUOUS
 62
1
 10
11.735274
 20
181.351162
 11
11.735274
 21
183.393037
  0
LINE
  8
0
  6
CONTINUOUS
 62
1
 10
11.532774
 20
183.207412
 11
11.532774
 21
181.536787
  0
LINE
  8
0
  6
CONTINUOUS
 62
1
 10
11.330274
 20
181.722412
 11
11.330274
 21
183.021787
  0
LINE
  8
0
  6
CONTINUOUS
 62
1
 10
11.127774
 20
182.836162
 11
11.127774
 21
181.908037
  0
LINE
  8
0
  6
CONTINUOUS
 62
1
 10
10.925274
 20
182.093662
 11
10.925274
 21
182.650537
  0
LINE
  8
0
  6
CONTINUOUS
 62
1
 10
10.722774
 20
182.464912
 11
10.722774
 21
182.279287
  0
LINE
  8
0
  6
CONTINUOUS
 62
1
 10
22.366524
 20
175.875224
 11
22.366524
 21
181.865849
  0
LINE
  8
0
  6
CONTINUOUS
 62
1
 10
21.961524
 20
181.865849
 11
21.961524
 21
175.875224
  0
LINE
  8
0
  6
CONTINUOUS
 62
1
 10
21.556524
 20
175.875224
 11
21.556524
 21
181.865849
  0
LINE
  8
0
  6
CONTINUOUS
 62
1
 10
21.151524
 20
181.865849
 11
21.151524
 21
175.875224
  0
LINE
  8
0
  6
CONTINUOUS
 62
1
 10
20.746524
 20
175.875224
 11
20.746524
 21
181.865849
  0
LINE
  8
0
  6
CONTINUOUS
 62
1
 10
20.341524
 20
181.865849
 11
20.341524
 21
175.875224
  0
LINE
  8
0
  6
CONTINUOUS
 62
1
 10
19.936524
 20
175.875224
 11
19.936524
 21
181.865849
  0
LINE
  8
0
  6
CONTINUOUS
 62
1
 10
19.531524
 20
181.865849
 11
19.531524
 21
175.875224
  0
LINE
  8
0
  6
CONTINUOUS
 62
1
 10
19.126524
 20
175.875224
 11
19.126524
 21
181.865849
  0
LINE
  8
0
  6
CONTINUOUS
 62
1
 10
18.721524
 20
181.865849
 11
18.721524
 21
175.875224
  0
LINE
  8
0
  6
CONTINUOUS
 62
1
 10
18.316524
 20
175.875224
 11
18.316524
 21
181.865849
  0
LINE
  8
0
  6
CONTINUOUS
 62
1
 10
17.911524
 20
181.865849
 11
17.911524
 21
175.875224
  0
LINE
  8
0
  6
CONTINUOUS
 62
1
 10
22.366524
 20
182.878349
 11
22.366524
 21
188.868974
  0
LINE
  8
0
  6
CONTINUOUS
 62
1
 10
21.961524
 20
188.868974
 11
21.961524
 21
182.878349
  0
LINE
  8
0
  6
CONTINUOUS
 62
1
 10
21.556524
 20
182.878349
 11
21.556524
 21
188.868974
  0
LINE
  8
0
  6
CONTINUOUS
 62
1
 10
21.151524
 20
188.868974
 11
21.151524
 21
182.878349
  0
LINE
  8
0
  6
CONTINUOUS
 62
1
 10
21.151524
 20
188.868974
 11
21.151524
 21
182.878349
  0
LINE
  8
0
  6
CONTINUOUS
 62
1
 10
20.746524
 20
182.878349
 11
20.746524
 21
188.868974
  0
LINE
  8
0
  6
CONTINUOUS
 62
1
 10
20.341524
 20
188.868974
 11
20.341524
 21
182.878349
  0
LINE
  8
0
  6
CONTINUOUS
 62
1
 10
19.936524
 20
182.878349
 11
19.936524
 21
188.868974
  0
LINE
  8
0
  6
CONTINUOUS
 62
1
 10
19.531524
 20
188.868974
 11
19.531524
 21
182.878349
  0
LINE
  8
0
  6
CONTINUOUS
 62
1
 10
19.126524
 20
182.878349
 11
19.126524
 21
188.868974
  0
LINE
  8
0
  6
CONTINUOUS
 62
1
 10
18.721524
 20
188.868974
 11
18.721524
 21
182.878349
  0
LINE
  8
0
  6
CONTINUOUS
 62
1
 10
18.316524
 20
182.878349
 11
18.316524
 21
188.868974
  0
LINE
  8
0
  6
CONTINUOUS
 62
1
 10
17.911524
 20
188.868974
 11
17.911524
 21
182.878349
  0
LINE
  8
0
  6
CONTINUOUS
 62
1
 10
16.291524
 20
182.878349
 11
16.291524
 21
187.569599
  0
LINE
  8
0
  6
CONTINUOUS
 62
1
 10
15.886524
 20
187.198349
 11
15.886524
 21
182.878349
  0
LINE
  8
0
  6
CONTINUOUS
 62
1
 10
15.481524
 20
182.878349
 11
15.481524
 21
186.827099
  0
LINE
  8
0
  6
CONTINUOUS
 62
1
 10
15.076524
 20
186.455849
 11
15.076524
 21
182.878349
  0
LINE
  8
0
  6
CONTINUOUS
 62
1
 10
14.671524
 20
182.878349
 11
14.671524
 21
186.084599
  0
LINE
  8
0
  6
CONTINUOUS
 62
1
 10
14.266524
 20
185.713349
 11
14.266524
 21
182.878349
  0
LINE
  8
0
  6
CONTINUOUS
 62
1
 10
16.291524
 20
177.174599
 11
16.291524
 21
181.865849
  0
LINE
  8
0
  6
CONTINUOUS
 62
1
 10
15.886524
 20
181.865849
 11
15.886524
 21
177.545849
  0
LINE
  8
0
  6
CONTINUOUS
 62
1
 10
15.481524
 20
177.917099
 11
15.481524
 21
181.865849
  0
LINE
  8
0
  6
CONTINUOUS
 62
1
 10
15.076524
 20
181.865849
 11
15.076524
 21
178.288349
  0
LINE
  8
0
  6
CONTINUOUS
 62
1
 10
14.671524
 20
178.659599
 11
14.671524
 21
181.865849
  0
LINE
  8
0
  6
CONTINUOUS
 62
1
 10
14.266524
 20
181.865849
 11
14.266524
 21
179.030849
  0
LINE
  8
0
  6
CONTINUOUS
 62
1
 10
22.366524
 20
171.605849
 11
22.366524
 21
174.862724
  0
LINE
  8
0
  6
CONTINUOUS
 62
1
 10
21.961524
 20
174.862724
 11
21.961524
 21
171.977099
  0
LINE
  8
0
  6
CONTINUOUS
 62
1
 10
21.556524
 20
172.348349
 11
21.556524
 21
174.862724
  0
LINE
  8
0
  6
CONTINUOUS
 62
1
 10
21.151524
 20
174.862724
 11
21.151524
 21
172.719599
  0
LINE
  8
0
  6
CONTINUOUS
 62
1
 10
20.746524
 20
173.090849
 11
20.746524
 21
174.862724
  0
LINE
  8
0
  6
CONTINUOUS
 62
1
 10
20.341524
 20
174.862724
 11
20.341524
 21
173.462099
  0
LINE
  8
0
  6
CONTINUOUS
 62
1
 10
19.936524
 20
173.833349
 11
19.936524
 21
174.862724
  0
LINE
  8
0
  6
CONTINUOUS
 62
1
 10
19.531524
 20
174.862724
 11
19.531524
 21
174.204599
  0
LINE
  8
0
  6
CONTINUOUS
 62
1
 10
19.126524
 20
174.575849
 11
19.126524
 21
174.862724
  0
LINE
  8
0
  6
CONTINUOUS
 62
1
 10
22.366524
 20
189.881474
 11
22.366524
 21
193.138349
  0
LINE
  8
0
  6
CONTINUOUS
 62
1
 10
21.961524
 20
192.767099
 11
21.961524
 21
189.881474
  0
LINE
  8
0
  6
CONTINUOUS
 62
1
 10
21.556524
 20
189.881474
 11
21.556524
 21
192.395849
  0
LINE
  8
0
  6
CONTINUOUS
 62
1
 10
21.151524
 20
192.024599
 11
21.151524
 21
189.881474
  0
LINE
  8
0
  6
CONTINUOUS
 62
1
 10
20.746524
 20
189.881474
 11
20.746524
 21
191.653349
  0
LINE
  8
0
  6
CONTINUOUS
 62
1
 10
20.341524
 20
191.282099
 11
20.341524
 21
189.881474
  0
LINE
  8
0
  6
CONTINUOUS
 62
1
 10
19.936524
 20
189.881474
 11
19.936524
 21
190.910849
  0
LINE
  8
0
  6
CONTINUOUS
 62
1
 10
19.531524
 20
190.539599
 11
19.531524
 21
189.881474
  0
LINE
  8
0
  6
CONTINUOUS
 62
1
 10
19.126524
 20
189.881474
 11
19.126524
 21
190.168349
  0
LINE
  8
0
  6
CONTINUOUS
 62
1
 10
22.569024
 20
175.875224
 11
22.569024
 21
181.865849
  0
LINE
  8
0
  6
CONTINUOUS
 62
1
 10
22.164024
 20
181.865849
 11
22.164024
 21
175.875224
  0
LINE
  8
0
  6
CONTINUOUS
 62
1
 10
21.759024
 20
181.865849
 11
21.759024
 21
175.875224
  0
LINE
  8
0
  6
CONTINUOUS
 62
1
 10
21.354024
 20
175.875224
 11
21.354024
 21
181.865849
  0
LINE
  8
0
  6
CONTINUOUS
 62
1
 10
19.329024
 20
175.875224
 11
19.329024
 21
181.865849
  0
LINE
  8
0
  6
CONTINUOUS
 62
1
 10
18.924024
 20
181.865849
 11
18.924024
 21
175.875224
  0
LINE
  8
0
  6
CONTINUOUS
 62
1
 10
18.519024
 20
175.875224
 11
18.519024
 21
181.865849
  0
LINE
  8
0
  6
CONTINUOUS
 62
1
 10
18.114024
 20
181.865849
 11
18.114024
 21
175.875224
  0
LINE
  8
0
  6
CONTINUOUS
 62
1
 10
19.734024
 20
181.865849
 11
19.734024
 21
175.875224
  0
LINE
  8
0
  6
CONTINUOUS
 62
1
 10
20.139024
 20
175.875224
 11
20.139024
 21
181.865849
  0
LINE
  8
0
  6
CONTINUOUS
 62
1
 10
20.544024
 20
181.865849
 11
20.544024
 21
175.875224
  0
LINE
  8
0
  6
CONTINUOUS
 62
1
 10
20.949024
 20
175.875224
 11
20.949024
 21
181.865849
  0
LINE
  8
0
  6
CONTINUOUS
 62
1
 10
22.569024
 20
182.878349
 11
22.569024
 21
188.868974
  0
LINE
  8
0
  6
CONTINUOUS
 62
1
 10
22.164024
 20
188.868974
 11
22.164024
 21
182.878349
  0
LINE
  8
0
  6
CONTINUOUS
 62
1
 10
18.114024
 20
182.878349
 11
18.114024
 21
188.868974
  0
LINE
  8
0
  6
CONTINUOUS
 62
1
 10
18.519024
 20
188.868974
 11
18.519024
 21
182.878349
  0
LINE
  8
0
  6
CONTINUOUS
 62
1
 10
18.924024
 20
188.868974
 11
18.924024
 21
182.878349
  0
LINE
  8
0
  6
CONTINUOUS
 62
1
 10
19.329024
 20
182.878349
 11
19.329024
 21
188.868974
  0
LINE
  8
0
  6
CONTINUOUS
 62
1
 10
19.734024
 20
182.878349
 11
19.734024
 21
188.868974
  0
LINE
  8
0
  6
CONTINUOUS
 62
1
 10
20.139024
 20
182.878349
 11
20.139024
 21
188.868974
  0
LINE
  8
0
  6
CONTINUOUS
 62
1
 10
20.544024
 20
182.878349
 11
20.544024
 21
188.868974
  0
LINE
  8
0
  6
CONTINUOUS
 62
1
 10
20.949024
 20
188.868974
 11
20.949024
 21
182.878349
  0
LINE
  8
0
  6
CONTINUOUS
 62
1
 10
21.354024
 20
188.868974
 11
21.354024
 21
182.878349
  0
LINE
  8
0
  6
CONTINUOUS
 62
1
 10
21.759024
 20
182.878349
 11
21.759024
 21
188.868974
  0
LINE
  8
0
  6
CONTINUOUS
 62
1
 10
22.569024
 20
189.881474
 11
22.569024
 21
193.323974
  0
LINE
  8
0
  6
CONTINUOUS
 62
1
 10
22.164024
 20
192.952724
 11
22.164024
 21
189.881474
  0
LINE
  8
0
  6
CONTINUOUS
 62
1
 10
21.759024
 20
189.881474
 11
21.759024
 21
192.581474
  0
LINE
  8
0
  6
CONTINUOUS
 62
1
 10
21.354024
 20
192.210224
 11
21.354024
 21
189.881474
  0
LINE
  8
0
  6
CONTINUOUS
 62
1
 10
20.949024
 20
189.881474
 11
20.949024
 21
191.838974
  0
LINE
  8
0
  6
CONTINUOUS
 62
1
 10
20.544024
 20
191.467724
 11
20.544024
 21
189.881474
  0
LINE
  8
0
  6
CONTINUOUS
 62
1
 10
20.139024
 20
191.096474
 11
20.139024
 21
189.881474
  0
LINE
  8
0
  6
CONTINUOUS
 62
1
 10
19.734024
 20
190.725224
 11
19.734024
 21
189.881474
  0
LINE
  8
0
  6
CONTINUOUS
 62
1
 10
19.329024
 20
189.881474
 11
19.329024
 21
190.353974
  0
LINE
  8
0
  6
CONTINUOUS
 62
1
 10
18.924024
 20
189.982724
 11
18.924024
 21
189.881474
  0
LINE
  8
0
  6
CONTINUOUS
 62
1
 10
22.569024
 20
171.420224
 11
22.569024
 21
174.862724
  0
LINE
  8
0
  6
CONTINUOUS
 62
1
 10
22.164024
 20
174.862724
 11
22.164024
 21
171.791474
  0
LINE
  8
0
  6
CONTINUOUS
 62
1
 10
21.759024
 20
172.162724
 11
21.759024
 21
174.862724
  0
LINE
  8
0
  6
CONTINUOUS
 62
1
 10
21.354024
 20
174.862724
 11
21.354024
 21
172.533974
  0
LINE
  8
0
  6
CONTINUOUS
 62
1
 10
20.949024
 20
172.905224
 11
20.949024
 21
174.862724
  0
LINE
  8
0
  6
CONTINUOUS
 62
1
 10
20.544024
 20
174.862724
 11
20.544024
 21
173.276474
  0
LINE
  8
0
  6
CONTINUOUS
 62
1
 10
20.139024
 20
173.647724
 11
20.139024
 21
174.862724
  0
LINE
  8
0
  6
CONTINUOUS
 62
1
 10
19.734024
 20
174.862724
 11
19.734024
 21
174.018974
  0
LINE
  8
0
  6
CONTINUOUS
 62
1
 10
19.329024
 20
174.390224
 11
19.329024
 21
174.862724
  0
LINE
  8
0
  6
CONTINUOUS
 62
1
 10
18.924024
 20
174.862724
 11
18.924024
 21
174.761474
  0
LINE
  8
0
  6
CONTINUOUS
 62
1
 10
16.494024
 20
182.878349
 11
16.494024
 21
187.755224
  0
LINE
  8
0
  6
CONTINUOUS
 62
1
 10
16.089024
 20
187.383974
 11
16.089024
 21
182.878349
  0
LINE
  8
0
  6
CONTINUOUS
 62
1
 10
15.684024
 20
182.878349
 11
15.684024
 21
187.012724
  0
LINE
  8
0
  6
CONTINUOUS
 62
1
 10
15.279024
 20
186.641474
 11
15.279024
 21
182.878349
  0
LINE
  8
0
  6
CONTINUOUS
 62
1
 10
14.874024
 20
182.878349
 11
14.874024
 21
186.270224
  0
LINE
  8
0
  6
CONTINUOUS
 62
1
 10
14.469024
 20
185.898974
 11
14.469024
 21
182.878349
  0
LINE
  8
0
  6
CONTINUOUS
 62
1
 10
14.469024
 20
181.865849
 11
14.469024
 21
178.845224
  0
LINE
  8
0
  6
CONTINUOUS
 62
1
 10
14.874024
 20
178.473974
 11
14.874024
 21
181.865849
  0
LINE
  8
0
  6
CONTINUOUS
 62
1
 10
15.279024
 20
181.865849
 11
15.279024
 21
178.102724
  0
LINE
  8
0
  6
CONTINUOUS
 62
1
 10
15.684024
 20
177.731474
 11
15.684024
 21
181.865849
  0
LINE
  8
0
  6
CONTINUOUS
 62
1
 10
16.089024
 20
181.865849
 11
16.089024
 21
177.360224
  0
LINE
  8
0
  6
CONTINUOUS
 62
1
 10
16.494024
 20
176.988974
 11
16.494024
 21
181.865849
  0
LINE
  8
0
  6
CONTINUOUS
 62
1
 10
33.571524
 20
198.957126
 11
33.571524
 21
165.787045
  0
LINE
  8
0
  6
CONTINUOUS
 62
1
 10
24.796524
 20
165.787045
 11
24.796524
 21
198.957126
  0
ARC
  8
0
  6
CONTINUOUS
 62
1
 10
27.461923
 20
168.074104
 40
1.075798
 50
101.065051
 51
132.065051
  0
ARC
  8
0
  6
CONTINUOUS
 62
1
 10
27.572266
 20
168.135782
 40
1.110793
 50
138.434949
 51
168.434949
  0
ARC
  8
0
  6
CONTINUOUS
 62
1
 10
28.788962
 20
167.972760
 40
2.336988
 50
170.500000
 51
189.499999
  0
ARC
  8
0
  6
CONTINUOUS
 62
1
 10
28.208722
 20
167.511743
 40
1.726341
 50
177.500000
 51
272.499999
  0
LINE
  8
0
  6
CONTINUOUS
 62
1
 10
28.284024
 20
165.787045
 11
29.826881
 21
165.787045
  0
ARC
  8
0
  6
CONTINUOUS
 62
1
 10
29.701546
 20
168.734479
 40
2.950098
 50
272.434949
 51
304.434949
  0
ARC
  8
0
  6
CONTINUOUS
 62
1
 10
30.617539
 20
167.320288
 40
1.266522
 50
306.434949
 51
0.434948
  0
LINE
  8
0
  6
CONTINUOUS
 62
1
 10
31.884024
 20
167.329902
 11
31.884024
 21
167.844188
  0
ARC
  8
0
  6
CONTINUOUS
 62
1
 10
30.643121
 20
167.905751
 40
1.242430
 50
357.159808
 51
80.159810
  0
LINE
  8
0
  6
CONTINUOUS
 62
1
 10
31.884024
 20
170.415617
 11
26.484024
 21
170.415617
  0
LINE
  8
0
  6
CONTINUOUS
 62
1
 10
26.484024
 20
170.415617
 11
26.484024
 21
172.729902
  0
ARC
  8
0
  6
CONTINUOUS
 62
1
 10
27.512596
 20
172.729902
 40
1.028571
 50
90.000000
 51
180.000000
  0
ARC
  8
0
  6
CONTINUOUS
 62
1
 10
27.512596
 20
172.472760
 40
1.285714
 50
0.000001
 51
90.000000
  0
LINE
  8
0
  6
CONTINUOUS
 62
1
 10
28.798310
 20
172.472760
 11
28.798310
 21
170.158474
  0
LINE
  8
0
  6
CONTINUOUS
 62
1
 10
28.798310
 20
171.958474
 11
31.884024
 21
173.758474
  0
LINE
  8
0
  6
CONTINUOUS
 62
1
 10
31.884024
 20
175.044188
 11
26.484024
 21
175.044188
  0
LINE
  8
0
  6
CONTINUOUS
 62
1
 10
26.484024
 20
178.129902
 11
31.884024
 21
178.129902
  0
LINE
  8
0
  6
CONTINUOUS
 62
1
 10
26.484024
 20
176.329902
 11
26.484024
 21
179.929902
  0
LINE
  8
0
  6
CONTINUOUS
 62
1
 10
26.484024
 20
183.015617
 11
31.884024
 21
183.015617
  0
LINE
  8
0
  6
CONTINUOUS
 62
1
 10
26.484024
 20
181.215617
 11
26.484024
 21
184.815617
  0
LINE
  8
0
  6
CONTINUOUS
 62
1
 10
31.884024
 20
186.101331
 11
26.484024
 21
188.158474
  0
LINE
  8
0
  6
CONTINUOUS
 62
1
 10
26.484024
 20
188.158474
 11
31.884024
 21
190.215617
  0
LINE
  8
0
  6
CONTINUOUS
 62
1
 10
30.084024
 20
186.872760
 11
30.084024
 21
189.701331
  0
LINE
  8
0
  6
CONTINUOUS
 62
1
 10
31.884024
 20
191.501331
 11
26.484024
 21
191.501331
  0
LINE
  8
0
  6
CONTINUOUS
 62
1
 10
31.884024
 20
191.501331
 11
31.884024
 21
194.587045
  0
LINE
  8
0
  6
CONTINUOUS
 62
1
 10
31.884024
 20
195.872760
 11
26.484024
 21
195.872760
  0
LINE
  8
0
  6
CONTINUOUS
 62
1
 10
31.884024
 20
195.872760
 11
31.884024
 21
198.958474
  0
TEXT
  8
0
  6
CONTINUOUS
 62
1
 10
20.000000
 20
20.843750
 40
6.000000
  1
Composite Windows
 50
90.000000
 41
1.000000
 51
0.000000
  7
STANDARD
  0
TEXT
  8
0
  6
CONTINUOUS
 62
1
 10
277.476378
 20
19.947503
 40
2.000000
  1
This drawing is the property of Crittall Windows Ltd and is a
 50
90.000000
 41
1.000000
 51
0.000000
  7
STANDARD
  0
TEXT
  8
0
  6
CONTINUOUS
 62
1
 10
281.476378
 20
19.947503
 40
2.000000
  1
confidential document and must not be copied or its contents
 50
90.000000
 41
1.000000
 51
0.000000
  7
STANDARD
  0
TEXT
  8
0
  6
CONTINUOUS
 62
1
 10
285.476378
 20
19.947503
 40
2.000000
  1
divulged without prior consent.
 50
90.000000
 41
1.000000
 51
0.000000
  7
STANDARD
  0
LINE
  8
0
  6
CONTINUOUS
 62
1
 10
162.552446
 20
120.000000
 11
238.552446
 21
120.000000
  0
LINE
  8
0
  6
CONTINUOUS
 62
1
 10
167.052446
 20
123.000000
 11
167.052446
 21
124.250000
  0
LINE
  8
0
  6
CONTINUOUS
 62
1
 10
161.552446
 20
121.000000
 11
161.552446
 21
122.500000
  0
LINE
  8
0
  6
CONTINUOUS
 62
1
 10
161.802446
 20
122.750000
 11
166.802446
 21
122.750000
  0
LINE
  8
0
  6
CONTINUOUS
 62
1
 10
167.302446
 20
124.500000
 11
168.052446
 21
124.500000
  0
LINE
  8
0
  6
CONTINUOUS
 62
1
 10
169.052446
 20
123.500000
 11
168.302446
 21
123.500000
  0
LINE
  8
0
  6
CONTINUOUS
 62
1
 10
168.052446
 20
123.250000
 11
168.052446
 21
122.000000
  0
LINE
  8
0
  6
CONTINUOUS
 62
1
 10
168.302446
 20
121.750000
 11
175.302446
 21
121.750000
  0
LINE
  8
0
  6
CONTINUOUS
 62
1
 10
175.552446
 20
122.000000
 11
175.552446
 21
123.250000
  0
LINE
  8
0
  6
CONTINUOUS
 62
1
 10
175.302446
 20
123.500000
 11
174.552446
 21
123.500000
  0
LINE
  8
0
  6
CONTINUOUS
 62
1
 10
175.552446
 20
124.500000
 11
176.302446
 21
124.500000
  0
LINE
  8
0
  6
CONTINUOUS
 62
1
 10
176.552446
 20
124.250000
 11
176.552446
 21
122.000000
  0
LINE
  8
0
  6
CONTINUOUS
 62
1
 10
212.802446
 20
150.200000
 11
215.152446
 21
150.200000
  0
LINE
  8
0
  6
CONTINUOUS
 62
1
 10
214.902446
 20
148.800000
 11
212.802446
 21
148.800000
  0
ARC
  8
0
  6
CONTINUOUS
 62
1
 10
215.852446
 20
150.300000
 40
0.700000
 50
0.000000
 51
90.000000
  0
ARC
  8
0
  6
CONTINUOUS
 62
1
 10
215.852446
 20
150.300000
 40
0.700000
 50
90.000000
 51
180.000000
  0
LINE
  8
0
  6
CONTINUOUS
 62
1
 10
207.552446
 20
149.562800
 11
207.552446
 21
149.437200
  0
LINE
  8
0
  6
CONTINUOUS
 62
1
 10
210.052446
 20
150.330127
 11
210.052446
 21
151.000000
  0
LINE
  8
0
  6
CONTINUOUS
 62
1
 10
212.552446
 20
151.000000
 11
212.552446
 21
150.450000
  0
LINE
  8
0
  6
CONTINUOUS
 62
1
 10
215.152446
 20
150.300000
 11
215.152446
 21
150.200000
  0
LINE
  8
0
  6
CONTINUOUS
 62
1
 10
215.152446
 20
148.550000
 11
215.152446
 21
143.900000
  0
LINE
  8
0
  6
CONTINUOUS
 62
1
 10
212.552446
 20
151.000000
 11
210.052446
 21
150.330127
  0
LINE
  8
0
  6
CONTINUOUS
 62
1
 10
210.052446
 20
151.000000
 11
208.293627
 21
150.528726
  0
LINE
  8
0
  6
CONTINUOUS
 62
1
 10
212.552446
 20
148.000000
 11
210.052446
 21
148.669873
  0
LINE
  8
0
  6
CONTINUOUS
 62
1
 10
210.052446
 20
148.669873
 11
210.052446
 21
148.000000
  0
LINE
  8
0
  6
CONTINUOUS
 62
1
 10
210.052446
 20
148.000000
 11
208.293627
 21
148.471274
  0
LINE
  8
0
  6
CONTINUOUS
 62
1
 10
212.552446
 20
148.550000
 11
212.552446
 21
148.000000
  0
ARC
  8
0
  6
CONTINUOUS
 62
1
 10
162.552446
 20
121.000000
 40
1.000000
 50
180.000000
 51
270.000000
  0
ARC
  8
0
  6
CONTINUOUS
 62
1
 10
168.052446
 20
123.500000
 40
1.000000
 50
0.000000
 51
90.000000
  0
ARC
  8
0
  6
CONTINUOUS
 62
1
 10
175.552446
 20
123.500000
 40
1.000000
 50
90.000000
 51
180.000000
  0
ARC
  8
0
  6
CONTINUOUS
 62
1
 10
208.552446
 20
149.562800
 40
1.000000
 50
105.000000
 51
180.000000
  0
ARC
  8
0
  6
CONTINUOUS
 62
1
 10
208.552446
 20
149.437200
 40
1.000000
 50
180.000000
 51
255.000000
  0
LINE
  8
0
  6
CONTINUOUS
 62
1
 10
188.302446
 20
150.200000
 11
185.952446
 21
150.200000
  0
LINE
  8
0
  6
CONTINUOUS
 62
1
 10
186.202446
 20
148.800000
 11
188.302446
 21
148.800000
  0
ARC
  8
0
  6
CONTINUOUS
 62
1
 10
185.252446
 20
150.300000
 40
0.700000
 50
90.000000
 51
180.000000
  0
ARC
  8
0
  6
CONTINUOUS
 62
1
 10
185.252446
 20
150.300000
 40
0.700000
 50
0.000000
 51
90.000000
  0
LINE
  8
0
  6
CONTINUOUS
 62
1
 10
193.552446
 20
149.562800
 11
193.552446
 21
149.437200
  0
LINE
  8
0
  6
CONTINUOUS
 62
1
 10
191.052446
 20
150.330127
 11
191.052446
 21
151.000000
  0
LINE
  8
0
  6
CONTINUOUS
 62
1
 10
188.552446
 20
151.000000
 11
188.552446
 21
150.450000
  0
LINE
  8
0
  6
CONTINUOUS
 62
1
 10
185.952446
 20
150.300000
 11
185.952446
 21
150.200000
  0
LINE
  8
0
  6
CONTINUOUS
 62
1
 10
188.552446
 20
151.000000
 11
191.052446
 21
150.330127
  0
LINE
  8
0
  6
CONTINUOUS
 62
1
 10
191.052446
 20
151.000000
 11
192.811265
 21
150.528726
  0
LINE
  8
0
  6
CONTINUOUS
 62
1
 10
188.552446
 20
148.000000
 11
191.052446
 21
148.669873
  0
LINE
  8
0
  6
CONTINUOUS
 62
1
 10
191.052446
 20
148.669873
 11
191.052446
 21
148.000000
  0
LINE
  8
0
  6
CONTINUOUS
 62
1
 10
191.052446
 20
148.000000
 11
192.811265
 21
148.471274
  0
LINE
  8
0
  6
CONTINUOUS
 62
1
 10
188.552446
 20
148.550000
 11
188.552446
 21
148.000000
  0
ARC
  8
0
  6
CONTINUOUS
 62
1
 10
192.552446
 20
149.562800
 40
1.000000
 50
0.000000
 51
75.000000
  0
ARC
  8
0
  6
CONTINUOUS
 62
1
 10
192.552446
 20
149.437200
 40
1.000000
 50
285.000000
 51
0.000000
  0
LINE
  8
0
  6
CONTINUOUS
 62
1
 10
184.552446
 20
134.800000
 11
184.552446
 21
133.600000
  0
LINE
  8
0
  6
CONTINUOUS
 62
1
 10
185.952446
 20
134.250000
 11
185.952446
 21
134.800000
  0
LINE
  8
0
  6
CONTINUOUS
 62
1
 10
186.952446
 20
134.000000
 11
186.202446
 21
134.000000
  0
LINE
  8
0
  6
CONTINUOUS
 62
1
 10
186.202446
 20
141.500000
 11
186.952446
 21
141.500000
  0
LINE
  8
0
  6
CONTINUOUS
 62
1
 10
187.202446
 20
141.250000
 11
187.202446
 21
134.250000
  0
ARC
  8
0
  6
CONTINUOUS
 62
1
 10
185.252446
 20
134.800000
 40
0.700000
 50
0.000000
 51
90.000000
  0
ARC
  8
0
  6
CONTINUOUS
 62
1
 10
185.252446
 20
134.800000
 40
0.700000
 50
90.000000
 51
180.000000
  0
LINE
  8
0
  6
CONTINUOUS
 62
1
 10
184.552446
 20
140.700000
 11
184.552446
 21
150.300000
  0
ARC
  8
0
  6
CONTINUOUS
 62
1
 10
185.252446
 20
140.700000
 40
0.700000
 50
180.000000
 51
270.000000
  0
LINE
  8
0
  6
CONTINUOUS
 62
1
 10
185.952446
 20
141.250000
 11
185.952446
 21
140.700000
  0
ARC
  8
0
  6
CONTINUOUS
 62
1
 10
185.252446
 20
140.700000
 40
0.700000
 50
270.000000
 51
0.000000
  0
LINE
  8
0
  6
CONTINUOUS
 62
1
 10
185.952446
 20
148.550000
 11
185.952446
 21
143.900000
  0
LINE
  8
0
  6
CONTINUOUS
 62
1
 10
185.552446
 20
132.600000
 11
186.202446
 21
132.600000
  0
LINE
  8
0
  6
CONTINUOUS
 62
1
 10
188.602446
 20
140.000000
 11
188.602446
 21
141.900000
  0
ARC
  8
0
  6
CONTINUOUS
 62
1
 10
185.552446
 20
133.600000
 40
1.000000
 50
180.000000
 51
270.000000
  0
ARC
  8
0
  6
CONTINUOUS
 62
1
 10
161.802446
 20
122.500000
 40
0.250000
 50
90.000000
 51
180.000000
  0
ARC
  8
0
  6
CONTINUOUS
 62
1
 10
166.802446
 20
123.000000
 40
0.250000
 50
270.000000
 51
0.000000
  0
ARC
  8
0
  6
CONTINUOUS
 62
1
 10
167.302446
 20
124.250000
 40
0.250000
 50
90.000000
 51
180.000000
  0
ARC
  8
0
  6
CONTINUOUS
 62
1
 10
168.302446
 20
123.250000
 40
0.250000
 50
90.000000
 51
180.000000
  0
ARC
  8
0
  6
CONTINUOUS
 62
1
 10
168.302446
 20
122.000000
 40
0.250000
 50
180.000000
 51
270.000000
  0
ARC
  8
0
  6
CONTINUOUS
 62
1
 10
175.302446
 20
122.000000
 40
0.250000
 50
270.000000
 51
0.000000
  0
ARC
  8
0
  6
CONTINUOUS
 62
1
 10
175.302446
 20
123.250000
 40
0.250000
 50
0.000000
 51
90.000000
  0
ARC
  8
0
  6
CONTINUOUS
 62
1
 10
176.802446
 20
122.000000
 40
0.250000
 50
180.000000
 51
270.000000
  0
ARC
  8
0
  6
CONTINUOUS
 62
1
 10
186.202446
 20
134.250000
 40
0.250000
 50
180.000000
 51
270.000000
  0
ARC
  8
0
  6
CONTINUOUS
 62
1
 10
186.952446
 20
134.250000
 40
0.250000
 50
270.000000
 51
0.000000
  0
ARC
  8
0
  6
CONTINUOUS
 62
1
 10
186.952446
 20
141.250000
 40
0.250000
 50
0.000000
 51
90.000000
  0
ARC
  8
0
  6
CONTINUOUS
 62
1
 10
186.202446
 20
141.250000
 40
0.250000
 50
90.000000
 51
180.000000
  0
ARC
  8
0
  6
CONTINUOUS
 62
1
 10
188.302446
 20
150.450000
 40
0.250000
 50
270.000000
 51
0.000000
  0
ARC
  8
0
  6
CONTINUOUS
 62
1
 10
188.302446
 20
148.550000
 40
0.250000
 50
0.000000
 51
90.000000
  0
ARC
  8
0
  6
CONTINUOUS
 62
1
 10
186.202446
 20
148.550000
 40
0.250000
 50
90.000000
 51
180.000000
  0
ARC
  8
0
  6
CONTINUOUS
 62
1
 10
214.902446
 20
148.550000
 40
0.250000
 50
0.000000
 51
90.000000
  0
ARC
  8
0
  6
CONTINUOUS
 62
1
 10
212.802446
 20
148.550000
 40
0.250000
 50
90.000000
 51
180.000000
  0
ARC
  8
0
  6
CONTINUOUS
 62
1
 10
212.802446
 20
150.450000
 40
0.250000
 50
180.000000
 51
270.000000
  0
ARC
  8
0
  6
CONTINUOUS
 62
1
 10
176.302446
 20
124.250000
 40
0.250000
 50
0.000000
 51
90.000000
  0
LINE
  8
0
  6
CONTINUOUS
 62
1
 10
234.052446
 20
123.000000
 11
234.052446
 21
124.250000
  0
LINE
  8
0
  6
CONTINUOUS
 62
1
 10
239.552446
 20
121.000000
 11
239.552446
 21
122.500000
  0
LINE
  8
0
  6
CONTINUOUS
 62
1
 10
239.302446
 20
122.750000
 11
234.302446
 21
122.750000
  0
LINE
  8
0
  6
CONTINUOUS
 62
1
 10
233.802446
 20
124.500000
 11
233.052446
 21
124.500000
  0
LINE
  8
0
  6
CONTINUOUS
 62
1
 10
232.052446
 20
123.500000
 11
232.802446
 21
123.500000
  0
LINE
  8
0
  6
CONTINUOUS
 62
1
 10
233.052446
 20
123.250000
 11
233.052446
 21
122.000000
  0
LINE
  8
0
  6
CONTINUOUS
 62
1
 10
232.802446
 20
121.750000
 11
225.802446
 21
121.750000
  0
LINE
  8
0
  6
CONTINUOUS
 62
1
 10
225.552446
 20
122.000000
 11
225.552446
 21
123.250000
  0
LINE
  8
0
  6
CONTINUOUS
 62
1
 10
225.802446
 20
123.500000
 11
226.552446
 21
123.500000
  0
LINE
  8
0
  6
CONTINUOUS
 62
1
 10
225.552446
 20
124.500000
 11
224.802446
 21
124.500000
  0
LINE
  8
0
  6
CONTINUOUS
 62
1
 10
224.552446
 20
124.250000
 11
224.552446
 21
122.000000
  0
ARC
  8
0
  6
CONTINUOUS
 62
1
 10
238.552446
 20
121.000000
 40
1.000000
 50
270.000000
 51
0.000000
  0
ARC
  8
0
  6
CONTINUOUS
 62
1
 10
233.052446
 20
123.500000
 40
1.000000
 50
90.000000
 51
180.000000
  0
ARC
  8
0
  6
CONTINUOUS
 62
1
 10
225.552446
 20
123.500000
 40
1.000000
 50
0.000000
 51
90.000000
  0
ARC
  8
0
  6
CONTINUOUS
 62
1
 10
239.302446
 20
122.500000
 40
0.250000
 50
0.000000
 51
90.000000
  0
ARC
  8
0
  6
CONTINUOUS
 62
1
 10
234.302446
 20
123.000000
 40
0.250000
 50
180.000000
 51
270.000000
  0
ARC
  8
0
  6
CONTINUOUS
 62
1
 10
233.802446
 20
124.250000
 40
0.250000
 50
0.000000
 51
90.000000
  0
ARC
  8
0
  6
CONTINUOUS
 62
1
 10
232.802446
 20
123.250000
 40
0.250000
 50
0.000000
 51
90.000000
  0
ARC
  8
0
  6
CONTINUOUS
 62
1
 10
232.802446
 20
122.000000
 40
0.250000
 50
270.000000
 51
0.000000
  0
ARC
  8
0
  6
CONTINUOUS
 62
1
 10
225.802446
 20
122.000000
 40
0.250000
 50
180.000000
 51
270.000000
  0
ARC
  8
0
  6
CONTINUOUS
 62
1
 10
225.802446
 20
123.250000
 40
0.250000
 50
90.000000
 51
180.000000
  0
ARC
  8
0
  6
CONTINUOUS
 62
1
 10
224.302446
 20
122.000000
 40
0.250000
 50
270.000000
 51
0.000000
  0
ARC
  8
0
  6
CONTINUOUS
 62
1
 10
224.802446
 20
124.250000
 40
0.250000
 50
90.000000
 51
180.000000
  0
ARC
  8
0
  6
CONTINUOUS
 62
1
 10
214.152446
 20
143.900000
 40
1.000000
 50
270.000000
 51
0.000000
  0
ARC
  8
0
  6
CONTINUOUS
 62
1
 10
186.952446
 20
143.900000
 40
1.000000
 50
180.000000
 51
270.000000
  0
LINE
  8
0
  6
CONTINUOUS
 62
1
 10
176.802446
 20
121.750000
 11
186.202446
 21
121.750000
  0
LINE
  8
0
  6
CONTINUOUS
 62
1
 10
192.197894
 20
129.050000
 11
193.410329
 21
128.350000
  0
LINE
  8
0
  6
CONTINUOUS
 62
1
 10
192.197894
 20
130.950000
 11
193.410329
 21
131.650000
  0
ARC
  8
0
  6
CONTINUOUS
 62
1
 10
190.552446
 20
130.000000
 40
1.900000
 50
90.000000
 51
330.000000
  0
ARC
  8
0
  6
CONTINUOUS
 62
1
 10
190.552446
 20
130.000000
 40
1.900000
 50
30.000000
 51
90.000000
  0
ARC
  8
0
  6
CONTINUOUS
 62
1
 10
190.552446
 20
130.000000
 40
3.300000
 50
270.000000
 51
330.000000
  0
ARC
  8
0
  6
CONTINUOUS
 62
1
 10
190.552446
 20
130.000000
 40
3.300000
 50
30.000000
 51
90.000000
  0
LINE
  8
0
  6
CONTINUOUS
 62
1
 10
190.552446
 20
133.300000
 11
189.602446
 21
133.300000
  0
ARC
  8
0
  6
CONTINUOUS
 62
1
 10
189.602446
 20
134.300000
 40
1.000000
 50
180.000000
 51
270.000000
  0
LINE
  8
0
  6
CONTINUOUS
 62
1
 10
214.902446
 20
141.500000
 11
214.152446
 21
141.500000
  0
LINE
  8
0
  6
CONTINUOUS
 62
1
 10
213.902446
 20
141.250000
 11
213.902446
 21
134.250000
  0
ARC
  8
0
  6
CONTINUOUS
 62
1
 10
215.852446
 20
140.700000
 40
0.700000
 50
270.000000
 51
0.000000
  0
LINE
  8
0
  6
CONTINUOUS
 62
1
 10
215.152446
 20
141.250000
 11
215.152446
 21
140.700000
  0
ARC
  8
0
  6
CONTINUOUS
 62
1
 10
215.852446
 20
140.700000
 40
0.700000
 50
180.000000
 51
270.000000
  0
LINE
  8
0
  6
CONTINUOUS
 62
1
 10
212.502446
 20
140.000000
 11
212.502446
 21
141.900000
  0
ARC
  8
0
  6
CONTINUOUS
 62
1
 10
214.152446
 20
141.250000
 40
0.250000
 50
90.000000
 51
180.000000
  0
ARC
  8
0
  6
CONTINUOUS
 62
1
 10
214.902446
 20
141.250000
 40
0.250000
 50
0.000000
 51
90.000000
  0
LINE
  8
0
  6
CONTINUOUS
 62
1
 10
216.552446
 20
140.700000
 11
216.552446
 21
150.300000
  0
LINE
  8
0
  6
CONTINUOUS
 62
1
 10
214.902446
 20
121.750000
 11
224.302446
 21
121.750000
  0
LINE
  8
0
  6
CONTINUOUS
 62
1
 10
211.502446
 20
121.400000
 11
189.602446
 21
121.400000
  0
LINE
  8
0
  6
CONTINUOUS
 62
1
 10
189.602446
 20
137.600000
 11
211.502446
 21
137.600000
  0
LINE
  8
0
  6
CONTINUOUS
 62
1
 10
211.502446
 20
139.000000
 11
189.602446
 21
139.000000
  0
LINE
  8
0
  6
CONTINUOUS
 62
1
 10
186.952446
 20
142.900000
 11
187.602446
 21
142.900000
  0
ARC
  8
0
  6
CONTINUOUS
 62
1
 10
187.602446
 20
141.900000
 40
1.000000
 50
0.000000
 51
90.000000
  0
ARC
  8
0
  6
CONTINUOUS
 62
1
 10
189.602446
 20
140.000000
 40
1.000000
 50
180.000000
 51
270.000000
  0
LINE
  8
0
  6
CONTINUOUS
 62
1
 10
188.602446
 20
134.300000
 11
188.602446
 21
136.600000
  0
ARC
  8
0
  6
CONTINUOUS
 62
1
 10
189.602446
 20
136.600000
 40
1.000000
 50
90.000000
 51
180.000000
  0
LINE
  8
0
  6
CONTINUOUS
 62
1
 10
214.152446
 20
142.900000
 11
213.502446
 21
142.900000
  0
ARC
  8
0
  6
CONTINUOUS
 62
1
 10
213.502446
 20
141.900000
 40
1.000000
 50
90.000000
 51
180.000000
  0
ARC
  8
0
  6
CONTINUOUS
 62
1
 10
211.502446
 20
140.000000
 40
1.000000
 50
270.000000
 51
0.000000
  0
LINE
  8
0
  6
CONTINUOUS
 62
1
 10
187.202446
 20
131.600000
 11
187.202446
 21
122.750000
  0
ARC
  8
0
  6
CONTINUOUS
 62
1
 10
186.202446
 20
131.600000
 40
1.000000
 50
0.000000
 51
90.000000
  0
ARC
  8
0
  6
CONTINUOUS
 62
1
 10
186.202446
 20
122.750000
 40
1.000000
 50
270.000000
 51
0.000000
  0
LINE
  8
0
  6
CONTINUOUS
 62
1
 10
188.602446
 20
122.400000
 11
188.602446
 21
125.700000
  0
LINE
  8
0
  6
CONTINUOUS
 62
1
 10
190.552446
 20
126.700000
 11
189.602446
 21
126.700000
  0
ARC
  8
0
  6
CONTINUOUS
 62
1
 10
189.602446
 20
125.700000
 40
1.000000
 50
90.000000
 51
180.000000
  0
ARC
  8
0
  6
CONTINUOUS
 62
1
 10
189.602446
 20
122.400000
 40
1.000000
 50
180.000000
 51
270.000000
  0
LINE
  8
0
  6
CONTINUOUS
 62
1
 10
216.552446
 20
134.800000
 11
216.552446
 21
133.600000
  0
LINE
  8
0
  6
CONTINUOUS
 62
1
 10
215.152446
 20
134.250000
 11
215.152446
 21
134.800000
  0
LINE
  8
0
  6
CONTINUOUS
 62
1
 10
214.152446
 20
134.000000
 11
214.902446
 21
134.000000
  0
ARC
  8
0
  6
CONTINUOUS
 62
1
 10
215.852446
 20
134.800000
 40
0.700000
 50
90.000000
 51
180.000000
  0
ARC
  8
0
  6
CONTINUOUS
 62
1
 10
215.852446
 20
134.800000
 40
0.700000
 50
0.000000
 51
90.000000
  0
LINE
  8
0
  6
CONTINUOUS
 62
1
 10
215.552446
 20
132.600000
 11
214.902446
 21
132.600000
  0
ARC
  8
0
  6
CONTINUOUS
 62
1
 10
215.552446
 20
133.600000
 40
1.000000
 50
270.000000
 51
0.000000
  0
ARC
  8
0
  6
CONTINUOUS
 62
1
 10
214.902446
 20
134.250000
 40
0.250000
 50
270.000000
 51
0.000000
  0
ARC
  8
0
  6
CONTINUOUS
 62
1
 10
214.152446
 20
134.250000
 40
0.250000
 50
180.000000
 51
270.000000
  0
LINE
  8
0
  6
CONTINUOUS
 62
1
 10
208.906997
 20
129.050000
 11
207.694562
 21
128.350000
  0
LINE
  8
0
  6
CONTINUOUS
 62
1
 10
208.906997
 20
130.950000
 11
207.694562
 21
131.650000
  0
ARC
  8
0
  6
CONTINUOUS
 62
1
 10
210.552446
 20
130.000000
 40
1.900000
 50
210.000000
 51
90.000000
  0
ARC
  8
0
  6
CONTINUOUS
 62
1
 10
210.552446
 20
130.000000
 40
1.900000
 50
90.000000
 51
150.000000
  0
ARC
  8
0
  6
CONTINUOUS
 62
1
 10
210.552446
 20
130.000000
 40
3.300000
 50
210.000000
 51
270.000000
  0
ARC
  8
0
  6
CONTINUOUS
 62
1
 10
210.552446
 20
130.000000
 40
3.300000
 50
90.000000
 51
150.000000
  0
LINE
  8
0
  6
CONTINUOUS
 62
1
 10
210.552446
 20
133.300000
 11
211.502446
 21
133.300000
  0
ARC
  8
0
  6
CONTINUOUS
 62
1
 10
211.502446
 20
134.300000
 40
1.000000
 50
270.000000
 51
0.000000
  0
LINE
  8
0
  6
CONTINUOUS
 62
1
 10
212.502446
 20
134.300000
 11
212.502446
 21
136.600000
  0
LINE
  8
0
  6
CONTINUOUS
 62
1
 10
213.902446
 20
131.600000
 11
213.902446
 21
122.750000
  0
ARC
  8
0
  6
CONTINUOUS
 62
1
 10
214.902446
 20
131.600000
 40
1.000000
 50
90.000000
 51
180.000000
  0
ARC
  8
0
  6
CONTINUOUS
 62
1
 10
214.902446
 20
122.750000
 40
1.000000
 50
180.000000
 51
270.000000
  0
LINE
  8
0
  6
CONTINUOUS
 62
1
 10
212.502446
 20
122.400000
 11
212.502446
 21
125.700000
  0
LINE
  8
0
  6
CONTINUOUS
 62
1
 10
210.552446
 20
126.700000
 11
211.502446
 21
126.700000
  0
ARC
  8
0
  6
CONTINUOUS
 62
1
 10
211.502446
 20
125.700000
 40
1.000000
 50
0.000000
 51
90.000000
  0
ARC
  8
0
  6
CONTINUOUS
 62
1
 10
211.502446
 20
122.400000
 40
1.000000
 50
270.000000
 51
0.000000
  0
ARC
  8
0
  6
CONTINUOUS
 62
1
 10
211.502446
 20
136.600000
 40
1.000000
 50
0.000000
 51
90.000000
  0
LINE
  8
0
  6
CONTINUOUS
 62
1
 10
184.552446
 20
151.375000
 11
184.552446
 21
173.125000
  0
LINE
  8
0
  6
CONTINUOUS
 62
1
 10
186.552446
 20
175.125000
 11
214.552446
 21
175.125000
  0
LINE
  8
0
  6
CONTINUOUS
 62
1
 10
216.552446
 20
173.125000
 11
216.552446
 21
151.375000
  0
LINE
  8
0
  6
CONTINUOUS
 62
1
 10
216.302446
 20
151.125000
 11
206.802446
 21
151.125000
  0
LINE
  8
0
  6
CONTINUOUS
 62
1
 10
206.552446
 20
150.875000
 11
206.552446
 21
148.125000
  0
LINE
  8
0
  6
CONTINUOUS
 62
1
 10
206.802446
 20
147.875000
 11
214.552446
 21
147.875000
  0
LINE
  8
0
  6
CONTINUOUS
 62
1
 10
212.802446
 20
142.875000
 11
188.302446
 21
142.875000
  0
LINE
  8
0
  6
CONTINUOUS
 62
1
 10
214.802446
 20
147.625000
 11
214.802446
 21
144.875000
  0
LINE
  8
0
  6
CONTINUOUS
 62
1
 10
194.552446
 20
148.125000
 11
194.552446
 21
150.875000
  0
LINE
  8
0
  6
CONTINUOUS
 62
1
 10
194.302446
 20
151.125000
 11
184.802446
 21
151.125000
  0
LINE
  8
0
  6
CONTINUOUS
 62
1
 10
194.302446
 20
147.875000
 11
186.552446
 21
147.875000
  0
LINE
  8
0
  6
CONTINUOUS
 62
1
 10
186.302446
 20
147.625000
 11
186.302446
 21
144.875000
  0
ARC
  8
0
  6
CONTINUOUS
 62
1
 10
186.552446
 20
173.125000
 40
2.000000
 50
90.000000
 51
180.000000
  0
ARC
  8
0
  6
CONTINUOUS
 62
1
 10
214.552446
 20
173.125000
 40
2.000000
 50
0.000000
 51
90.000000
  0
ARC
  8
0
  6
CONTINUOUS
 62
1
 10
216.302446
 20
151.375000
 40
0.250000
 50
270.000000
 51
0.000000
  0
ARC
  8
0
  6
CONTINUOUS
 62
1
 10
206.802446
 20
150.875000
 40
0.250000
 50
90.000000
 51
180.000000
  0
ARC
  8
0
  6
CONTINUOUS
 62
1
 10
206.802446
 20
148.125000
 40
0.250000
 50
180.000000
 51
270.000000
  0
ARC
  8
0
  6
CONTINUOUS
 62
1
 10
214.552446
 20
147.625000
 40
0.250000
 50
0.000000
 51
90.000000
  0
ARC
  8
0
  6
CONTINUOUS
 62
1
 10
186.552446
 20
147.625000
 40
0.250000
 50
90.000000
 51
180.000000
  0
ARC
  8
0
  6
CONTINUOUS
 62
1
 10
194.302446
 20
148.125000
 40
0.250000
 50
270.000000
 51
0.000000
  0
ARC
  8
0
  6
CONTINUOUS
 62
1
 10
194.302446
 20
150.875000
 40
0.250000
 50
0.000000
 51
90.000000
  0
ARC
  8
0
  6
CONTINUOUS
 62
1
 10
184.802446
 20
151.375000
 40
0.250000
 50
180.000000
 51
270.000000
  0
ARC
  8
0
  6
RANDOM
 62
1
 10
184.552446
 20
143.125000
 40
15.000000
 50
0.000000
 51
90.000000
  0
ARC
  8
0
  6
RANDOM
 62
1
 10
184.552446
 20
143.125000
 40
20.000000
 50
0.000000
 51
90.000000
  0
ARC
  8
0
  6
RANDOM
 62
1
 10
184.552446
 20
143.125000
 40
30.000000
 50
15.466010
 51
90.000000
  0
ARC
  8
0
  6
RANDOM
 62
1
 10
184.552446
 20
143.125000
 40
35.000000
 50
23.895508
 51
66.104492
  0
ARC
  8
0
  6
RANDOM
 62
1
 10
183.802446
 20
142.875000
 40
5.000000
 50
0.000000
 51
60.000000
  0
ARC
  8
0
  6
RANDOM
 62
1
 10
184.552446
 20
143.125000
 40
40.000000
 50
36.869898
 51
53.130102
  0
ARC
  8
0
  6
RANDOM
 62
1
 10
184.552446
 20
142.875000
 40
25.000000
 50
0.000000
 51
11.536959
  0
ARC
  8
0
  6
RANDOM
 62
1
 10
184.552446
 20
143.125000
 40
25.000000
 50
18.662925
 51
90.000000
  0
ARC
  8
0
  6
RANDOM
 62
1
 10
185.552446
 20
142.875000
 40
10.000000
 50
0.000000
 51
30.000000
  0
ARC
  8
0
  6
RANDOM
 62
1
 10
184.552446
 20
143.125000
 40
10.000000
 50
53.130102
 51
90.000000
  0
ARC
  8
0
  6
CONTINUOUS
 62
1
 10
212.802446
 20
144.875000
 40
2.000000
 50
270.000000
 51
0.000000
  0
ARC
  8
0
  6
CONTINUOUS
 62
1
 10
188.302446
 20
144.875000
 40
2.000000
 50
180.000000
 51
270.000000
  0
LINE
  8
0
  6
CONTINUOUS
 62
1
 10
128.263402
 20
175.000000
 11
128.263402
 21
120.000000
  0
LINE
  8
0
  6
CONTINUOUS
 62
1
 10
128.263402
 20
175.000000
 11
127.834831
 21
172.000000
  0
LINE
  8
0
  6
CONTINUOUS
 62
1
 10
127.834831
 20
172.000000
 11
128.477688
 21
172.000000
  0
LINE
  8
0
  6
CONTINUOUS
 62
1
 10
128.477688
 20
172.000000
 11
128.263402
 21
173.714286
  0
LINE
  8
0
  6
CONTINUOUS
 62
1
 10
128.263402
 20
173.714286
 11
128.049117
 21
172.000000
  0
LINE
  8
0
  6
CONTINUOUS
 62
1
 10
128.049117
 20
172.000000
 11
128.691974
 21
172.000000
  0
LINE
  8
0
  6
CONTINUOUS
 62
1
 10
128.691974
 20
172.000000
 11
128.263402
 21
175.000000
  0
LINE
  8
0
  6
CONTINUOUS
 62
1
 10
128.263402
 20
120.000000
 11
128.691974
 21
123.000000
  0
LINE
  8
0
  6
CONTINUOUS
 62
1
 10
128.691974
 20
123.000000
 11
128.049117
 21
123.000000
  0
LINE
  8
0
  6
CONTINUOUS
 62
1
 10
128.049117
 20
123.000000
 11
128.263402
 21
121.285714
  0
LINE
  8
0
  6
CONTINUOUS
 62
1
 10
128.263402
 20
121.285714
 11
128.477688
 21
123.000000
  0
LINE
  8
0
  6
CONTINUOUS
 62
1
 10
128.477688
 20
123.000000
 11
127.834831
 21
123.000000
  0
LINE
  8
0
  6
CONTINUOUS
 62
1
 10
127.834831
 20
123.000000
 11
128.263402
 21
120.000000
  0
LINE
  8
0
  6
CONTINUOUS
 62
1
 10
44.263402
 20
111.000000
 11
119.263402
 21
111.000000
  0
LINE
  8
0
  6
CONTINUOUS
 62
1
 10
44.263402
 20
111.000000
 11
47.263402
 21
110.571429
  0
LINE
  8
0
  6
CONTINUOUS
 62
1
 10
47.263402
 20
110.571429
 11
47.263402
 21
111.214286
  0
LINE
  8
0
  6
CONTINUOUS
 62
1
 10
47.263402
 20
111.214286
 11
45.549117
 21
111.000000
  0
LINE
  8
0
  6
CONTINUOUS
 62
1
 10
45.549117
 20
111.000000
 11
47.263402
 21
110.785714
  0
LINE
  8
0
  6
CONTINUOUS
 62
1
 10
47.263402
 20
110.785714
 11
47.263402
 21
111.428571
  0
LINE
  8
0
  6
CONTINUOUS
 62
1
 10
47.263402
 20
111.428571
 11
44.263402
 21
111.000000
  0
LINE
  8
0
  6
CONTINUOUS
 62
1
 10
119.263402
 20
111.000000
 11
116.263402
 21
111.428571
  0
LINE
  8
0
  6
CONTINUOUS
 62
1
 10
116.263402
 20
111.428571
 11
116.263402
 21
110.785714
  0
LINE
  8
0
  6
CONTINUOUS
 62
1
 10
116.263402
 20
110.785714
 11
117.977688
 21
111.000000
  0
LINE
  8
0
  6
CONTINUOUS
 62
1
 10
117.977688
 20
111.000000
 11
116.263402
 21
111.214286
  0
LINE
  8
0
  6
CONTINUOUS
 62
1
 10
116.263402
 20
111.214286
 11
116.263402
 21
110.571429
  0
LINE
  8
0
  6
CONTINUOUS
 62
1
 10
116.263402
 20
110.571429
 11
119.263402
 21
111.000000
  0
LINE
  8
0
  6
CONTINUOUS
 62
1
 10
108.263402
 20
30.125000
 11
108.263402
 21
95.125000
  0
LINE
  8
0
  6
CONTINUOUS
 62
1
 10
108.263402
 20
30.125000
 11
108.691974
 21
33.125000
  0
LINE
  8
0
  6
CONTINUOUS
 62
1
 10
108.691974
 20
33.125000
 11
108.049117
 21
33.125000
  0
LINE
  8
0
  6
CONTINUOUS
 62
1
 10
108.049117
 20
33.125000
 11
108.263402
 21
31.410714
  0
LINE
  8
0
  6
CONTINUOUS
 62
1
 10
108.263402
 20
31.410714
 11
108.477688
 21
33.125000
  0
LINE
  8
0
  6
CONTINUOUS
 62
1
 10
108.477688
 20
33.125000
 11
107.834831
 21
33.125000
  0
LINE
  8
0
  6
CONTINUOUS
 62
1
 10
107.834831
 20
33.125000
 11
108.263402
 21
30.125000
  0
LINE
  8
0
  6
CONTINUOUS
 62
1
 10
108.263402
 20
95.125000
 11
107.834831
 21
92.125000
  0
LINE
  8
0
  6
CONTINUOUS
 62
1
 10
107.834831
 20
92.125000
 11
108.477688
 21
92.125000
  0
LINE
  8
0
  6
CONTINUOUS
 62
1
 10
108.477688
 20
92.125000
 11
108.263402
 21
93.839286
  0
LINE
  8
0
  6
CONTINUOUS
 62
1
 10
108.263402
 20
93.839286
 11
108.049117
 21
92.125000
  0
LINE
  8
0
  6
CONTINUOUS
 62
1
 10
108.049117
 20
92.125000
 11
108.691974
 21
92.125000
  0
LINE
  8
0
  6
CONTINUOUS
 62
1
 10
108.691974
 20
92.125000
 11
108.263402
 21
95.125000
  0
LINE
  8
0
  6
CONTINUOUS
 62
1
 10
44.263402
 20
21.125000
 11
99.263402
 21
21.125000
  0
LINE
  8
0
  6
CONTINUOUS
 62
1
 10
44.263402
 20
21.125000
 11
47.263402
 21
20.696429
  0
LINE
  8
0
  6
CONTINUOUS
 62
1
 10
47.263402
 20
20.696429
 11
47.263402
 21
21.339286
  0
LINE
  8
0
  6
CONTINUOUS
 62
1
 10
47.263402
 20
21.339286
 11
45.549117
 21
21.125000
  0
LINE
  8
0
  6
CONTINUOUS
 62
1
 10
45.549117
 20
21.125000
 11
47.263402
 21
20.910714
  0
LINE
  8
0
  6
CONTINUOUS
 62
1
 10
47.263402
 20
20.910714
 11
47.263402
 21
21.553571
  0
LINE
  8
0
  6
CONTINUOUS
 62
1
 10
47.263402
 20
21.553571
 11
44.263402
 21
21.125000
  0
LINE
  8
0
  6
CONTINUOUS
 62
1
 10
99.263402
 20
21.125000
 11
96.263402
 21
21.553571
  0
LINE
  8
0
  6
CONTINUOUS
 62
1
 10
96.263402
 20
21.553571
 11
96.263402
 21
20.910714
  0
LINE
  8
0
  6
CONTINUOUS
 62
1
 10
96.263402
 20
20.910714
 11
97.977688
 21
21.125000
  0
LINE
  8
0
  6
CONTINUOUS
 62
1
 10
97.977688
 20
21.125000
 11
96.263402
 21
21.339286
  0
LINE
  8
0
  6
CONTINUOUS
 62
1
 10
96.263402
 20
21.339286
 11
96.263402
 21
20.696429
  0
LINE
  8
0
  6
CONTINUOUS
 62
1
 10
96.263402
 20
20.696429
 11
99.263402
 21
21.125000
  0
LINE
  8
0
  6
CONTINUOUS
 62
1
 10
164.552446
 20
19.500000
 11
236.552446
 21
19.500000
  0
LINE
  8
0
  6
CONTINUOUS
 62
1
 10
164.552446
 20
19.500000
 11
167.552446
 21
19.071429
  0
LINE
  8
0
  6
CONTINUOUS
 62
1
 10
167.552446
 20
19.071429
 11
167.552446
 21
19.714286
  0
LINE
  8
0
  6
CONTINUOUS
 62
1
 10
167.552446
 20
19.714286
 11
165.838160
 21
19.500000
  0
LINE
  8
0
  6
CONTINUOUS
 62
1
 10
165.838160
 20
19.500000
 11
167.552446
 21
19.285714
  0
LINE
  8
0
  6
CONTINUOUS
 62
1
 10
167.552446
 20
19.285714
 11
167.552446
 21
19.928571
  0
LINE
  8
0
  6
CONTINUOUS
 62
1
 10
167.552446
 20
19.928571
 11
164.552446
 21
19.500000
  0
LINE
  8
0
  6
CONTINUOUS
 62
1
 10
236.552446
 20
19.500000
 11
233.552446
 21
19.928571
  0
LINE
  8
0
  6
CONTINUOUS
 62
1
 10
233.552446
 20
19.928571
 11
233.552446
 21
19.285714
  0
LINE
  8
0
  6
CONTINUOUS
 62
1
 10
233.552446
 20
19.285714
 11
235.266731
 21
19.500000
  0
LINE
  8
0
  6
CONTINUOUS
 62
1
 10
235.266731
 20
19.500000
 11
233.552446
 21
19.714286
  0
LINE
  8
0
  6
CONTINUOUS
 62
1
 10
233.552446
 20
19.714286
 11
233.552446
 21
19.071429
  0
LINE
  8
0
  6
CONTINUOUS
 62
1
 10
233.552446
 20
19.071429
 11
236.552446
 21
19.500000
  0
LINE
  8
0
  6
CONTINUOUS
 62
1
 10
248.552446
 20
28.500000
 11
248.552446
 21
93.500000
  0
LINE
  8
0
  6
CONTINUOUS
 62
1
 10
248.552446
 20
28.500000
 11
248.981017
 21
31.500000
  0
LINE
  8
0
  6
CONTINUOUS
 62
1
 10
248.981017
 20
31.500000
 11
248.338160
 21
31.500000
  0
LINE
  8
0
  6
CONTINUOUS
 62
1
 10
248.338160
 20
31.500000
 11
248.552446
 21
29.785714
  0
LINE
  8
0
  6
CONTINUOUS
 62
1
 10
248.552446
 20
29.785714
 11
248.766731
 21
31.500000
  0
LINE
  8
0
  6
CONTINUOUS
 62
1
 10
248.766731
 20
31.500000
 11
248.123874
 21
31.500000
  0
LINE
  8
0
  6
CONTINUOUS
 62
1
 10
248.123874
 20
31.500000
 11
248.552446
 21
28.500000
  0
LINE
  8
0
  6
CONTINUOUS
 62
1
 10
248.552446
 20
93.500000
 11
248.123874
 21
90.500000
  0
LINE
  8
0
  6
CONTINUOUS
 62
1
 10
248.123874
 20
90.500000
 11
248.766731
 21
90.500000
  0
LINE
  8
0
  6
CONTINUOUS
 62
1
 10
248.766731
 20
90.500000
 11
248.552446
 21
92.214286
  0
LINE
  8
0
  6
CONTINUOUS
 62
1
 10
248.552446
 20
92.214286
 11
248.338160
 21
90.500000
  0
LINE
  8
0
  6
CONTINUOUS
 62
1
 10
248.338160
 20
90.500000
 11
248.981017
 21
90.500000
  0
LINE
  8
0
  6
CONTINUOUS
 62
1
 10
248.981017
 20
90.500000
 11
248.552446
 21
93.500000
  0
LINE
  8
0
  6
CONTINUOUS
 62
1
 10
161.552446
 20
111.000000
 11
239.552446
 21
111.000000
  0
LINE
  8
0
  6
CONTINUOUS
 62
1
 10
161.552446
 20
111.000000
 11
164.552446
 21
110.571429
  0
LINE
  8
0
  6
CONTINUOUS
 62
1
 10
164.552446
 20
110.571429
 11
164.552446
 21
111.214286
  0
LINE
  8
0
  6
CONTINUOUS
 62
1
 10
164.552446
 20
111.214286
 11
162.838160
 21
111.000000
  0
LINE
  8
0
  6
CONTINUOUS
 62
1
 10
162.838160
 20
111.000000
 11
164.552446
 21
110.785714
  0
LINE
  8
0
  6
CONTINUOUS
 62
1
 10
164.552446
 20
110.785714
 11
164.552446
 21
111.428571
  0
LINE
  8
0
  6
CONTINUOUS
 62
1
 10
164.552446
 20
111.428571
 11
161.552446
 21
111.000000
  0
LINE
  8
0
  6
CONTINUOUS
 62
1
 10
239.552446
 20
111.000000
 11
236.552446
 21
111.428571
  0
LINE
  8
0
  6
CONTINUOUS
 62
1
 10
236.552446
 20
111.428571
 11
236.552446
 21
110.785714
  0
LINE
  8
0
  6
CONTINUOUS
 62
1
 10
236.552446
 20
110.785714
 11
238.266731
 21
111.000000
  0
LINE
  8
0
  6
CONTINUOUS
 62
1
 10
238.266731
 20
111.000000
 11
236.552446
 21
111.214286
  0
LINE
  8
0
  6
CONTINUOUS
 62
1
 10
236.552446
 20
111.214286
 11
236.552446
 21
110.571429
  0
LINE
  8
0
  6
CONTINUOUS
 62
1
 10
236.552446
 20
110.571429
 11
239.552446
 21
111.000000
  0
LINE
  8
0
  6
CONTINUOUS
 62
1
 10
248.552446
 20
120.000000
 11
248.552446
 21
175.125000
  0
LINE
  8
0
  6
CONTINUOUS
 62
1
 10
248.552446
 20
120.000000
 11
248.981017
 21
123.000000
  0
LINE
  8
0
  6
CONTINUOUS
 62
1
 10
248.981017
 20
123.000000
 11
248.338160
 21
123.000000
  0
LINE
  8
0
  6
CONTINUOUS
 62
1
 10
248.338160
 20
123.000000
 11
248.552446
 21
121.285714
  0
LINE
  8
0
  6
CONTINUOUS
 62
1
 10
248.552446
 20
121.285714
 11
248.766731
 21
123.000000
  0
LINE
  8
0
  6
CONTINUOUS
 62
1
 10
248.766731
 20
123.000000
 11
248.123874
 21
123.000000
  0
LINE
  8
0
  6
CONTINUOUS
 62
1
 10
248.123874
 20
123.000000
 11
248.552446
 21
120.000000
  0
LINE
  8
0
  6
CONTINUOUS
 62
1
 10
248.552446
 20
175.125000
 11
248.123874
 21
172.125000
  0
LINE
  8
0
  6
CONTINUOUS
 62
1
 10
248.123874
 20
172.125000
 11
248.766731
 21
172.125000
  0
LINE
  8
0
  6
CONTINUOUS
 62
1
 10
248.766731
 20
172.125000
 11
248.552446
 21
173.839286
  0
LINE
  8
0
  6
CONTINUOUS
 62
1
 10
248.552446
 20
173.839286
 11
248.338160
 21
172.125000
  0
LINE
  8
0
  6
CONTINUOUS
 62
1
 10
248.338160
 20
172.125000
 11
248.981017
 21
172.125000
  0
LINE
  8
0
  6
CONTINUOUS
 62
1
 10
248.981017
 20
172.125000
 11
248.552446
 21
175.125000
  0
LINE
  8
0
  6
CONTINUOUS
 62
1
 10
44.263402
 20
117.000000
 11
44.263402
 21
110.000000
  0
LINE
  8
0
  6
CONTINUOUS
 62
1
 10
119.263402
 20
117.000000
 11
119.263402
 21
110.000000
  0
LINE
  8
0
  6
CONTINUOUS
 62
1
 10
122.263402
 20
120.000000
 11
129.263402
 21
120.000000
  0
LINE
  8
0
  6
CONTINUOUS
 62
1
 10
122.263402
 20
175.000000
 11
129.263402
 21
175.000000
  0
LINE
  8
0
  6
CONTINUOUS
 62
1
 10
161.552446
 20
117.000000
 11
161.552446
 21
110.000000
  0
LINE
  8
0
  6
CONTINUOUS
 62
1
 10
239.552446
 20
117.000000
 11
239.552446
 21
110.000000
  0
LINE
  8
0
  6
CONTINUOUS
 62
1
 10
242.552446
 20
120.000000
 11
249.552446
 21
120.000000
  0
LINE
  8
0
  6
CONTINUOUS
 62
1
 10
242.552446
 20
175.125000
 11
249.552446
 21
175.125000
  0
LINE
  8
0
  6
CONTINUOUS
 62
1
 10
242.552446
 20
93.500000
 11
249.552446
 21
93.500000
  0
LINE
  8
0
  6
CONTINUOUS
 62
1
 10
242.552446
 20
28.500000
 11
249.552446
 21
28.500000
  0
LINE
  8
0
  6
CONTINUOUS
 62
1
 10
236.552446
 20
25.500000
 11
236.552446
 21
18.500000
  0
LINE
  8
0
  6
CONTINUOUS
 62
1
 10
164.552446
 20
25.500000
 11
164.552446
 21
18.500000
  0
LINE
  8
0
  6
CONTINUOUS
 62
1
 10
102.263402
 20
30.125000
 11
109.263402
 21
30.125000
  0
LINE
  8
0
  6
CONTINUOUS
 62
1
 10
102.263402
 20
95.125000
 11
109.263402
 21
95.125000
  0
LINE
  8
0
  6
CONTINUOUS
 62
1
 10
44.263402
 20
27.125000
 11
44.263402
 21
20.125000
  0
LINE
  8
0
  6
CONTINUOUS
 62
1
 10
99.263402
 20
27.125000
 11
99.263402
 21
20.125000
  0
TEXT
  8
0
  6
CONTINUOUS
 62
1
 10
76.781346
 20
20.125000
 40
2.000000
  1
55.0 mm
 50
180.000000
 41
1.000000
 51
0.000000
  7
STANDARD
  0
TEXT
  8
0
  6
CONTINUOUS
 62
1
 10
206.341023
 20
18.500000
 40
2.000000
  1
72.0 mm
 50
180.000000
 41
1.000000
 51
0.000000
  7
STANDARD
  0
TEXT
  8
0
  6
CONTINUOUS
 62
1
 10
205.725058
 20
110.000000
 40
2.000000
  1
78.0 mm
 50
180.000000
 41
1.000000
 51
0.000000
  7
STANDARD
  0
TEXT
  8
0
  6
CONTINUOUS
 62
1
 10
87.450638
 20
110.000000
 40
2.000000
  1
75.0 mm
 50
180.000000
 41
1.000000
 51
0.000000
  7
STANDARD
  0
TEXT
  8
0
  6
CONTINUOUS
 62
1
 10
107.263402
 20
57.106685
 40
2.000000
  1
65.0 mm
 50
90.000000
 41
1.000000
 51
0.000000
  7
STANDARD
  0
TEXT
  8
0
  6
CONTINUOUS
 62
1
 10
247.552446
 20
55.759482
 40
2.000000
  1
60.0 mm
 50
90.000000
 41
1.000000
 51
0.000000
  7
STANDARD
  0
TEXT
  8
0
  6
CONTINUOUS
 62
1
 10
247.552446
 20
142.015429
 40
2.000000
  1
55.0 mm
 50
90.000000
 41
1.000000
 51
0.000000
  7
STANDARD
  0
TEXT
  8
0
  6
CONTINUOUS
 62
1
 10
127.263402
 20
143.488821
 40
2.000000
  1
55.0 mm
 50
90.000000
 41
1.000000
 51
0.000000
  7
STANDARD
  0
LINE
  8
0
  6
CONTINUOUS
 62
1
 10
248.875000
 20
194.750000
 11
247.000000
 21
195.125000
  0
ARC
  8
0
  6
CONTINUOUS
 62
1
 10
253.476645
 20
194.005033
 40
6.572766
 50
132.189205
 51
170.189206
  0
ARC
  8
0
  6
CONTINUOUS
 62
1
 10
252.896828
 20
194.099269
 40
6.124514
 50
83.760205
 51
128.760205
  0
ARC
  8
0
  6
CONTINUOUS
 62
1
 10
253.603472
 20
194.429723
 40
5.757923
 50
20.407710
 51
90.407711
  0
ARC
  8
0
  6
CONTINUOUS
 62
1
 10
249.641348
 20
192.523066
 40
10.144316
 50
334.698047
 51
22.698047
  0
ARC
  8
0
  6
CONTINUOUS
 62
1
 10
253.553432
 20
190.730485
 40
5.841624
 50
281.194241
 51
334.194240
  0
ARC
  8
0
  6
CONTINUOUS
 62
1
 10
253.045255
 20
190.972177
 40
6.193857
 50
234.375329
 51
285.375328
  0
ARC
  8
0
  6
CONTINUOUS
 62
1
 10
253.619172
 20
190.904317
 40
6.492738
 50
195.905245
 51
229.905243
  0
LINE
  8
0
  6
CONTINUOUS
 62
1
 10
247.375000
 20
189.125000
 11
249.250000
 21
189.687500
  0
ARC
  8
0
  6
CONTINUOUS
 62
1
 10
253.383590
 20
190.655953
 40
4.245523
 50
193.185925
 51
249.185926
  0
ARC
  8
0
  6
CONTINUOUS
 62
1
 10
253.150721
 20
191.147114
 40
4.638494
 50
254.036243
 51
314.036243
  0
ARC
  8
0
  6
CONTINUOUS
 62
1
 10
250.036920
 20
192.440009
 40
7.847618
 50
323.866366
 51
12.866365
  0
ARC
  8
0
  6
CONTINUOUS
 62
1
 10
252.174284
 20
193.539736
 40
5.551140
 50
6.701124
 51
43.701125
  0
ARC
  8
0
  6
CONTINUOUS
 62
1
 10
253.130790
 20
193.701632
 40
4.778819
 50
50.235226
 51
105.235225
  0
ARC
  8
0
  6
CONTINUOUS
 62
1
 10
253.398962
 20
193.984755
 40
4.588228
 50
109.399092
 51
170.399094
  0
ARC
  8
0
  6
CONTINUOUS
 62
1
 10
235.124992
 20
192.500946
 40
9.111727
 50
346.911226
 51
26.911227
  0
ARC
  8
0
  6
CONTINUOUS
 62
1
 10
237.361167
 20
191.543052
 40
6.730256
 50
283.545409
 51
350.545408
  0
ARC
  8
0
  6
CONTINUOUS
 62
1
 10
237.143785
 20
191.996021
 40
7.222307
 50
234.380344
 51
284.380345
  0
ARC
  8
0
  6
CONTINUOUS
 62
1
 10
237.654381
 20
192.013881
 40
7.545057
 50
176.305945
 51
231.305944
  0
ARC
  8
0
  6
CONTINUOUS
 62
1
 10
237.654381
 20
192.986119
 40
7.545057
 50
128.694058
 51
183.694056
  0
ARC
  8
0
  6
CONTINUOUS
 62
1
 10
237.171794
 20
192.854601
 40
7.360330
 50
76.119656
 51
125.119655
  0
ARC
  8
0
  6
CONTINUOUS
 62
1
 10
237.474895
 20
193.688407
 40
6.478844
 50
26.952957
 51
76.952957
  0
ARC
  8
0
  6
CONTINUOUS
 62
1
 10
237.196683
 20
193.496002
 40
5.004282
 50
33.389540
 51
89.389541
  0
ARC
  8
0
  6
CONTINUOUS
 62
1
 10
237.087057
 20
193.668076
 40
4.834670
 50
88.068592
 51
167.068594
  0
ARC
  8
0
  6
CONTINUOUS
 62
1
 10
239.698676
 20
192.498514
 40
7.661947
 50
162.911227
 51
210.911227
  0
ARC
  8
0
  6
CONTINUOUS
 62
1
 10
237.088889
 20
191.373888
 40
4.859662
 50
215.346176
 51
285.346177
  0
ARC
  8
0
  6
CONTINUOUS
 62
1
 10
237.417728
 20
191.267476
 40
4.678947
 50
281.805571
 51
337.805572
  0
ARC
  8
0
  6
CONTINUOUS
 62
1
 10
233.800532
 20
192.443779
 40
8.477021
 50
339.679830
 51
26.679832
  0
LINE
  8
0
  6
CONTINUOUS
 62
1
 10
226.937500
 20
191.937500
 11
226.937500
 21
185.000000
  0
LINE
  8
0
  6
CONTINUOUS
 62
1
 10
226.937500
 20
185.000000
 11
223.937500
 21
185.000000
  0
LINE
  8
0
  6
CONTINUOUS
 62
1
 10
223.937500
 20
185.000000
 11
221.875000
 21
191.375000
  0
LINE
  8
0
  6
CONTINUOUS
 62
1
 10
221.875000
 20
191.375000
 11
219.812500
 21
197.750000
  0
LINE
  8
0
  6
CONTINUOUS
 62
1
 10
219.812500
 20
197.750000
 11
217.750000
 21
191.000000
  0
LINE
  8
0
  6
CONTINUOUS
 62
1
 10
217.750000
 20
191.000000
 11
215.875000
 21
185.000000
  0
LINE
  8
0
  6
CONTINUOUS
 62
1
 10
215.875000
 20
185.000000
 11
212.687500
 21
185.000000
  0
LINE
  8
0
  6
CONTINUOUS
 62
1
 10
212.687500
 20
185.000000
 11
212.687500
 21
192.875000
  0
LINE
  8
0
  6
CONTINUOUS
 62
1
 10
212.687500
 20
192.875000
 11
212.687500
 21
200.000000
  0
LINE
  8
0
  6
CONTINUOUS
 62
1
 10
212.687500
 20
200.000000
 11
214.750000
 21
200.000000
  0
LINE
  8
0
  6
CONTINUOUS
 62
1
 10
214.750000
 20
200.000000
 11
214.750000
 21
193.062500
  0
LINE
  8
0
  6
CONTINUOUS
 62
1
 10
214.750000
 20
193.062500
 11
214.750000
 21
187.062500
  0
LINE
  8
0
  6
CONTINUOUS
 62
1
 10
214.750000
 20
187.062500
 11
216.625000
 21
193.250000
  0
LINE
  8
0
  6
CONTINUOUS
 62
1
 10
216.625000
 20
193.250000
 11
218.687500
 21
200.000000
  0
LINE
  8
0
  6
CONTINUOUS
 62
1
 10
218.687500
 20
200.000000
 11
220.937500
 21
200.000000
  0
LINE
  8
0
  6
CONTINUOUS
 62
1
 10
220.937500
 20
200.000000
 11
223.000000
 21
193.437500
  0
LINE
  8
0
  6
CONTINUOUS
 62
1
 10
223.000000
 20
193.437500
 11
224.875000
 21
187.250000
  0
LINE
  8
0
  6
CONTINUOUS
 62
1
 10
224.875000
 20
187.250000
 11
224.875000
 21
194.000000
  0
LINE
  8
0
  6
CONTINUOUS
 62
1
 10
224.875000
 20
194.000000
 11
224.875000
 21
200.000000
  0
LINE
  8
0
  6
CONTINUOUS
 62
1
 10
224.875000
 20
200.000000
 11
226.937500
 21
200.000000
  0
LINE
  8
0
  6
CONTINUOUS
 62
1
 10
226.937500
 20
200.000000
 11
226.937500
 21
191.937500
  0
LINE
  8
0
  6
CONTINUOUS
 62
1
 10
208.937500
 20
191.750000
 11
208.937500
 21
185.000000
  0
LINE
  8
0
  6
CONTINUOUS
 62
1
 10
208.937500
 20
185.000000
 11
202.750000
 21
185.000000
  0
ARC
  8
0
  6
CONTINUOUS
 62
1
 10
202.715078
 20
192.882385
 40
7.882462
 50
252.253838
 51
270.253838
  0
ARC
  8
0
  6
CONTINUOUS
 62
1
 10
201.656087
 20
188.968587
 40
3.836547
 50
200.500001
 51
249.500000
  0
ARC
  8
0
  6
CONTINUOUS
 62
1
 10
203.168890
 20
189.271857
 40
5.365386
 50
147.874983
 51
197.874984
  0
ARC
  8
0
  6
CONTINUOUS
 62
1
 10
201.516889
 20
190.224666
 40
3.460389
 50
100.690068
 51
146.690068
  0
ARC
  8
0
  6
CONTINUOUS
 62
1
 10
204.476163
 20
178.326814
 40
15.716325
 50
94.246162
 51
103.246162
  0
LINE
  8
0
  6
CONTINUOUS
 62
1
 10
203.312500
 20
194.000000
 11
206.875000
 21
194.000000
  0
LINE
  8
0
  6
CONTINUOUS
 62
1
 10
206.875000
 20
194.000000
 11
206.875000
 21
200.000000
  0
LINE
  8
0
  6
CONTINUOUS
 62
1
 10
206.875000
 20
200.000000
 11
208.937500
 21
200.000000
  0
LINE
  8
0
  6
CONTINUOUS
 62
1
 10
208.937500
 20
200.000000
 11
208.937500
 21
191.750000
  0
LINE
  8
0
  6
CONTINUOUS
 62
1
 10
206.875000
 20
186.687500
 11
206.875000
 21
192.125000
  0
LINE
  8
0
  6
CONTINUOUS
 62
1
 10
206.875000
 20
192.125000
 11
202.375000
 21
192.125000
  0
ARC
  8
0
  6
CONTINUOUS
 62
1
 10
202.618763
 20
188.581211
 40
3.552163
 50
93.934949
 51
122.934949
  0
ARC
  8
0
  6
CONTINUOUS
 62
1
 10
202.475151
 20
189.497333
 40
2.731412
 50
130.880135
 51
183.880135
  0
ARC
  8
0
  6
CONTINUOUS
 62
1
 10
202.430273
 20
189.286488
 40
2.680399
 50
179.443955
 51
229.443956
  0
ARC
  8
0
  6
CONTINUOUS
 62
1
 10
202.535559
 20
189.963717
 40
3.283228
 50
235.744881
 51
273.744883
  0
LINE
  8
0
  6
CONTINUOUS
 62
1
 10
202.750000
 20
186.687500
 11
206.875000
 21
186.687500
  0
ARC
  8
0
  6
CONTINUOUS
 62
1
 10
185.999992
 20
192.500946
 40
9.111727
 50
346.911226
 51
26.911227
  0
ARC
  8
0
  6
CONTINUOUS
 62
1
 10
188.236167
 20
191.543052
 40
6.730256
 50
283.545409
 51
350.545408
  0
ARC
  8
0
  6
CONTINUOUS
 62
1
 10
188.018785
 20
191.996021
 40
7.222307
 50
234.380344
 51
284.380345
  0
ARC
  8
0
  6
CONTINUOUS
 62
1
 10
188.529381
 20
192.013881
 40
7.545057
 50
176.305945
 51
231.305944
  0
ARC
  8
0
  6
CONTINUOUS
 62
1
 10
188.529381
 20
192.986119
 40
7.545057
 50
128.694058
 51
183.694056
  0
ARC
  8
0
  6
CONTINUOUS
 62
1
 10
188.046794
 20
192.854601
 40
7.360330
 50
76.119656
 51
125.119655
  0
ARC
  8
0
  6
CONTINUOUS
 62
1
 10
188.349895
 20
193.688407
 40
6.478844
 50
26.952957
 51
76.952957
  0
ARC
  8
0
  6
CONTINUOUS
 62
1
 10
188.071683
 20
193.496002
 40
5.004282
 50
33.389540
 51
89.389541
  0
ARC
  8
0
  6
CONTINUOUS
 62
1
 10
187.962057
 20
193.668076
 40
4.834670
 50
88.068592
 51
167.068594
  0
ARC
  8
0
  6
CONTINUOUS
 62
1
 10
190.573676
 20
192.498514
 40
7.661947
 50
162.911227
 51
210.911227
  0
ARC
  8
0
  6
CONTINUOUS
 62
1
 10
187.963889
 20
191.373888
 40
4.859662
 50
215.346176
 51
285.346177
  0
ARC
  8
0
  6
CONTINUOUS
 62
1
 10
188.292728
 20
191.267476
 40
4.678947
 50
281.805571
 51
337.805572
  0
ARC
  8
0
  6
CONTINUOUS
 62
1
 10
184.675532
 20
192.443779
 40
8.477021
 50
339.679830
 51
26.679832
  0
LINE
  8
0
  6
CONTINUOUS
 62
1
 10
178.187500
 20
194.750000
 11
176.312500
 21
194.750000
  0
ARC
  8
0
  6
CONTINUOUS
 62
1
 10
171.938223
 20
194.428881
 40
4.386048
 50
4.198591
 51
42.198592
  0
ARC
  8
0
  6
CONTINUOUS
 62
1
 10
172.005299
 20
193.436889
 40
5.063114
 50
51.059965
 51
90.059967
  0
ARC
  8
0
  6
CONTINUOUS
 62
1
 10
171.892236
 20
194.224870
 40
4.276488
 50
88.556045
 51
132.556044
  0
ARC
  8
0
  6
CONTINUOUS
 62
1
 10
170.586173
 20
195.942506
 40
2.137285
 50
137.914383
 51
213.914386
  0
ARC
  8
0
  6
CONTINUOUS
 62
1
 10
171.481197
 20
197.072828
 40
3.538004
 50
221.036243
 51
257.036244
  0
LINE
  8
0
  6
CONTINUOUS
 62
1
 10
170.687500
 20
193.625000
 11
174.062500
 21
192.687500
  0
ARC
  8
0
  6
CONTINUOUS
 62
1
 10
173.129459
 20
187.982879
 40
4.796251
 50
30.782407
 51
78.782407
  0
ARC
  8
0
  6
CONTINUOUS
 62
1
 10
173.679910
 20
188.900759
 40
3.886787
 50
325.289408
 51
23.289407
  0
ARC
  8
0
  6
CONTINUOUS
 62
1
 10
172.942844
 20
189.864312
 40
5.055095
 50
272.065052
 51
321.065051
  0
ARC
  8
0
  6
CONTINUOUS
 62
1
 10
172.292459
 20
191.370312
 40
6.610448
 50
238.235225
 51
277.235226
  0
ARC
  8
0
  6
CONTINUOUS
 62
1
 10
171.296749
 20
189.332171
 40
4.359294
 50
180.258542
 51
235.258541
  0
LINE
  8
0
  6
CONTINUOUS
 62
1
 10
166.937500
 20
189.312500
 11
168.812500
 21
189.312500
  0
ARC
  8
0
  6
CONTINUOUS
 62
1
 10
172.056073
 20
189.696772
 40
3.266256
 50
186.756437
 51
233.756439
  0
ARC
  8
0
  6
CONTINUOUS
 62
1
 10
172.502111
 20
192.048557
 40
5.523714
 50
244.510447
 51
290.510447
  0
ARC
  8
0
  6
CONTINUOUS
 62
1
 10
173.479650
 20
188.760175
 40
2.114560
 50
296.934949
 51
9.934947
  0
ARC
  8
0
  6
CONTINUOUS
 62
1
 10
173.657601
 20
188.720101
 40
1.947455
 50
12.000000
 51
78.000002
  0
LINE
  8
0
  6
CONTINUOUS
 62
1
 10
174.062500
 20
190.625000
 11
169.000000
 21
192.125000
  0
ARC
  8
0
  6
CONTINUOUS
 62
1
 10
170.426022
 20
195.823385
 40
3.963785
 50
192.914382
 51
248.914383
  0
ARC
  8
0
  6
CONTINUOUS
 62
1
 10
170.844736
 20
195.697588
 40
4.349170
 50
133.065052
 51
190.065051
  0
ARC
  8
0
  6
CONTINUOUS
 62
1
 10
171.692720
 20
194.014843
 40
6.180300
 50
87.150123
 51
128.150124
  0
ARC
  8
0
  6
CONTINUOUS
 62
1
 10
172.331233
 20
192.924917
 40
7.270132
 50
63.611341
 51
92.611342
  0
ARC
  8
0
  6
CONTINUOUS
 62
1
 10
172.974345
 20
194.909383
 40
5.215591
 50
358.248827
 51
60.248826
  0
LINE
  8
0
  6
CONTINUOUS
 62
1
 10
163.000000
 20
192.500000
 11
163.000000
 21
185.000000
  0
LINE
  8
0
  6
CONTINUOUS
 62
1
 10
163.000000
 20
185.000000
 11
160.937500
 21
185.000000
  0
LINE
  8
0
  6
CONTINUOUS
 62
1
 10
160.937500
 20
185.000000
 11
160.937500
 21
192.312500
  0
LINE
  8
0
  6
CONTINUOUS
 62
1
 10
160.937500
 20
192.312500
 11
160.937500
 21
200.000000
  0
LINE
  8
0
  6
CONTINUOUS
 62
1
 10
160.937500
 20
200.000000
 11
163.000000
 21
200.000000
  0
LINE
  8
0
  6
CONTINUOUS
 62
1
 10
163.000000
 20
200.000000
 11
163.000000
 21
192.500000
  0
LINE
  8
0
  6
CONTINUOUS
 62
1
 10
151.187500
 20
200.000000
 11
153.250000
 21
200.000000
  0
LINE
  8
0
  6
CONTINUOUS
 62
1
 10
153.250000
 20
200.000000
 11
153.250000
 21
193.250000
  0
LINE
  8
0
  6
CONTINUOUS
 62
1
 10
153.250000
 20
193.250000
 11
153.250000
 21
186.687500
  0
LINE
  8
0
  6
CONTINUOUS
 62
1
 10
153.250000
 20
186.687500
 11
158.312500
 21
186.687500
  0
LINE
  8
0
  6
CONTINUOUS
 62
1
 10
158.312500
 20
186.687500
 11
158.312500
 21
185.000000
  0
LINE
  8
0
  6
CONTINUOUS
 62
1
 10
158.312500
 20
185.000000
 11
152.125000
 21
185.000000
  0
LINE
  8
0
  6
CONTINUOUS
 62
1
 10
152.125000
 20
185.000000
 11
146.312500
 21
185.000000
  0
LINE
  8
0
  6
CONTINUOUS
 62
1
 10
146.312500
 20
185.000000
 11
146.312500
 21
186.687500
  0
LINE
  8
0
  6
CONTINUOUS
 62
1
 10
146.312500
 20
186.687500
 11
151.187500
 21
186.687500
  0
LINE
  8
0
  6
CONTINUOUS
 62
1
 10
151.187500
 20
186.687500
 11
151.187500
 21
193.625000
  0
LINE
  8
0
  6
CONTINUOUS
 62
1
 10
151.187500
 20
193.625000
 11
151.187500
 21
200.000000
  0
LINE
  8
0
  6
CONTINUOUS
 62
1
 10
143.687500
 20
191.937500
 11
143.687500
 21
185.000000
  0
LINE
  8
0
  6
CONTINUOUS
 62
1
 10
143.687500
 20
185.000000
 11
133.000000
 21
185.000000
  0
LINE
  8
0
  6
CONTINUOUS
 62
1
 10
133.000000
 20
185.000000
 11
133.000000
 21
186.687500
  0
LINE
  8
0
  6
CONTINUOUS
 62
1
 10
133.000000
 20
186.687500
 11
141.625000
 21
186.687500
  0
LINE
  8
0
  6
CONTINUOUS
 62
1
 10
141.625000
 20
186.687500
 11
141.625000
 21
191.375000
  0
LINE
  8
0
  6
CONTINUOUS
 62
1
 10
141.625000
 20
191.375000
 11
133.562500
 21
191.375000
  0
LINE
  8
0
  6
CONTINUOUS
 62
1
 10
133.562500
 20
191.375000
 11
133.562500
 21
193.062500
  0
LINE
  8
0
  6
CONTINUOUS
 62
1
 10
133.562500
 20
193.062500
 11
141.625000
 21
193.062500
  0
LINE
  8
0
  6
CONTINUOUS
 62
1
 10
141.625000
 20
193.062500
 11
141.625000
 21
198.312500
  0
LINE
  8
0
  6
CONTINUOUS
 62
1
 10
141.625000
 20
198.312500
 11
132.437500
 21
198.312500
  0
LINE
  8
0
  6
CONTINUOUS
 62
1
 10
132.437500
 20
198.312500
 11
132.437500
 21
200.000000
  0
LINE
  8
0
  6
CONTINUOUS
 62
1
 10
132.437500
 20
200.000000
 11
143.687500
 21
200.000000
  0
LINE
  8
0
  6
CONTINUOUS
 62
1
 10
143.687500
 20
200.000000
 11
143.687500
 21
191.937500
  0
TEXT
  8
0
  6
CONTINUOUS
 62
1
 10
118.263402
 20
52.808573
 40
2.000000
  1
SECTION 11909
 50
90.000000
 41
1.000000
 51
0.000000
  7
STANDARD
  0
TEXT
  8
0
  6
CONTINUOUS
 62
1
 10
122.263402
 20
52.808573
 40
2.000000
  1
OUTER FRAME
 50
90.000000
 41
1.000000
 51
0.000000
  7
STANDARD
  0
TEXT
  8
0
  6
CONTINUOUS
 62
1
 10
258.552446
 20
53.456543
 40
2.000000
  1
SECTION 11910
 50
90.000000
 41
1.000000
 51
0.000000
  7
STANDARD
  0
TEXT
  8
0
  6
CONTINUOUS
 62
1
 10
262.552446
 20
53.456543
 40
2.000000
  1
MEETING RAIL
 50
90.000000
 41
1.000000
 51
0.000000
  7
STANDARD
  0
TEXT
  8
0
  6
CONTINUOUS
 62
1
 10
258.552446
 20
139.369623
 40
2.000000
  1
SECTION 11907
 50
90.000000
 41
1.000000
 51
0.000000
  7
STANDARD
  0
TEXT
  8
0
  6
CONTINUOUS
 62
1
 10
262.552446
 20
139.369623
 40
2.000000
  1
GLAZING BAR
 50
90.000000
 41
1.000000
 51
0.000000
  7
STANDARD
  0
TEXT
  8
0
  6
CONTINUOUS
 62
1
 10
138.263402
 20
140.416939
 40
2.000000
  1
SECTION 11911
 50
90.000000
 41
1.000000
 51
0.000000
  7
STANDARD
  0
TEXT
  8
0
  6
CONTINUOUS
 62
1
 10
142.263402
 20
140.416939
 40
2.000000
  1
VENT FRAME
 50
90.000000
 41
1.000000
 51
0.000000
  7
STANDARD
  0
LINE
  8
0
  6
CONTINUOUS
 62
1
 10
284.747785
 20
186.777434
 11
286.997785
 21
185.933684
  0
LINE
  8
0
  6
CONTINUOUS
 62
1
 10
286.997785
 20
185.933684
 11
286.997785
 21
184.902434
  0
LINE
  8
0
  6
CONTINUOUS
 62
1
 10
286.997785
 20
184.902434
 11
282.872785
 21
186.589934
  0
LINE
  8
0
  6
CONTINUOUS
 62
1
 10
282.872785
 20
186.589934
 11
279.497785
 21
187.902434
  0
LINE
  8
0
  6
CONTINUOUS
 62
1
 10
279.497785
 20
187.902434
 11
279.497785
 21
188.933684
  0
LINE
  8
0
  6
CONTINUOUS
 62
1
 10
279.497785
 20
188.933684
 11
283.341535
 21
190.433684
  0
LINE
  8
0
  6
CONTINUOUS
 62
1
 10
283.341535
 20
190.433684
 11
286.997785
 21
191.933684
  0
LINE
  8
0
  6
CONTINUOUS
 62
1
 10
286.997785
 20
191.933684
 11
286.997785
 21
190.902434
  0
LINE
  8
0
  6
CONTINUOUS
 62
1
 10
286.997785
 20
190.902434
 11
284.747785
 21
190.058684
  0
LINE
  8
0
  6
CONTINUOUS
 62
1
 10
284.747785
 20
190.058684
 11
284.747785
 21
186.777434
  0
LINE
  8
0
  6
CONTINUOUS
 62
1
 10
283.810285
 20
189.683684
 11
280.341535
 21
188.371184
  0
LINE
  8
0
  6
CONTINUOUS
 62
1
 10
280.341535
 20
188.371184
 11
283.810285
 21
187.152434
  0
LINE
  8
0
  6
CONTINUOUS
 62
1
 10
283.810285
 20
187.152434
 11
283.810285
 21
189.683684
  0
LINE
  8
0
  6
CONTINUOUS
 62
1
 10
286.060285
 20
197.464934
 11
286.997785
 21
197.464934
  0
LINE
  8
0
  6
CONTINUOUS
 62
1
 10
286.997785
 20
197.464934
 11
286.997785
 21
192.496184
  0
ARC
  8
0
  6
CONTINUOUS
 62
1
 10
287.446649
 20
196.186529
 40
3.717543
 50
240.065051
 51
263.065051
  0
ARC
  8
0
  6
CONTINUOUS
 62
1
 10
291.156702
 20
200.217602
 40
9.141788
 50
217.500001
 51
232.500000
  0
ARC
  8
0
  6
CONTINUOUS
 62
1
 10
279.536770
 20
191.497144
 40
5.387843
 50
35.847610
 51
57.847610
  0
ARC
  8
0
  6
CONTINUOUS
 62
1
 10
281.607160
 20
195.091998
 40
1.252794
 50
50.500000
 51
129.500002
  0
ARC
  8
0
  6
CONTINUOUS
 62
1
 10
281.873270
 20
194.978016
 40
1.515844
 50
134.527373
 51
207.527371
  0
ARC
  8
0
  6
CONTINUOUS
 62
1
 10
281.626986
 20
194.867226
 40
1.246335
 50
208.243563
 51
271.243561
  0
LINE
  8
0
  6
CONTINUOUS
 62
1
 10
281.654035
 20
193.621184
 11
281.560285
 21
192.683684
  0
ARC
  8
0
  6
CONTINUOUS
 62
1
 10
281.547265
 20
194.696337
 40
2.012695
 50
222.370622
 51
270.370622
  0
ARC
  8
0
  6
CONTINUOUS
 62
1
 10
282.035746
 20
194.935922
 40
2.539611
 50
177.934948
 51
218.934949
  0
ARC
  8
0
  6
CONTINUOUS
 62
1
 10
281.742394
 20
195.166162
 40
2.248892
 50
125.536656
 51
183.536655
  0
ARC
  8
0
  6
CONTINUOUS
 62
1
 10
281.607160
 20
195.045857
 40
2.275317
 50
59.000000
 51
121.000000
  0
ARC
  8
0
  6
CONTINUOUS
 62
1
 10
280.464155
 20
193.024622
 40
4.596953
 50
39.763642
 51
59.763642
  0
LINE
  8
0
  6
CONTINUOUS
 62
1
 10
283.997785
 20
195.964934
 11
285.404035
 21
194.371184
  0
ARC
  8
0
  6
CONTINUOUS
 62
1
 10
286.950387
 20
195.511200
 40
1.921156
 50
216.398705
 51
242.398706
  0
LINE
  8
0
  6
CONTINUOUS
 62
1
 10
286.060285
 20
193.808684
 11
286.060285
 21
197.464934
  0
LINE
  8
0
  6
CONTINUOUS
 62
1
 10
69.263402
 20
175.000000
 11
97.263402
 21
175.000000
  0
LINE
  8
0
  6
CONTINUOUS
 62
1
 10
99.013402
 20
151.000000
 11
89.513402
 21
151.000000
  0
LINE
  8
0
  6
CONTINUOUS
 62
1
 10
89.263402
 20
150.750000
 11
89.263402
 21
148.000000
  0
LINE
  8
0
  6
CONTINUOUS
 62
1
 10
89.513402
 20
147.750000
 11
97.263402
 21
147.750000
  0
LINE
  8
0
  6
CONTINUOUS
 62
1
 10
97.263402
 20
143.000000
 11
69.263402
 21
143.000000
  0
LINE
  8
0
  6
CONTINUOUS
 62
1
 10
97.513402
 20
147.500000
 11
97.513402
 21
143.250000
  0
LINE
  8
0
  6
CONTINUOUS
 62
1
 10
77.263402
 20
148.000000
 11
77.263402
 21
150.750000
  0
LINE
  8
0
  6
CONTINUOUS
 62
1
 10
77.013402
 20
151.000000
 11
67.513402
 21
151.000000
  0
LINE
  8
0
  6
CONTINUOUS
 62
1
 10
77.013402
 20
147.750000
 11
69.263402
 21
147.750000
  0
LINE
  8
0
  6
CONTINUOUS
 62
1
 10
69.013402
 20
147.500000
 11
69.013402
 21
143.250000
  0
ARC
  8
0
  6
CONTINUOUS
 62
1
 10
99.013402
 20
151.250000
 40
0.250000
 50
270.000000
 51
0.000000
  0
ARC
  8
0
  6
CONTINUOUS
 62
1
 10
89.513402
 20
150.750000
 40
0.250000
 50
90.000000
 51
180.000000
  0
ARC
  8
0
  6
CONTINUOUS
 62
1
 10
89.513402
 20
148.000000
 40
0.250000
 50
180.000000
 51
270.000000
  0
ARC
  8
0
  6
CONTINUOUS
 62
1
 10
97.263402
 20
147.500000
 40
0.250000
 50
0.000000
 51
90.000000
  0
ARC
  8
0
  6
CONTINUOUS
 62
1
 10
97.263402
 20
143.250000
 40
0.250000
 50
270.000000
 51
0.000000
  0
ARC
  8
0
  6
CONTINUOUS
 62
1
 10
69.263402
 20
143.250000
 40
0.250000
 50
180.000000
 51
270.000000
  0
ARC
  8
0
  6
CONTINUOUS
 62
1
 10
69.263402
 20
147.500000
 40
0.250000
 50
90.000000
 51
180.000000
  0
ARC
  8
0
  6
CONTINUOUS
 62
1
 10
77.013402
 20
148.000000
 40
0.250000
 50
270.000000
 51
0.000000
  0
ARC
  8
0
  6
CONTINUOUS
 62
1
 10
77.013402
 20
150.750000
 40
0.250000
 50
0.000000
 51
90.000000
  0
ARC
  8
0
  6
CONTINUOUS
 62
1
 10
67.513402
 20
151.250000
 40
0.250000
 50
180.000000
 51
270.000000
  0
ARC
  8
0
  6
RANDOM
 62
1
 10
66.513402
 20
143.000000
 40
5.000000
 50
0.000000
 51
60.000000
  0
ARC
  8
0
  6
RANDOM
 62
1
 10
67.263402
 20
143.000000
 40
25.000000
 50
0.000000
 51
10.952784
  0
ARC
  8
0
  6
RANDOM
 62
1
 10
67.263402
 20
143.000000
 40
10.000000
 50
0.000000
 51
28.359350
  0
ARC
  8
0
  6
RANDOM
 62
1
 10
67.263402
 20
143.000000
 40
10.000000
 50
53.130102
 51
90.000000
  0
LINE
  8
0
  6
CONTINUOUS
 62
1
 10
99.013402
 20
170.225000
 11
97.013402
 21
170.225000
  0
LINE
  8
0
  6
CONTINUOUS
 62
1
 10
97.013402
 20
153.725000
 11
99.013402
 21
153.725000
  0
LINE
  8
0
  6
CONTINUOUS
 62
1
 10
99.263402
 20
153.475000
 11
99.263402
 21
151.250000
  0
ARC
  8
0
  6
CONTINUOUS
 62
1
 10
99.013402
 20
153.475000
 40
0.250000
 50
0.000000
 51
90.000000
  0
LINE
  8
0
  6
CONTINUOUS
 62
1
 10
96.763402
 20
169.975000
 11
96.763402
 21
168.325000
  0
LINE
  8
0
  6
CONTINUOUS
 62
1
 10
96.513402
 20
168.075000
 11
91.513402
 21
168.075000
  0
LINE
  8
0
  6
CONTINUOUS
 62
1
 10
91.513402
 20
155.875000
 11
96.513402
 21
155.875000
  0
LINE
  8
0
  6
CONTINUOUS
 62
1
 10
96.763402
 20
155.625000
 11
96.763402
 21
153.975000
  0
LINE
  8
0
  6
CONTINUOUS
 62
1
 10
67.263402
 20
151.250000
 11
67.263402
 21
173.000000
  0
ARC
  8
0
  6
CONTINUOUS
 62
1
 10
69.263402
 20
173.000000
 40
2.000000
 50
90.000000
 51
180.000000
  0
ARC
  8
0
  6
CONTINUOUS
 62
1
 10
99.013402
 20
170.475000
 40
0.250000
 50
270.000000
 51
0.000000
  0
ARC
  8
0
  6
CONTINUOUS
 62
1
 10
97.013402
 20
169.975000
 40
0.250000
 50
90.000000
 51
180.000000
  0
ARC
  8
0
  6
CONTINUOUS
 62
1
 10
96.513402
 20
168.325000
 40
0.250000
 50
270.000000
 51
0.000000
  0
ARC
  8
0
  6
CONTINUOUS
 62
1
 10
96.513402
 20
155.625000
 40
0.250000
 50
0.000000
 51
90.000000
  0
ARC
  8
0
  6
CONTINUOUS
 62
1
 10
97.013402
 20
153.975000
 40
0.250000
 50
180.000000
 51
270.000000
  0
ARC
  8
0
  6
RANDOM
 62
1
 10
67.263402
 20
143.000000
 40
15.000000
 50
0.000000
 51
90.000000
  0
ARC
  8
0
  6
RANDOM
 62
1
 10
67.263402
 20
143.000000
 40
20.000000
 50
0.000000
 51
90.000000
  0
ARC
  8
0
  6
RANDOM
 62
1
 10
67.263402
 20
143.000000
 40
25.000000
 50
18.662925
 51
90.000000
  0
ARC
  8
0
  6
RANDOM
 62
1
 10
67.263402
 20
143.000000
 40
30.000000
 50
15.466010
 51
25.256204
  0
ARC
  8
0
  6
RANDOM
 62
1
 10
67.263402
 20
143.000000
 40
30.000000
 50
36.869898
 51
90.000000
  0
LINE
  8
0
  6
CONTINUOUS
 62
1
 10
99.263402
 20
170.475000
 11
99.263402
 21
173.000000
  0
ARC
  8
0
  6
CONTINUOUS
 62
1
 10
97.263402
 20
173.000000
 40
2.000000
 50
0.000000
 51
90.000000
  0
ARC
  8
0
  6
RANDOM
 62
1
 10
67.263402
 20
143.000000
 40
35.000000
 50
45.584691
 51
66.104492
  0
ARC
  8
0
  6
RANDOM
 62
1
 10
67.263402
 20
143.000000
 40
40.000000
 50
42.318490
 51
53.130102
  0
LINE
  8
0
  6
CONTINUOUS
 62
1
 10
91.263402
 20
156.125000
 11
91.263402
 21
167.825000
  0
ARC
  8
0
  6
CONTINUOUS
 62
1
 10
91.513402
 20
156.125000
 40
0.250000
 50
180.000000
 51
270.000000
  0
ARC
  8
0
  6
CONTINUOUS
 62
1
 10
91.513402
 20
167.825000
 40
0.250000
 50
90.000000
 51
180.000000
  0
LINE
  8
0
  6
CONTINUOUS
 62
1
 10
45.263402
 20
120.000000
 11
117.263402
 21
120.000000
  0
LINE
  8
0
  6
CONTINUOUS
 62
1
 10
49.763402
 20
123.000000
 11
49.763402
 21
124.250000
  0
LINE
  8
0
  6
CONTINUOUS
 62
1
 10
44.263402
 20
121.000000
 11
44.263402
 21
122.500000
  0
LINE
  8
0
  6
CONTINUOUS
 62
1
 10
44.513402
 20
122.750000
 11
49.513402
 21
122.750000
  0
LINE
  8
0
  6
CONTINUOUS
 62
1
 10
50.013402
 20
124.500000
 11
50.963402
 21
124.500000
  0
LINE
  8
0
  6
CONTINUOUS
 62
1
 10
51.763402
 20
123.500000
 11
51.013402
 21
123.500000
  0
LINE
  8
0
  6
CONTINUOUS
 62
1
 10
50.763402
 20
123.250000
 11
50.763402
 21
122.000000
  0
LINE
  8
0
  6
CONTINUOUS
 62
1
 10
51.013402
 20
121.750000
 11
58.013402
 21
121.750000
  0
LINE
  8
0
  6
CONTINUOUS
 62
1
 10
58.263402
 20
122.000000
 11
58.263402
 21
123.250000
  0
LINE
  8
0
  6
CONTINUOUS
 62
1
 10
58.013402
 20
123.500000
 11
57.263402
 21
123.500000
  0
LINE
  8
0
  6
CONTINUOUS
 62
1
 10
58.063402
 20
124.500000
 11
59.013402
 21
124.500000
  0
LINE
  8
0
  6
CONTINUOUS
 62
1
 10
59.263402
 20
124.250000
 11
59.263402
 21
122.000000
  0
LINE
  8
0
  6
CONTINUOUS
 62
1
 10
91.113402
 20
137.350000
 11
91.113402
 21
123.700000
  0
LINE
  8
0
  6
CONTINUOUS
 62
1
 10
92.263402
 20
121.400000
 11
71.563402
 21
121.400000
  0
LINE
  8
0
  6
CONTINUOUS
 62
1
 10
96.863402
 20
139.000000
 11
72.313402
 21
139.000000
  0
LINE
  8
0
  6
CONTINUOUS
 62
1
 10
71.563402
 20
137.600000
 11
90.863402
 21
137.600000
  0
LINE
  8
0
  6
CONTINUOUS
 62
1
 10
92.313402
 20
130.000000
 11
92.513402
 21
130.200000
  0
LINE
  8
0
  6
CONTINUOUS
 62
1
 10
92.513402
 20
121.650000
 11
92.513402
 21
122.650000
  0
LINE
  8
0
  6
CONTINUOUS
 62
1
 10
92.313402
 20
130.000000
 11
92.513402
 21
129.800000
  0
LINE
  8
0
  6
CONTINUOUS
 62
1
 10
95.513402
 20
150.200000
 11
97.863402
 21
150.200000
  0
LINE
  8
0
  6
CONTINUOUS
 62
1
 10
97.613402
 20
148.800000
 11
95.513402
 21
148.800000
  0
ARC
  8
0
  6
CONTINUOUS
 62
1
 10
98.563402
 20
150.300000
 40
0.700000
 50
0.000000
 51
90.000000
  0
ARC
  8
0
  6
CONTINUOUS
 62
1
 10
98.563402
 20
150.300000
 40
0.700000
 50
90.000000
 51
180.000000
  0
LINE
  8
0
  6
CONTINUOUS
 62
1
 10
90.263402
 20
149.562800
 11
90.263402
 21
149.437200
  0
LINE
  8
0
  6
CONTINUOUS
 62
1
 10
92.763402
 20
150.330127
 11
92.763402
 21
151.000000
  0
LINE
  8
0
  6
CONTINUOUS
 62
1
 10
95.263402
 20
151.000000
 11
95.263402
 21
150.450000
  0
LINE
  8
0
  6
CONTINUOUS
 62
1
 10
97.863402
 20
150.300000
 11
97.863402
 21
150.200000
  0
LINE
  8
0
  6
CONTINUOUS
 62
1
 10
97.863402
 20
148.550000
 11
97.863402
 21
140.000000
  0
LINE
  8
0
  6
CONTINUOUS
 62
1
 10
95.263402
 20
151.000000
 11
92.763402
 21
150.330127
  0
LINE
  8
0
  6
CONTINUOUS
 62
1
 10
92.763402
 20
151.000000
 11
91.004583
 21
150.528726
  0
LINE
  8
0
  6
CONTINUOUS
 62
1
 10
95.263402
 20
148.000000
 11
92.763402
 21
148.669873
  0
LINE
  8
0
  6
CONTINUOUS
 62
1
 10
92.763402
 20
148.669873
 11
92.763402
 21
148.000000
  0
LINE
  8
0
  6
CONTINUOUS
 62
1
 10
92.763402
 20
148.000000
 11
91.004583
 21
148.471274
  0
LINE
  8
0
  6
CONTINUOUS
 62
1
 10
95.263402
 20
148.550000
 11
95.263402
 21
148.000000
  0
LINE
  8
0
  6
CONTINUOUS
 62
1
 10
59.513402
 20
121.750000
 11
68.913402
 21
121.750000
  0
ARC
  8
0
  6
CONTINUOUS
 62
1
 10
45.263402
 20
121.000000
 40
1.000000
 50
180.000000
 51
270.000000
  0
ARC
  8
0
  6
CONTINUOUS
 62
1
 10
96.863402
 20
140.000000
 40
1.000000
 50
270.000000
 51
0.000000
  0
ARC
  8
0
  6
CONTINUOUS
 62
1
 10
91.263402
 20
149.562800
 40
1.000000
 50
105.000000
 51
180.000000
  0
ARC
  8
0
  6
CONTINUOUS
 62
1
 10
91.263402
 20
149.437200
 40
1.000000
 50
180.000000
 51
255.000000
  0
LINE
  8
0
  6
CONTINUOUS
 62
1
 10
71.013402
 20
150.200000
 11
68.663402
 21
150.200000
  0
LINE
  8
0
  6
CONTINUOUS
 62
1
 10
68.913402
 20
148.800000
 11
71.013402
 21
148.800000
  0
ARC
  8
0
  6
CONTINUOUS
 62
1
 10
67.963402
 20
150.300000
 40
0.700000
 50
90.000000
 51
180.000000
  0
ARC
  8
0
  6
CONTINUOUS
 62
1
 10
67.963402
 20
150.300000
 40
0.700000
 50
0.000000
 51
90.000000
  0
LINE
  8
0
  6
CONTINUOUS
 62
1
 10
76.263402
 20
149.562800
 11
76.263402
 21
149.437200
  0
LINE
  8
0
  6
CONTINUOUS
 62
1
 10
73.763402
 20
150.330127
 11
73.763402
 21
151.000000
  0
LINE
  8
0
  6
CONTINUOUS
 62
1
 10
71.263402
 20
151.000000
 11
71.263402
 21
150.450000
  0
LINE
  8
0
  6
CONTINUOUS
 62
1
 10
68.663402
 20
150.300000
 11
68.663402
 21
150.200000
  0
LINE
  8
0
  6
CONTINUOUS
 62
1
 10
71.263402
 20
151.000000
 11
73.763402
 21
150.330127
  0
LINE
  8
0
  6
CONTINUOUS
 62
1
 10
73.763402
 20
151.000000
 11
75.522221
 21
150.528726
  0
LINE
  8
0
  6
CONTINUOUS
 62
1
 10
71.263402
 20
148.000000
 11
73.763402
 21
148.669873
  0
LINE
  8
0
  6
CONTINUOUS
 62
1
 10
73.763402
 20
148.669873
 11
73.763402
 21
148.000000
  0
LINE
  8
0
  6
CONTINUOUS
 62
1
 10
73.763402
 20
148.000000
 11
75.522221
 21
148.471274
  0
LINE
  8
0
  6
CONTINUOUS
 62
1
 10
71.263402
 20
148.550000
 11
71.263402
 21
148.000000
  0
ARC
  8
0
  6
CONTINUOUS
 62
1
 10
75.263402
 20
149.562800
 40
1.000000
 50
0.000000
 51
75.000000
  0
ARC
  8
0
  6
CONTINUOUS
 62
1
 10
75.263402
 20
149.437200
 40
1.000000
 50
285.000000
 51
0.000000
  0
LINE
  8
0
  6
CONTINUOUS
 62
1
 10
67.263402
 20
134.800000
 11
67.263402
 21
133.600000
  0
LINE
  8
0
  6
CONTINUOUS
 62
1
 10
68.663402
 20
134.250000
 11
68.663402
 21
134.800000
  0
LINE
  8
0
  6
CONTINUOUS
 62
1
 10
71.313402
 20
121.650000
 11
71.313402
 21
137.350000
  0
LINE
  8
0
  6
CONTINUOUS
 62
1
 10
69.663402
 20
134.000000
 11
68.913402
 21
134.000000
  0
LINE
  8
0
  6
CONTINUOUS
 62
1
 10
68.913402
 20
141.500000
 11
69.663402
 21
141.500000
  0
LINE
  8
0
  6
CONTINUOUS
 62
1
 10
69.913402
 20
141.250000
 11
69.913402
 21
134.250000
  0
ARC
  8
0
  6
CONTINUOUS
 62
1
 10
67.963402
 20
134.800000
 40
0.700000
 50
0.000000
 51
90.000000
  0
ARC
  8
0
  6
CONTINUOUS
 62
1
 10
67.963402
 20
134.800000
 40
0.700000
 50
90.000000
 51
180.000000
  0
LINE
  8
0
  6
CONTINUOUS
 62
1
 10
67.263402
 20
140.700000
 11
67.263402
 21
150.300000
  0
ARC
  8
0
  6
CONTINUOUS
 62
1
 10
67.963402
 20
140.700000
 40
0.700000
 50
180.000000
 51
270.000000
  0
LINE
  8
0
  6
CONTINUOUS
 62
1
 10
68.663402
 20
141.250000
 11
68.663402
 21
140.700000
  0
ARC
  8
0
  6
CONTINUOUS
 62
1
 10
67.963402
 20
140.700000
 40
0.700000
 50
270.000000
 51
0.000000
  0
LINE
  8
0
  6
CONTINUOUS
 62
1
 10
70.313402
 20
142.900000
 11
68.913402
 21
142.900000
  0
LINE
  8
0
  6
CONTINUOUS
 62
1
 10
68.663402
 20
148.550000
 11
68.663402
 21
143.150000
  0
LINE
  8
0
  6
CONTINUOUS
 62
1
 10
68.263402
 20
132.600000
 11
68.913402
 21
132.600000
  0
LINE
  8
0
  6
CONTINUOUS
 62
1
 10
71.313402
 20
140.000000
 11
71.313402
 21
141.900000
  0
ARC
  8
0
  6
CONTINUOUS
 62
1
 10
68.263402
 20
133.600000
 40
1.000000
 50
180.000000
 51
270.000000
  0
ARC
  8
0
  6
CONTINUOUS
 62
1
 10
44.513402
 20
122.500000
 40
0.250000
 50
90.000000
 51
180.000000
  0
ARC
  8
0
  6
CONTINUOUS
 62
1
 10
49.513402
 20
123.000000
 40
0.250000
 50
270.000000
 51
0.000000
  0
ARC
  8
0
  6
CONTINUOUS
 62
1
 10
50.013402
 20
124.250000
 40
0.250000
 50
90.000000
 51
180.000000
  0
ARC
  8
0
  6
CONTINUOUS
 62
1
 10
51.013402
 20
123.250000
 40
0.250000
 50
90.000000
 51
180.000000
  0
ARC
  8
0
  6
CONTINUOUS
 62
1
 10
51.013402
 20
122.000000
 40
0.250000
 50
180.000000
 51
270.000000
  0
ARC
  8
0
  6
CONTINUOUS
 62
1
 10
58.013402
 20
122.000000
 40
0.250000
 50
270.000000
 51
0.000000
  0
ARC
  8
0
  6
CONTINUOUS
 62
1
 10
58.013402
 20
123.250000
 40
0.250000
 50
0.000000
 51
90.000000
  0
ARC
  8
0
  6
CONTINUOUS
 62
1
 10
59.513402
 20
122.000000
 40
0.250000
 50
180.000000
 51
270.000000
  0
ARC
  8
0
  6
CONTINUOUS
 62
1
 10
68.913402
 20
134.250000
 40
0.250000
 50
180.000000
 51
270.000000
  0
ARC
  8
0
  6
CONTINUOUS
 62
1
 10
69.663402
 20
134.250000
 40
0.250000
 50
270.000000
 51
0.000000
  0
ARC
  8
0
  6
CONTINUOUS
 62
1
 10
69.663402
 20
141.250000
 40
0.250000
 50
0.000000
 51
90.000000
  0
ARC
  8
0
  6
CONTINUOUS
 62
1
 10
68.913402
 20
141.250000
 40
0.250000
 50
90.000000
 51
180.000000
  0
ARC
  8
0
  6
CONTINUOUS
 62
1
 10
71.013402
 20
150.450000
 40
0.250000
 50
270.000000
 51
0.000000
  0
ARC
  8
0
  6
CONTINUOUS
 62
1
 10
71.013402
 20
148.550000
 40
0.250000
 50
0.000000
 51
90.000000
  0
ARC
  8
0
  6
CONTINUOUS
 62
1
 10
68.913402
 20
148.550000
 40
0.250000
 50
90.000000
 51
180.000000
  0
ARC
  8
0
  6
CONTINUOUS
 62
1
 10
68.913402
 20
143.150000
 40
0.250000
 50
180.000000
 51
270.000000
  0
ARC
  8
0
  6
CONTINUOUS
 62
1
 10
97.613402
 20
148.550000
 40
0.250000
 50
0.000000
 51
90.000000
  0
ARC
  8
0
  6
CONTINUOUS
 62
1
 10
95.513402
 20
148.550000
 40
0.250000
 50
90.000000
 51
180.000000
  0
ARC
  8
0
  6
CONTINUOUS
 62
1
 10
95.513402
 20
150.450000
 40
0.250000
 50
180.000000
 51
270.000000
  0
ARC
  8
0
  6
CONTINUOUS
 62
1
 10
90.863402
 20
137.350000
 40
0.250000
 50
0.000000
 51
90.000000
  0
ARC
  8
0
  6
CONTINUOUS
 62
1
 10
71.563402
 20
137.350000
 40
0.250000
 50
90.000000
 51
180.000000
  0
ARC
  8
0
  6
CONTINUOUS
 62
1
 10
71.563402
 20
121.650000
 40
0.250000
 50
180.000000
 51
270.000000
  0
ARC
  8
0
  6
CONTINUOUS
 62
1
 10
59.013402
 20
124.250000
 40
0.250000
 50
0.000000
 51
90.000000
  0
LINE
  8
0
  6
CONTINUOUS
 62
1
 10
99.263402
 20
150.300000
 11
99.263402
 21
138.600000
  0
LINE
  8
0
  6
CONTINUOUS
 62
1
 10
93.513402
 20
137.600000
 11
98.263402
 21
137.600000
  0
ARC
  8
0
  6
CONTINUOUS
 62
1
 10
98.263402
 20
138.600000
 40
1.000000
 50
270.000000
 51
0.000000
  0
LINE
  8
0
  6
CONTINUOUS
 62
1
 10
92.513402
 20
130.200000
 11
92.513402
 21
136.600000
  0
ARC
  8
0
  6
CONTINUOUS
 62
1
 10
93.513402
 20
136.600000
 40
1.000000
 50
90.000000
 51
180.000000
  0
ARC
  8
0
  6
CONTINUOUS
 62
1
 10
70.313402
 20
141.900000
 40
1.000000
 50
0.000000
 51
90.000000
  0
ARC
  8
0
  6
CONTINUOUS
 62
1
 10
72.313402
 20
140.000000
 40
1.000000
 50
180.000000
 51
270.000000
  0
LINE
  8
0
  6
CONTINUOUS
 62
1
 10
69.913402
 20
131.600000
 11
69.913402
 21
122.750000
  0
ARC
  8
0
  6
CONTINUOUS
 62
1
 10
68.913402
 20
131.600000
 40
1.000000
 50
0.000000
 51
90.000000
  0
ARC
  8
0
  6
CONTINUOUS
 62
1
 10
68.913402
 20
122.750000
 40
1.000000
 50
270.000000
 51
0.000000
  0
LINE
  8
0
  6
CONTINUOUS
 62
1
 10
117.263402
 20
124.500000
 11
116.813402
 21
124.500000
  0
LINE
  8
0
  6
CONTINUOUS
 62
1
 10
116.013402
 20
123.500000
 11
117.013402
 21
123.500000
  0
LINE
  8
0
  6
CONTINUOUS
 62
1
 10
117.263402
 20
123.250000
 11
117.263402
 21
122.000000
  0
LINE
  8
0
  6
CONTINUOUS
 62
1
 10
117.013402
 20
121.750000
 11
112.513402
 21
121.750000
  0
LINE
  8
0
  6
CONTINUOUS
 62
1
 10
112.263402
 20
122.000000
 11
112.263402
 21
123.250000
  0
LINE
  8
0
  6
CONTINUOUS
 62
1
 10
112.513402
 20
123.500000
 11
113.513402
 21
123.500000
  0
LINE
  8
0
  6
CONTINUOUS
 62
1
 10
112.713402
 20
124.500000
 11
111.263402
 21
124.500000
  0
LINE
  8
0
  6
CONTINUOUS
 62
1
 10
111.263402
 20
123.000000
 11
111.263402
 21
122.000000
  0
ARC
  8
0
  6
CONTINUOUS
 62
1
 10
117.013402
 20
123.250000
 40
0.250000
 50
0.000000
 51
90.000000
  0
ARC
  8
0
  6
CONTINUOUS
 62
1
 10
117.013402
 20
122.000000
 40
0.250000
 50
270.000000
 51
0.000000
  0
ARC
  8
0
  6
CONTINUOUS
 62
1
 10
112.513402
 20
122.000000
 40
0.250000
 50
180.000000
 51
270.000000
  0
ARC
  8
0
  6
CONTINUOUS
 62
1
 10
112.513402
 20
123.250000
 40
0.250000
 50
90.000000
 51
180.000000
  0
LINE
  8
0
  6
CONTINUOUS
 62
1
 10
118.263402
 20
123.500000
 11
118.263402
 21
121.000000
  0
ARC
  8
0
  6
CONTINUOUS
 62
1
 10
117.263402
 20
121.000000
 40
1.000000
 50
270.000000
 51
0.000000
  0
LINE
  8
0
  6
CONTINUOUS
 62
1
 10
111.013402
 20
121.750000
 11
94.163402
 21
121.750000
  0
ARC
  8
0
  6
CONTINUOUS
 62
1
 10
111.013402
 20
122.000000
 40
0.250000
 50
270.000000
 51
0.000000
  0
LINE
  8
0
  6
CONTINUOUS
 62
1
 10
109.763402
 20
123.250000
 11
111.013402
 21
123.250000
  0
ARC
  8
0
  6
CONTINUOUS
 62
1
 10
111.013402
 20
123.000000
 40
0.250000
 50
0.000000
 51
90.000000
  0
ARC
  8
0
  6
CONTINUOUS
 62
1
 10
109.763402
 20
123.750000
 40
0.500000
 50
180.000000
 51
270.000000
  0
ARC
  8
0
  6
CONTINUOUS
 62
1
 10
109.763402
 20
123.750000
 40
0.500000
 50
90.000000
 51
180.000000
  0
LINE
  8
0
  6
CONTINUOUS
 62
1
 10
109.763402
 20
124.250000
 11
111.263402
 21
124.500000
  0
LINE
  8
0
  6
CONTINUOUS
 62
1
 10
93.913402
 20
123.000000
 11
93.913402
 21
122.000000
  0
ARC
  8
0
  6
CONTINUOUS
 62
1
 10
94.163402
 20
122.000000
 40
0.250000
 50
180.000000
 51
270.000000
  0
LINE
  8
0
  6
CONTINUOUS
 62
1
 10
95.413402
 20
123.250000
 11
94.163402
 21
123.250000
  0
ARC
  8
0
  6
CONTINUOUS
 62
1
 10
94.163402
 20
123.000000
 40
0.250000
 50
90.000000
 51
180.000000
  0
ARC
  8
0
  6
CONTINUOUS
 62
1
 10
95.413402
 20
123.750000
 40
0.500000
 50
270.000000
 51
0.000000
  0
ARC
  8
0
  6
CONTINUOUS
 62
1
 10
95.413402
 20
123.750000
 40
0.500000
 50
0.000000
 51
90.000000
  0
LINE
  8
0
  6
CONTINUOUS
 62
1
 10
95.413402
 20
124.250000
 11
93.913402
 21
124.500000
  0
LINE
  8
0
  6
CONTINUOUS
 62
1
 10
93.913402
 20
124.500000
 11
92.763402
 21
124.500000
  0
ARC
  8
0
  6
CONTINUOUS
 62
1
 10
92.763402
 20
124.750000
 40
0.250000
 50
180.000000
 51
270.000000
  0
ARC
  8
0
  6
CONTINUOUS
 62
1
 10
92.263402
 20
121.650000
 40
0.250000
 50
270.000000
 51
0.000000
  0
LINE
  8
0
  6
CONTINUOUS
 62
1
 10
92.513402
 20
124.750000
 11
92.513402
 21
129.800000
  0
LINE
  8
0
  6
CONTINUOUS
 62
1
 10
116.013402
 20
123.500000
 11
116.013402
 21
123.700000
  0
ARC
  8
0
  6
CONTINUOUS
 62
1
 10
116.813402
 20
123.700000
 40
0.800000
 50
90.000000
 51
180.000000
  0
LINE
  8
0
  6
CONTINUOUS
 62
1
 10
113.513402
 20
123.500000
 11
113.513402
 21
123.700000
  0
ARC
  8
0
  6
CONTINUOUS
 62
1
 10
112.713402
 20
123.700000
 40
0.800000
 50
0.000000
 51
90.000000
  0
ARC
  8
0
  6
CONTINUOUS
 62
1
 10
117.263402
 20
123.500000
 40
1.000000
 50
0.000000
 51
90.000000
  0
LINE
  8
0
  6
CONTINUOUS
 62
1
 10
57.263402
 20
123.500000
 11
57.263402
 21
123.700000
  0
ARC
  8
0
  6
CONTINUOUS
 62
1
 10
58.063402
 20
123.700000
 40
0.800000
 50
90.000000
 51
180.000000
  0
LINE
  8
0
  6
CONTINUOUS
 62
1
 10
51.763402
 20
123.500000
 11
51.763402
 21
123.700000
  0
ARC
  8
0
  6
CONTINUOUS
 62
1
 10
50.963402
 20
123.700000
 40
0.800000
 50
0.000000
 51
90.000000
  0
LINE
  8
0
  6
CONTINUOUS
 62
1
 10
91.913402
 20
122.900000
 11
92.263402
 21
122.900000
  0
ARC
  8
0
  6
CONTINUOUS
 62
1
 10
92.263402
 20
122.650000
 40
0.250000
 50
0.000000
 51
90.000000
  0
ARC
  8
0
  6
CONTINUOUS
 62
1
 10
91.913402
 20
123.700000
 40
0.800000
 50
180.000000
 51
270.000000
  0
LINE
  8
0
  6
CONTINUOUS
 62
1
 10
82.263402
 20
95.125000
 11
49.263402
 21
95.125000
  0
LINE
  8
0
  6
CONTINUOUS
 62
1
 10
47.263402
 20
93.125000
 11
47.263402
 21
80.375000
  0
LINE
  8
0
  6
CONTINUOUS
 62
1
 10
67.513402
 20
58.125000
 11
77.013402
 21
58.125000
  0
LINE
  8
0
  6
CONTINUOUS
 62
1
 10
77.263402
 20
57.875000
 11
77.263402
 21
55.125000
  0
LINE
  8
0
  6
CONTINUOUS
 62
1
 10
77.013402
 20
54.875000
 11
69.263402
 21
54.875000
  0
LINE
  8
0
  6
CONTINUOUS
 62
1
 10
69.263402
 20
50.125000
 11
97.263402
 21
50.125000
  0
LINE
  8
0
  6
CONTINUOUS
 62
1
 10
69.013402
 20
54.625000
 11
69.013402
 21
50.375000
  0
LINE
  8
0
  6
CONTINUOUS
 62
1
 10
89.263402
 20
55.125000
 11
89.263402
 21
57.875000
  0
LINE
  8
0
  6
CONTINUOUS
 62
1
 10
89.513402
 20
58.125000
 11
99.013402
 21
58.125000
  0
LINE
  8
0
  6
CONTINUOUS
 62
1
 10
89.513402
 20
54.875000
 11
97.263402
 21
54.875000
  0
LINE
  8
0
  6
CONTINUOUS
 62
1
 10
97.513402
 20
54.625000
 11
97.513402
 21
50.375000
  0
ARC
  8
0
  6
CONTINUOUS
 62
1
 10
67.513402
 20
58.375000
 40
0.250000
 50
180.000000
 51
270.000000
  0
ARC
  8
0
  6
CONTINUOUS
 62
1
 10
77.013402
 20
57.875000
 40
0.250000
 50
0.000000
 51
90.000000
  0
ARC
  8
0
  6
CONTINUOUS
 62
1
 10
77.013402
 20
55.125000
 40
0.250000
 50
270.000000
 51
0.000000
  0
ARC
  8
0
  6
CONTINUOUS
 62
1
 10
69.263402
 20
54.625000
 40
0.250000
 50
90.000000
 51
180.000000
  0
ARC
  8
0
  6
CONTINUOUS
 62
1
 10
69.263402
 20
50.375000
 40
0.250000
 50
180.000000
 51
270.000000
  0
ARC
  8
0
  6
CONTINUOUS
 62
1
 10
97.263402
 20
50.375000
 40
0.250000
 50
270.000000
 51
0.000000
  0
ARC
  8
0
  6
CONTINUOUS
 62
1
 10
97.263402
 20
54.625000
 40
0.250000
 50
0.000000
 51
90.000000
  0
ARC
  8
0
  6
CONTINUOUS
 62
1
 10
89.513402
 20
55.125000
 40
0.250000
 50
180.000000
 51
270.000000
  0
ARC
  8
0
  6
CONTINUOUS
 62
1
 10
89.513402
 20
57.875000
 40
0.250000
 50
90.000000
 51
180.000000
  0
ARC
  8
0
  6
CONTINUOUS
 62
1
 10
99.013402
 20
58.375000
 40
0.250000
 50
270.000000
 51
0.000000
  0
LINE
  8
0
  6
CONTINUOUS
 62
1
 10
47.513402
 20
80.125000
 11
52.013402
 21
80.125000
  0
LINE
  8
0
  6
CONTINUOUS
 62
1
 10
67.263402
 20
60.675000
 11
67.263402
 21
58.375000
  0
ARC
  8
0
  6
CONTINUOUS
 62
1
 10
47.513402
 20
80.375000
 40
0.250000
 50
180.000000
 51
270.000000
  0
LINE
  8
0
  6
CONTINUOUS
 62
1
 10
99.263402
 20
58.375000
 11
99.263402
 21
88.125000
  0
ARC
  8
0
  6
CONTINUOUS
 62
1
 10
49.263402
 20
93.125000
 40
2.000000
 50
90.000000
 51
180.000000
  0
ARC
  8
0
  6
RANDOM
 62
1
 10
99.263402
 20
55.125000
 40
20.000000
 50
90.000000
 51
194.477512
  0
ARC
  8
0
  6
RANDOM
 62
1
 10
99.263402
 20
55.125000
 40
40.000000
 50
112.024313
 51
143.130102
  0
ARC
  8
0
  6
RANDOM
 62
1
 10
99.263402
 20
55.125000
 40
55.000000
 50
148.709555
 51
152.964308
  0
ARC
  8
0
  6
RANDOM
 62
1
 10
99.263402
 20
55.125000
 40
25.000000
 50
180.572967
 51
191.536959
  0
ARC
  8
0
  6
RANDOM
 62
1
 10
99.263402
 20
55.125000
 40
30.000000
 50
180.477470
 51
189.594068
  0
ARC
  8
0
  6
RANDOM
 62
1
 10
99.263402
 20
55.125000
 40
50.000000
 50
126.869898
 51
150.000000
  0
ARC
  8
0
  6
RANDOM
 62
1
 10
99.263402
 20
55.125000
 40
45.000000
 50
117.266044
 51
146.251011
  0
LINE
  8
0
  6
CONTINUOUS
 62
1
 10
67.263402
 20
79.875000
 11
67.263402
 21
58.375000
  0
ARC
  8
0
  6
CONTINUOUS
 62
1
 10
67.013402
 20
79.875000
 40
0.250000
 50
0.000000
 51
90.000000
  0
ARC
  8
0
  6
RANDOM
 62
1
 10
97.263402
 20
55.125000
 40
58.000000
 50
136.397181
 51
149.549686
  0
LINE
  8
0
  6
CONTINUOUS
 62
1
 10
84.513402
 20
90.125000
 11
97.263402
 21
90.125000
  0
LINE
  8
0
  6
CONTINUOUS
 62
1
 10
84.263402
 20
93.125000
 11
84.263402
 21
90.375000
  0
ARC
  8
0
  6
CONTINUOUS
 62
1
 10
82.263402
 20
93.125000
 40
2.000000
 50
0.000000
 51
90.000000
  0
ARC
  8
0
  6
CONTINUOUS
 62
1
 10
97.263402
 20
88.125000
 40
2.000000
 50
0.000000
 51
90.000000
  0
ARC
  8
0
  6
CONTINUOUS
 62
1
 10
84.513402
 20
90.375000
 40
0.250000
 50
180.000000
 51
270.000000
  0
ARC
  8
0
  6
RANDOM
 62
1
 10
99.263402
 20
55.125000
 40
35.000000
 50
96.852238
 51
156.104492
  0
LINE
  8
0
  6
CONTINUOUS
 62
1
 10
52.263402
 20
80.375000
 11
52.263402
 21
85.875000
  0
LINE
  8
0
  6
CONTINUOUS
 62
1
 10
55.263402
 20
85.875000
 11
55.263402
 21
80.375000
  0
LINE
  8
0
  6
CONTINUOUS
 62
1
 10
55.013402
 20
86.125000
 11
52.513402
 21
86.125000
  0
LINE
  8
0
  6
CONTINUOUS
 62
1
 10
55.513402
 20
80.125000
 11
67.013402
 21
80.125000
  0
ARC
  8
0
  6
CONTINUOUS
 62
1
 10
52.013402
 20
80.375000
 40
0.250000
 50
270.000000
 51
0.000000
  0
ARC
  8
0
  6
CONTINUOUS
 62
1
 10
55.513402
 20
80.375000
 40
0.250000
 50
180.000000
 51
270.000000
  0
ARC
  8
0
  6
CONTINUOUS
 62
1
 10
55.013402
 20
85.875000
 40
0.250000
 50
0.000000
 51
90.000000
  0
ARC
  8
0
  6
CONTINUOUS
 62
1
 10
52.513402
 20
85.875000
 40
0.250000
 50
90.000000
 51
180.000000
  0
ARC
  8
0
  6
RANDOM
 62
1
 10
99.263402
 20
55.125000
 40
25.000000
 50
90.000000
 51
173.107897
  0
ARC
  8
0
  6
RANDOM
 62
1
 10
99.263402
 20
55.125000
 40
15.000000
 50
90.000000
 51
199.471221
  0
ARC
  8
0
  6
RANDOM
 62
1
 10
99.263402
 20
55.125000
 40
10.000000
 50
181.432544
 51
210.000000
  0
ARC
  8
0
  6
RANDOM
 62
1
 10
99.263402
 20
55.125000
 40
10.000000
 50
90.000000
 51
162.542397
  0
ARC
  8
0
  6
RANDOM
 62
1
 10
99.263402
 20
55.125000
 40
5.000000
 50
182.865984
 51
249.512685
  0
ARC
  8
0
  6
RANDOM
 62
1
 10
99.263402
 20
55.125000
 40
5.000000
 50
90.000000
 51
143.130102
  0
ARC
  8
0
  6
RANDOM
 62
1
 10
99.263402
 20
55.125000
 40
30.000000
 50
90.000000
 51
174.260830
  0
ARC
  8
0
  6
RANDOM
 62
1
 10
99.263402
 20
55.125000
 40
55.000000
 50
133.341758
 51
145.692349
  0
LINE
  8
0
  6
CONTINUOUS
 62
1
 10
68.063402
 20
30.125000
 11
98.263402
 21
30.125000
  0
LINE
  8
0
  6
CONTINUOUS
 62
1
 10
97.863402
 20
47.475000
 11
97.863402
 21
31.775000
  0
LINE
  8
0
  6
CONTINUOUS
 62
1
 10
97.613402
 20
31.525000
 11
78.313402
 21
31.525000
  0
LINE
  8
0
  6
CONTINUOUS
 62
1
 10
96.863402
 20
49.125000
 11
77.663402
 21
49.125000
  0
LINE
  8
0
  6
CONTINUOUS
 62
1
 10
78.313402
 20
47.725000
 11
97.613402
 21
47.725000
  0
LINE
  8
0
  6
CONTINUOUS
 62
1
 10
99.063402
 20
40.125000
 11
99.263402
 21
40.325000
  0
LINE
  8
0
  6
CONTINUOUS
 62
1
 10
99.263402
 20
31.125000
 11
99.263402
 21
39.925000
  0
LINE
  8
0
  6
CONTINUOUS
 62
1
 10
99.263402
 20
40.325000
 11
99.263402
 21
57.425000
  0
LINE
  8
0
  6
CONTINUOUS
 62
1
 10
99.063402
 20
40.125000
 11
99.263402
 21
39.925000
  0
LINE
  8
0
  6
CONTINUOUS
 62
1
 10
95.513402
 20
57.325000
 11
97.863402
 21
57.325000
  0
LINE
  8
0
  6
CONTINUOUS
 62
1
 10
97.613402
 20
55.925000
 11
95.513402
 21
55.925000
  0
ARC
  8
0
  6
CONTINUOUS
 62
1
 10
98.563402
 20
57.425000
 40
0.700000
 50
0.000000
 51
90.000000
  0
ARC
  8
0
  6
CONTINUOUS
 62
1
 10
98.563402
 20
57.425000
 40
0.700000
 50
90.000000
 51
180.000000
  0
LINE
  8
0
  6
CONTINUOUS
 62
1
 10
90.263402
 20
56.687800
 11
90.263402
 21
56.562200
  0
LINE
  8
0
  6
CONTINUOUS
 62
1
 10
92.763402
 20
57.455127
 11
92.763402
 21
58.125000
  0
LINE
  8
0
  6
CONTINUOUS
 62
1
 10
95.263402
 20
58.125000
 11
95.263402
 21
57.575000
  0
LINE
  8
0
  6
CONTINUOUS
 62
1
 10
97.863402
 20
57.425000
 11
97.863402
 21
57.325000
  0
LINE
  8
0
  6
CONTINUOUS
 62
1
 10
97.863402
 20
55.675000
 11
97.863402
 21
50.125000
  0
LINE
  8
0
  6
CONTINUOUS
 62
1
 10
95.263402
 20
58.125000
 11
92.763402
 21
57.455127
  0
LINE
  8
0
  6
CONTINUOUS
 62
1
 10
92.763402
 20
58.125000
 11
91.004583
 21
57.653726
  0
LINE
  8
0
  6
CONTINUOUS
 62
1
 10
95.263402
 20
55.125000
 11
92.763402
 21
55.794873
  0
LINE
  8
0
  6
CONTINUOUS
 62
1
 10
92.763402
 20
55.794873
 11
92.763402
 21
55.125000
  0
LINE
  8
0
  6
CONTINUOUS
 62
1
 10
92.763402
 20
55.125000
 11
91.004583
 21
55.596274
  0
LINE
  8
0
  6
CONTINUOUS
 62
1
 10
95.263402
 20
55.675000
 11
95.263402
 21
55.125000
  0
ARC
  8
0
  6
CONTINUOUS
 62
1
 10
98.263402
 20
31.125000
 40
1.000000
 50
270.000000
 51
0.000000
  0
ARC
  8
0
  6
CONTINUOUS
 62
1
 10
96.863402
 20
50.125000
 40
1.000000
 50
270.000000
 51
0.000000
  0
ARC
  8
0
  6
CONTINUOUS
 62
1
 10
91.263402
 20
56.687800
 40
1.000000
 50
105.000000
 51
180.000000
  0
ARC
  8
0
  6
CONTINUOUS
 62
1
 10
91.263402
 20
56.562200
 40
1.000000
 50
180.000000
 51
255.000000
  0
LINE
  8
0
  6
CONTINUOUS
 62
1
 10
71.013402
 20
57.325000
 11
68.663402
 21
57.325000
  0
LINE
  8
0
  6
CONTINUOUS
 62
1
 10
68.913402
 20
55.925000
 11
71.013402
 21
55.925000
  0
ARC
  8
0
  6
CONTINUOUS
 62
1
 10
67.963402
 20
57.425000
 40
0.700000
 50
90.000000
 51
180.000000
  0
ARC
  8
0
  6
CONTINUOUS
 62
1
 10
67.963402
 20
57.425000
 40
0.700000
 50
0.000000
 51
90.000000
  0
LINE
  8
0
  6
CONTINUOUS
 62
1
 10
76.263402
 20
56.687800
 11
76.263402
 21
56.562200
  0
LINE
  8
0
  6
CONTINUOUS
 62
1
 10
73.763402
 20
57.455127
 11
73.763402
 21
58.125000
  0
LINE
  8
0
  6
CONTINUOUS
 62
1
 10
71.263402
 20
58.125000
 11
71.263402
 21
57.575000
  0
LINE
  8
0
  6
CONTINUOUS
 62
1
 10
68.663402
 20
57.425000
 11
68.663402
 21
57.325000
  0
LINE
  8
0
  6
CONTINUOUS
 62
1
 10
71.263402
 20
58.125000
 11
73.763402
 21
57.455127
  0
LINE
  8
0
  6
CONTINUOUS
 62
1
 10
73.763402
 20
58.125000
 11
75.522221
 21
57.653726
  0
LINE
  8
0
  6
CONTINUOUS
 62
1
 10
71.263402
 20
55.125000
 11
73.763402
 21
55.794873
  0
LINE
  8
0
  6
CONTINUOUS
 62
1
 10
73.763402
 20
55.794873
 11
73.763402
 21
55.125000
  0
LINE
  8
0
  6
CONTINUOUS
 62
1
 10
73.763402
 20
55.125000
 11
75.522221
 21
55.596274
  0
LINE
  8
0
  6
CONTINUOUS
 62
1
 10
71.263402
 20
55.675000
 11
71.263402
 21
55.125000
  0
ARC
  8
0
  6
CONTINUOUS
 62
1
 10
75.263402
 20
56.687800
 40
1.000000
 50
0.000000
 51
75.000000
  0
ARC
  8
0
  6
CONTINUOUS
 62
1
 10
75.263402
 20
56.562200
 40
1.000000
 50
285.000000
 51
0.000000
  0
LINE
  8
0
  6
CONTINUOUS
 62
1
 10
78.063402
 20
31.775000
 11
78.063402
 21
47.475000
  0
LINE
  8
0
  6
CONTINUOUS
 62
1
 10
68.663402
 20
55.675000
 11
68.663402
 21
45.025000
  0
LINE
  8
0
  6
CONTINUOUS
 62
1
 10
76.663402
 20
48.125000
 11
76.663402
 21
45.025000
  0
LINE
  8
0
  6
CONTINUOUS
 62
1
 10
76.663402
 20
41.625000
 11
76.663402
 21
32.525000
  0
ARC
  8
0
  6
CONTINUOUS
 62
1
 10
77.663402
 20
48.125000
 40
1.000000
 50
90.000000
 51
180.000000
  0
ARC
  8
0
  6
CONTINUOUS
 62
1
 10
71.013402
 20
57.575000
 40
0.250000
 50
270.000000
 51
0.000000
  0
ARC
  8
0
  6
CONTINUOUS
 62
1
 10
71.013402
 20
55.675000
 40
0.250000
 50
0.000000
 51
90.000000
  0
ARC
  8
0
  6
CONTINUOUS
 62
1
 10
68.913402
 20
55.675000
 40
0.250000
 50
90.000000
 51
180.000000
  0
ARC
  8
0
  6
CONTINUOUS
 62
1
 10
97.613402
 20
55.675000
 40
0.250000
 50
0.000000
 51
90.000000
  0
ARC
  8
0
  6
CONTINUOUS
 62
1
 10
95.513402
 20
55.675000
 40
0.250000
 50
90.000000
 51
180.000000
  0
ARC
  8
0
  6
CONTINUOUS
 62
1
 10
95.513402
 20
57.575000
 40
0.250000
 50
180.000000
 51
270.000000
  0
ARC
  8
0
  6
CONTINUOUS
 62
1
 10
97.613402
 20
47.475000
 40
0.250000
 50
0.000000
 51
90.000000
  0
ARC
  8
0
  6
CONTINUOUS
 62
1
 10
78.313402
 20
47.475000
 40
0.250000
 50
90.000000
 51
180.000000
  0
ARC
  8
0
  6
CONTINUOUS
 62
1
 10
78.313402
 20
31.775000
 40
0.250000
 50
180.000000
 51
270.000000
  0
ARC
  8
0
  6
CONTINUOUS
 62
1
 10
97.613402
 20
31.775000
 40
0.250000
 50
270.000000
 51
0.000000
  0
LINE
  8
0
  6
CONTINUOUS
 62
1
 10
75.663402
 20
31.525000
 11
70.263402
 21
31.525000
  0
LINE
  8
0
  6
CONTINUOUS
 62
1
 10
70.263402
 20
32.125000
 11
68.063402
 21
32.125000
  0
LINE
  8
0
  6
CONTINUOUS
 62
1
 10
70.263402
 20
32.125000
 11
70.263402
 21
31.525000
  0
LINE
  8
0
  6
CONTINUOUS
 62
1
 10
75.663402
 20
42.625000
 11
68.263402
 21
42.625000
  0
LINE
  8
0
  6
CONTINUOUS
 62
1
 10
69.663402
 20
44.025000
 11
75.663402
 21
44.025000
  0
LINE
  8
0
  6
CONTINUOUS
 62
1
 10
67.263402
 20
57.425000
 11
67.263402
 21
43.625000
  0
ARC
  8
0
  6
CONTINUOUS
 62
1
 10
69.663402
 20
45.025000
 40
1.000000
 50
180.000000
 51
270.000000
  0
ARC
  8
0
  6
CONTINUOUS
 62
1
 10
68.263402
 20
43.625000
 40
1.000000
 50
180.000000
 51
270.000000
  0
ARC
  8
0
  6
CONTINUOUS
 62
1
 10
75.663402
 20
45.025000
 40
1.000000
 50
270.000000
 51
0.000000
  0
ARC
  8
0
  6
CONTINUOUS
 62
1
 10
75.663402
 20
41.625000
 40
1.000000
 50
0.000000
 51
90.000000
  0
ARC
  8
0
  6
CONTINUOUS
 62
1
 10
75.663402
 20
32.525000
 40
1.000000
 50
270.000000
 51
0.000000
  0
LINE
  8
0
  6
CONTINUOUS
 62
1
 10
67.263402
 20
31.325000
 11
67.263402
 21
30.925000
  0
ARC
  8
0
  6
CONTINUOUS
 62
1
 10
68.063402
 20
31.325000
 40
0.800000
 50
90.000000
 51
180.000000
  0
ARC
  8
0
  6
CONTINUOUS
 62
1
 10
68.063402
 20
30.925000
 40
0.800000
 50
180.000000
 51
270.000000
  0
LINE
  8
0
  6
CONTINUOUS
 62
1
 10
216.552446
 20
42.000000
 11
216.552446
 21
55.800000
  0
LINE
  8
0
  6
CONTINUOUS
 62
1
 10
212.802446
 20
55.700000
 11
215.152446
 21
55.700000
  0
LINE
  8
0
  6
CONTINUOUS
 62
1
 10
214.902446
 20
54.300000
 11
212.802446
 21
54.300000
  0
ARC
  8
0
  6
CONTINUOUS
 62
1
 10
215.852446
 20
55.800000
 40
0.700000
 50
0.000000
 51
90.000000
  0
ARC
  8
0
  6
CONTINUOUS
 62
1
 10
215.852446
 20
55.800000
 40
0.700000
 50
90.000000
 51
180.000000
  0
LINE
  8
0
  6
CONTINUOUS
 62
1
 10
207.552446
 20
55.062800
 11
207.552446
 21
54.937200
  0
LINE
  8
0
  6
CONTINUOUS
 62
1
 10
210.052446
 20
55.830127
 11
210.052446
 21
56.500000
  0
LINE
  8
0
  6
CONTINUOUS
 62
1
 10
212.552446
 20
56.500000
 11
212.552446
 21
55.950000
  0
LINE
  8
0
  6
CONTINUOUS
 62
1
 10
215.152446
 20
55.800000
 11
215.152446
 21
55.700000
  0
LINE
  8
0
  6
CONTINUOUS
 62
1
 10
215.152446
 20
54.050000
 11
215.152446
 21
43.400000
  0
LINE
  8
0
  6
CONTINUOUS
 62
1
 10
212.552446
 20
56.500000
 11
210.052446
 21
55.830127
  0
LINE
  8
0
  6
CONTINUOUS
 62
1
 10
210.052446
 20
56.500000
 11
208.293627
 21
56.028726
  0
LINE
  8
0
  6
CONTINUOUS
 62
1
 10
212.552446
 20
53.500000
 11
210.052446
 21
54.169873
  0
LINE
  8
0
  6
CONTINUOUS
 62
1
 10
210.052446
 20
54.169873
 11
210.052446
 21
53.500000
  0
LINE
  8
0
  6
CONTINUOUS
 62
1
 10
210.052446
 20
53.500000
 11
208.293627
 21
53.971274
  0
LINE
  8
0
  6
CONTINUOUS
 62
1
 10
212.552446
 20
54.050000
 11
212.552446
 21
53.500000
  0
ARC
  8
0
  6
CONTINUOUS
 62
1
 10
208.552446
 20
55.062800
 40
1.000000
 50
105.000000
 51
180.000000
  0
ARC
  8
0
  6
CONTINUOUS
 62
1
 10
208.552446
 20
54.937200
 40
1.000000
 50
180.000000
 51
255.000000
  0
LINE
  8
0
  6
CONTINUOUS
 62
1
 10
188.302446
 20
55.700000
 11
185.952446
 21
55.700000
  0
LINE
  8
0
  6
CONTINUOUS
 62
1
 10
186.202446
 20
54.300000
 11
188.302446
 21
54.300000
  0
ARC
  8
0
  6
CONTINUOUS
 62
1
 10
185.252446
 20
55.800000
 40
0.700000
 50
90.000000
 51
180.000000
  0
ARC
  8
0
  6
CONTINUOUS
 62
1
 10
185.252446
 20
55.800000
 40
0.700000
 50
0.000000
 51
90.000000
  0
LINE
  8
0
  6
CONTINUOUS
 62
1
 10
193.552446
 20
55.062800
 11
193.552446
 21
54.937200
  0
LINE
  8
0
  6
CONTINUOUS
 62
1
 10
191.052446
 20
55.830127
 11
191.052446
 21
56.500000
  0
LINE
  8
0
  6
CONTINUOUS
 62
1
 10
188.552446
 20
56.500000
 11
188.552446
 21
55.950000
  0
LINE
  8
0
  6
CONTINUOUS
 62
1
 10
185.952446
 20
55.800000
 11
185.952446
 21
55.700000
  0
LINE
  8
0
  6
CONTINUOUS
 62
1
 10
188.552446
 20
56.500000
 11
191.052446
 21
55.830127
  0
LINE
  8
0
  6
CONTINUOUS
 62
1
 10
191.052446
 20
56.500000
 11
192.811265
 21
56.028726
  0
LINE
  8
0
  6
CONTINUOUS
 62
1
 10
188.552446
 20
53.500000
 11
191.052446
 21
54.169873
  0
LINE
  8
0
  6
CONTINUOUS
 62
1
 10
191.052446
 20
54.169873
 11
191.052446
 21
53.500000
  0
LINE
  8
0
  6
CONTINUOUS
 62
1
 10
191.052446
 20
53.500000
 11
192.811265
 21
53.971274
  0
LINE
  8
0
  6
CONTINUOUS
 62
1
 10
188.552446
 20
54.050000
 11
188.552446
 21
53.500000
  0
ARC
  8
0
  6
CONTINUOUS
 62
1
 10
192.552446
 20
55.062800
 40
1.000000
 50
0.000000
 51
75.000000
  0
ARC
  8
0
  6
CONTINUOUS
 62
1
 10
192.552446
 20
54.937200
 40
1.000000
 50
285.000000
 51
0.000000
  0
LINE
  8
0
  6
CONTINUOUS
 62
1
 10
185.952446
 20
54.050000
 11
185.952446
 21
43.400000
  0
ARC
  8
0
  6
CONTINUOUS
 62
1
 10
188.302446
 20
55.950000
 40
0.250000
 50
270.000000
 51
0.000000
  0
ARC
  8
0
  6
CONTINUOUS
 62
1
 10
188.302446
 20
54.050000
 40
0.250000
 50
0.000000
 51
90.000000
  0
ARC
  8
0
  6
CONTINUOUS
 62
1
 10
186.202446
 20
54.050000
 40
0.250000
 50
90.000000
 51
180.000000
  0
ARC
  8
0
  6
CONTINUOUS
 62
1
 10
214.902446
 20
54.050000
 40
0.250000
 50
0.000000
 51
90.000000
  0
ARC
  8
0
  6
CONTINUOUS
 62
1
 10
212.802446
 20
54.050000
 40
0.250000
 50
90.000000
 51
180.000000
  0
ARC
  8
0
  6
CONTINUOUS
 62
1
 10
212.802446
 20
55.950000
 40
0.250000
 50
180.000000
 51
270.000000
  0
LINE
  8
0
  6
CONTINUOUS
 62
1
 10
192.552446
 20
29.900000
 11
187.552446
 21
29.900000
  0
LINE
  8
0
  6
CONTINUOUS
 62
1
 10
187.552446
 20
30.500000
 11
185.352446
 21
30.500000
  0
LINE
  8
0
  6
CONTINUOUS
 62
1
 10
187.552446
 20
30.500000
 11
187.552446
 21
29.900000
  0
LINE
  8
0
  6
CONTINUOUS
 62
1
 10
186.252446
 20
41.000000
 11
185.552446
 21
41.000000
  0
LINE
  8
0
  6
CONTINUOUS
 62
1
 10
186.952446
 20
42.400000
 11
214.152446
 21
42.400000
  0
LINE
  8
0
  6
CONTINUOUS
 62
1
 10
184.552446
 20
55.800000
 11
184.552446
 21
42.000000
  0
ARC
  8
0
  6
CONTINUOUS
 62
1
 10
186.952446
 20
43.400000
 40
1.000000
 50
180.000000
 51
270.000000
  0
ARC
  8
0
  6
CONTINUOUS
 62
1
 10
185.552446
 20
42.000000
 40
1.000000
 50
180.000000
 51
270.000000
  0
LINE
  8
0
  6
CONTINUOUS
 62
1
 10
184.552446
 20
29.700000
 11
184.552446
 21
29.300000
  0
ARC
  8
0
  6
CONTINUOUS
 62
1
 10
185.352446
 20
29.700000
 40
0.800000
 50
90.000000
 51
180.000000
  0
ARC
  8
0
  6
CONTINUOUS
 62
1
 10
185.352446
 20
29.300000
 40
0.800000
 50
180.000000
 51
270.000000
  0
LINE
  8
0
  6
CONTINUOUS
 62
1
 10
213.552446
 20
30.500000
 11
215.752446
 21
30.500000
  0
LINE
  8
0
  6
CONTINUOUS
 62
1
 10
213.552446
 20
30.500000
 11
213.552446
 21
29.900000
  0
LINE
  8
0
  6
CONTINUOUS
 62
1
 10
216.552446
 20
29.700000
 11
216.552446
 21
29.300000
  0
ARC
  8
0
  6
CONTINUOUS
 62
1
 10
215.752446
 20
29.700000
 40
0.800000
 50
0.000000
 51
90.000000
  0
ARC
  8
0
  6
CONTINUOUS
 62
1
 10
215.752446
 20
29.300000
 40
0.800000
 50
270.000000
 51
0.000000
  0
LINE
  8
0
  6
CONTINUOUS
 62
1
 10
185.352446
 20
28.500000
 11
215.752446
 21
28.500000
  0
LINE
  8
0
  6
CONTINUOUS
 62
1
 10
193.552446
 20
34.200000
 11
193.552446
 21
30.900000
  0
LINE
  8
0
  6
CONTINUOUS
 62
1
 10
194.952446
 20
30.900000
 11
194.952446
 21
35.959659
  0
LINE
  8
0
  6
CONTINUOUS
 62
1
 10
192.197894
 20
37.550000
 11
194.952446
 21
35.959659
  0
LINE
  8
0
  6
CONTINUOUS
 62
1
 10
192.197894
 20
39.450000
 11
194.882573
 21
41.000000
  0
ARC
  8
0
  6
CONTINUOUS
 62
1
 10
190.552446
 20
38.500000
 40
1.900000
 50
90.000000
 51
330.000000
  0
ARC
  8
0
  6
CONTINUOUS
 62
1
 10
190.552446
 20
38.500000
 40
1.900000
 50
30.000000
 51
90.000000
  0
ARC
  8
0
  6
CONTINUOUS
 62
1
 10
190.552446
 20
38.500000
 40
3.300000
 50
180.000000
 51
270.000000
  0
LINE
  8
0
  6
CONTINUOUS
 62
1
 10
190.552446
 20
35.200000
 11
192.552446
 21
35.200000
  0
LINE
  8
0
  6
CONTINUOUS
 62
1
 10
187.252446
 20
38.500000
 11
187.252446
 21
40.000000
  0
ARC
  8
0
  6
CONTINUOUS
 62
1
 10
192.552446
 20
34.200000
 40
1.000000
 50
0.000000
 51
90.000000
  0
ARC
  8
0
  6
CONTINUOUS
 62
1
 10
186.252446
 20
40.000000
 40
1.000000
 50
0.000000
 51
90.000000
  0
ARC
  8
0
  6
CONTINUOUS
 62
1
 10
192.552446
 20
30.900000
 40
1.000000
 50
270.000000
 51
0.000000
  0
LINE
  8
0
  6
CONTINUOUS
 62
1
 10
195.952446
 20
29.900000
 11
205.152446
 21
29.900000
  0
ARC
  8
0
  6
CONTINUOUS
 62
1
 10
195.952446
 20
30.900000
 40
1.000000
 50
180.000000
 51
270.000000
  0
LINE
  8
0
  6
CONTINUOUS
 62
1
 10
206.222319
 20
41.000000
 11
194.882573
 21
41.000000
  0
LINE
  8
0
  6
CONTINUOUS
 62
1
 10
214.852446
 20
41.000000
 11
215.552446
 21
41.000000
  0
ARC
  8
0
  6
CONTINUOUS
 62
1
 10
214.152446
 20
43.400000
 40
1.000000
 50
270.000000
 51
0.000000
  0
ARC
  8
0
  6
CONTINUOUS
 62
1
 10
215.552446
 20
42.000000
 40
1.000000
 50
270.000000
 51
0.000000
  0
LINE
  8
0
  6
CONTINUOUS
 62
1
 10
207.552446
 20
34.200000
 11
207.552446
 21
30.900000
  0
LINE
  8
0
  6
CONTINUOUS
 62
1
 10
206.152446
 20
30.900000
 11
206.152446
 21
35.959659
  0
LINE
  8
0
  6
CONTINUOUS
 62
1
 10
208.906997
 20
37.550000
 11
206.152446
 21
35.959659
  0
LINE
  8
0
  6
CONTINUOUS
 62
1
 10
208.906997
 20
39.450000
 11
206.222319
 21
41.000000
  0
ARC
  8
0
  6
CONTINUOUS
 62
1
 10
210.552446
 20
38.500000
 40
1.900000
 50
210.000000
 51
90.000000
  0
ARC
  8
0
  6
CONTINUOUS
 62
1
 10
210.552446
 20
38.500000
 40
1.900000
 50
90.000000
 51
150.000000
  0
ARC
  8
0
  6
CONTINUOUS
 62
1
 10
210.552446
 20
38.500000
 40
3.300000
 50
270.000000
 51
0.000000
  0
LINE
  8
0
  6
CONTINUOUS
 62
1
 10
210.552446
 20
35.200000
 11
208.552446
 21
35.200000
  0
LINE
  8
0
  6
CONTINUOUS
 62
1
 10
213.852446
 20
38.500000
 11
213.852446
 21
40.000000
  0
ARC
  8
0
  6
CONTINUOUS
 62
1
 10
208.552446
 20
34.200000
 40
1.000000
 50
90.000000
 51
180.000000
  0
ARC
  8
0
  6
CONTINUOUS
 62
1
 10
214.852446
 20
40.000000
 40
1.000000
 50
90.000000
 51
180.000000
  0
ARC
  8
0
  6
CONTINUOUS
 62
1
 10
208.552446
 20
30.900000
 40
1.000000
 50
180.000000
 51
270.000000
  0
ARC
  8
0
  6
CONTINUOUS
 62
1
 10
205.152446
 20
30.900000
 40
1.000000
 50
270.000000
 51
0.000000
  0
LINE
  8
0
  6
CONTINUOUS
 62
1
 10
213.552446
 20
29.900000
 11
208.552446
 21
29.900000
  0
LINE
  8
0
  6
CONTINUOUS
 62
1
 10
166.552446
 20
93.500000
 11
234.552446
 21
93.500000
  0
LINE
  8
0
  6
CONTINUOUS
 62
1
 10
236.552446
 20
91.500000
 11
236.552446
 21
78.750000
  0
LINE
  8
0
  6
CONTINUOUS
 62
1
 10
216.302446
 20
56.500000
 11
206.802446
 21
56.500000
  0
LINE
  8
0
  6
CONTINUOUS
 62
1
 10
206.552446
 20
56.250000
 11
206.552446
 21
53.500000
  0
LINE
  8
0
  6
CONTINUOUS
 62
1
 10
206.802446
 20
53.250000
 11
214.552446
 21
53.250000
  0
LINE
  8
0
  6
CONTINUOUS
 62
1
 10
214.552446
 20
48.500000
 11
186.552446
 21
48.500000
  0
LINE
  8
0
  6
CONTINUOUS
 62
1
 10
214.802446
 20
53.000000
 11
214.802446
 21
48.750000
  0
LINE
  8
0
  6
CONTINUOUS
 62
1
 10
194.552446
 20
53.500000
 11
194.552446
 21
56.250000
  0
LINE
  8
0
  6
CONTINUOUS
 62
1
 10
194.302446
 20
56.500000
 11
184.802446
 21
56.500000
  0
LINE
  8
0
  6
CONTINUOUS
 62
1
 10
194.302446
 20
53.250000
 11
186.552446
 21
53.250000
  0
LINE
  8
0
  6
CONTINUOUS
 62
1
 10
186.302446
 20
53.000000
 11
186.302446
 21
48.750000
  0
ARC
  8
0
  6
CONTINUOUS
 62
1
 10
216.302446
 20
56.750000
 40
0.250000
 50
270.000000
 51
0.000000
  0
ARC
  8
0
  6
CONTINUOUS
 62
1
 10
206.802446
 20
56.250000
 40
0.250000
 50
90.000000
 51
180.000000
  0
ARC
  8
0
  6
CONTINUOUS
 62
1
 10
206.802446
 20
53.500000
 40
0.250000
 50
180.000000
 51
270.000000
  0
ARC
  8
0
  6
CONTINUOUS
 62
1
 10
214.552446
 20
53.000000
 40
0.250000
 50
0.000000
 51
90.000000
  0
ARC
  8
0
  6
CONTINUOUS
 62
1
 10
214.552446
 20
48.750000
 40
0.250000
 50
270.000000
 51
0.000000
  0
ARC
  8
0
  6
CONTINUOUS
 62
1
 10
186.552446
 20
48.750000
 40
0.250000
 50
180.000000
 51
270.000000
  0
ARC
  8
0
  6
CONTINUOUS
 62
1
 10
186.552446
 20
53.000000
 40
0.250000
 50
90.000000
 51
180.000000
  0
ARC
  8
0
  6
CONTINUOUS
 62
1
 10
194.302446
 20
53.500000
 40
0.250000
 50
270.000000
 51
0.000000
  0
ARC
  8
0
  6
CONTINUOUS
 62
1
 10
194.302446
 20
56.250000
 40
0.250000
 50
0.000000
 51
90.000000
  0
ARC
  8
0
  6
CONTINUOUS
 62
1
 10
184.802446
 20
56.750000
 40
0.250000
 50
180.000000
 51
270.000000
  0
ARC
  8
0
  6
RANDOM
 62
1
 10
183.802446
 20
48.500000
 40
5.000000
 50
0.000000
 51
60.000000
  0
ARC
  8
0
  6
RANDOM
 62
1
 10
184.552446
 20
48.500000
 40
25.000000
 50
0.000000
 51
10.952784
  0
ARC
  8
0
  6
RANDOM
 62
1
 10
184.552446
 20
48.500000
 40
10.000000
 50
0.000000
 51
28.359350
  0
ARC
  8
0
  6
RANDOM
 62
1
 10
184.552446
 20
48.500000
 40
10.000000
 50
53.130102
 51
90.000000
  0
LINE
  8
0
  6
CONTINUOUS
 62
1
 10
236.302446
 20
78.500000
 11
231.552446
 21
78.500000
  0
LINE
  8
0
  6
CONTINUOUS
 62
1
 10
216.552446
 20
59.050000
 11
216.552446
 21
56.750000
  0
ARC
  8
0
  6
CONTINUOUS
 62
1
 10
236.302446
 20
78.750000
 40
0.250000
 50
270.000000
 51
0.000000
  0
LINE
  8
0
  6
CONTINUOUS
 62
1
 10
184.552446
 20
56.750000
 11
184.552446
 21
78.250000
  0
ARC
  8
0
  6
CONTINUOUS
 62
1
 10
234.552446
 20
91.500000
 40
2.000000
 50
0.000000
 51
90.000000
  0
ARC
  8
0
  6
RANDOM
 62
1
 10
184.552446
 20
48.500000
 40
15.000000
 50
0.000000
 51
90.000000
  0
ARC
  8
0
  6
RANDOM
 62
1
 10
184.552446
 20
48.500000
 40
20.000000
 50
0.000000
 51
90.000000
  0
ARC
  8
0
  6
RANDOM
 62
1
 10
184.552446
 20
48.500000
 40
35.000000
 50
23.895508
 51
110.051043
  0
ARC
  8
0
  6
RANDOM
 62
1
 10
184.552446
 20
53.500000
 40
55.000000
 50
27.035692
 51
31.290445
  0
ARC
  8
0
  6
RANDOM
 62
1
 10
184.552446
 20
48.500000
 40
25.000000
 50
18.662925
 51
90.000000
  0
ARC
  8
0
  6
RANDOM
 62
1
 10
184.552446
 20
48.500000
 40
30.000000
 50
15.466010
 51
90.000000
  0
ARC
  8
0
  6
RANDOM
 62
1
 10
184.552446
 20
53.500000
 40
50.000000
 50
30.000000
 51
53.130102
  0
ARC
  8
0
  6
RANDOM
 62
1
 10
184.552446
 20
53.500000
 40
45.000000
 50
33.748989
 51
62.733956
  0
LINE
  8
0
  6
CONTINUOUS
 62
1
 10
216.552446
 20
78.250000
 11
216.552446
 21
56.750000
  0
ARC
  8
0
  6
CONTINUOUS
 62
1
 10
216.802446
 20
78.250000
 40
0.250000
 50
90.000000
 51
180.000000
  0
ARC
  8
0
  6
CONTINUOUS
 62
1
 10
166.552446
 20
91.500000
 40
2.000000
 50
90.000000
 51
180.000000
  0
LINE
  8
0
  6
CONTINUOUS
 62
1
 10
184.302446
 20
78.500000
 11
172.552446
 21
78.500000
  0
ARC
  8
0
  6
CONTINUOUS
 62
1
 10
184.302446
 20
78.250000
 40
0.250000
 50
0.000000
 51
90.000000
  0
LINE
  8
0
  6
CONTINUOUS
 62
1
 10
164.552446
 20
91.500000
 11
164.552446
 21
78.750000
  0
ARC
  8
0
  6
CONTINUOUS
 62
1
 10
164.802446
 20
78.750000
 40
0.250000
 50
180.000000
 51
270.000000
  0
ARC
  8
0
  6
RANDOM
 62
1
 10
184.552446
 20
53.500000
 40
40.000000
 50
36.869898
 51
84.424673
  0
ARC
  8
0
  6
RANDOM
 62
1
 10
184.552446
 20
53.500000
 40
40.000000
 50
90.000000
 51
120.000000
  0
ARC
  8
0
  6
RANDOM
 62
1
 10
184.552446
 20
48.500000
 40
40.000000
 50
36.869898
 51
120.000000
  0
ARC
  8
0
  6
RANDOM
 62
1
 10
184.552446
 20
53.500000
 40
60.000000
 50
29.926435
 51
41.810315
  0
LINE
  8
0
  6
CONTINUOUS
 62
1
 10
169.552446
 20
78.500000
 11
169.552446
 21
84.500000
  0
LINE
  8
0
  6
CONTINUOUS
 62
1
 10
172.552446
 20
84.500000
 11
172.552446
 21
78.500000
  0
LINE
  8
0
  6
CONTINUOUS
 62
1
 10
169.552446
 20
84.500000
 11
172.552446
 21
84.500000
  0
LINE
  8
0
  6
CONTINUOUS
 62
1
 10
169.552446
 20
78.500000
 11
164.802446
 21
78.500000
  0
ARC
  8
0
  6
RANDOM
 62
1
 10
184.552446
 20
48.500000
 40
35.000000
 50
115.376934
 51
121.002719
  0
LINE
  8
0
  6
CONTINUOUS
 62
1
 10
231.552446
 20
78.500000
 11
231.552446
 21
84.500000
  0
LINE
  8
0
  6
CONTINUOUS
 62
1
 10
228.552446
 20
84.500000
 11
228.552446
 21
78.500000
  0
LINE
  8
0
  6
CONTINUOUS
 62
1
 10
228.552446
 20
84.500000
 11
231.552446
 21
84.500000
  0
LINE
  8
0
  6
CONTINUOUS
 62
1
 10
228.552446
 20
78.500000
 11
216.802446
 21
78.500000
  0
ARC
  8
0
  6
RANDOM
 62
1
 10
184.552446
 20
53.500000
 40
55.000000
 50
34.307651
 51
46.658242
  0
TEXT
  8
0
  6
CONTINUOUS
 62
1
 10
30.000000
 20
20.843750
 40
3.000000
  1
OPEN OUT SECTIONS
 50
90.000000
 41
1.000000
 51
0.000000
  7
STANDARD
  0
LINE
  8
0
  6
CONTINUOUS
 62
1
 10
31.000000
 20
66.053056
 11
31.000000
 21
20.843750
  0
ENDSEC
  0
EOF
