  0
SECTION
  2
HEADER
  9
$LIMMIN
 10
0.000000
 20
0.000000
  9
$LIMMAX
 10
297.301779
 20
210.224104
  9
$EXTMIN
 10
0.000000
 20
0.000000
  9
$EXTMAX
 10
297.301779
 20
210.224104
  9
$ANGBASE
 50
0.0
  9
$ANGDIR
 70
0
  9
$DIMRND
 40
0.100000
  9
$DIMSE1
 70
0
  9
$DIMSE2
 70
0
  9
$DIMTXT
 40
2.500000
  9
$LTSCALE
 40
1.000000
  9
$LUPREC
 70
3
  9
$AUPREC
 70
3
  9
$PDMODE
 70
2
  9
$PDSIZE
 40
1.486509
  0
ENDSEC
  0
SECTION
  2
TABLES
  0
TABLE
  2
VPORT
  70
1
  0
VPORT
  2
*ACTIVE
 70
0
  10
0.0
 20
0.0
 11
1.0
 21
1.0
 12
594.0
 22
420.0
 13
0.0
 23
0.0
 14
10.0
 24
10.0
 15
10.0
 25
10.0
 16
0.0
 26
0.0
 36
1.0
 17
594.0
 27
420.0
 37
100.0
 40
1000.0
 41
1.0
 42
50.0
 43
0.0
 44
0.0
 50
0.0
 51
0.0
 71
0
 72
2000
 73
1
 74
3
 75
0
 76
0
 77
0
 78
1
  0
ENDTAB
  0
TABLE
  2
LTYPE
 70
4
  0
LTYPE
  2
CONTINUOUS
 70
0
  3
Solid line
 72
65
 73
0
 40
0.0
  0
LTYPE
  2
DASHED
 70
0
  3
Dashed line
 72
65
 73
2
 40
6.000000
 49
3.000000
 49
-3.000000
  0
LTYPE
  2
CENTER
 70
0
  3
Chain line
 72
65
 73
4
 40
24.000000
 49
15.000000
 49
-3.000000
 49
3.000000
 49
-3.000000
  0
LTYPE
  2
RANDOM
 70
0
  3
Random line
 72
65
 73
4
 40
22.500000
 49
6.000000
 49
-3.000000
 49
4.500000
 49
-9.000000
  0
ENDTAB
  0
TABLE
  2
STYLE
 70
9
  0
STYLE
  2
STANDARD
 40
0
 41
1.0
 50
0.0
 71
0
 42
0
  3
simplex
  4

 70
0
  0
ENDTAB
  0
TABLE
  2
LAYER
 70
2
  0
LAYER
  2
0
 70
0
 62
7
  6
CONTINUOUS
  0
LAYER
  2
0
 62
1
  6
CONTINUOUS
 70
0
  0
ENDTAB
  0
ENDSEC
  0
SECTION
  2
BLOCKS
  0
ENDSEC
  0
SECTION
  2
ENTITIES
  0
LINE
  8
0
  6
CONTINUOUS
 62
1
 10
284.750000
 20
186.781250
 11
287.000000
 21
185.937500
  0
LINE
  8
0
  6
CONTINUOUS
 62
1
 10
287.000000
 20
185.937500
 11
287.000000
 21
184.906250
  0
LINE
  8
0
  6
CONTINUOUS
 62
1
 10
287.000000
 20
184.906250
 11
282.875000
 21
186.593750
  0
LINE
  8
0
  6
CONTINUOUS
 62
1
 10
282.875000
 20
186.593750
 11
279.500000
 21
187.906250
  0
LINE
  8
0
  6
CONTINUOUS
 62
1
 10
279.500000
 20
187.906250
 11
279.500000
 21
188.937500
  0
LINE
  8
0
  6
CONTINUOUS
 62
1
 10
279.500000
 20
188.937500
 11
283.343750
 21
190.437500
  0
LINE
  8
0
  6
CONTINUOUS
 62
1
 10
283.343750
 20
190.437500
 11
287.000000
 21
191.937500
  0
LINE
  8
0
  6
CONTINUOUS
 62
1
 10
287.000000
 20
191.937500
 11
287.000000
 21
190.906250
  0
LINE
  8
0
  6
CONTINUOUS
 62
1
 10
287.000000
 20
190.906250
 11
284.750000
 21
190.062500
  0
LINE
  8
0
  6
CONTINUOUS
 62
1
 10
284.750000
 20
190.062500
 11
284.750000
 21
186.781250
  0
LINE
  8
0
  6
CONTINUOUS
 62
1
 10
283.812500
 20
189.687500
 11
280.343750
 21
188.375000
  0
LINE
  8
0
  6
CONTINUOUS
 62
1
 10
280.343750
 20
188.375000
 11
283.812500
 21
187.156250
  0
LINE
  8
0
  6
CONTINUOUS
 62
1
 10
283.812500
 20
187.156250
 11
283.812500
 21
189.687500
  0
LINE
  8
0
  6
CONTINUOUS
 62
1
 10
282.218750
 20
193.343750
 11
281.375000
 21
193.343750
  0
ARC
  8
0
  6
CONTINUOUS
 62
1
 10
276.956059
 20
191.210053
 40
4.907108
 50
25.773689
 51
58.773690
  0
LINE
  8
0
  6
CONTINUOUS
 62
1
 10
279.500000
 20
195.406250
 11
279.500000
 21
196.062500
  0
LINE
  8
0
  6
CONTINUOUS
 62
1
 10
279.500000
 20
196.062500
 11
283.250000
 21
196.062500
  0
LINE
  8
0
  6
CONTINUOUS
 62
1
 10
283.250000
 20
196.062500
 11
287.000000
 21
196.062500
  0
LINE
  8
0
  6
CONTINUOUS
 62
1
 10
287.000000
 20
196.062500
 11
287.000000
 21
195.031250
  0
LINE
  8
0
  6
CONTINUOUS
 62
1
 10
287.000000
 20
195.031250
 11
281.187500
 21
195.031250
  0
ARC
  8
0
  6
CONTINUOUS
 62
1
 10
278.319029
 20
192.119441
 40
4.087390
 50
17.429565
 51
45.429566
  0
LINE
  8
0
  6
CONTINUOUS
 62
1
 10
17.709024
 20
175.875224
 11
22.771524
 21
175.875224
  0
LINE
  8
0
  6
CONTINUOUS
 62
1
 10
17.709024
 20
188.868974
 11
22.771524
 21
188.868974
  0
LINE
  8
0
  6
CONTINUOUS
 62
1
 10
22.771524
 20
189.881474
 11
18.813570
 21
189.881474
  0
LINE
  8
0
  6
CONTINUOUS
 62
1
 10
22.771524
 20
174.862724
 11
18.813570
 21
174.862724
  0
LINE
  8
0
  6
CONTINUOUS
 62
1
 10
13.152774
 20
184.692412
 11
13.152774
 21
180.051787
  0
LINE
  8
0
  6
CONTINUOUS
 62
1
 10
14.165274
 20
179.123662
 11
14.165274
 21
181.865849
  0
LINE
  8
0
  6
CONTINUOUS
 62
1
 10
14.165274
 20
182.878349
 11
14.165274
 21
185.620537
  0
LINE
  8
0
  6
CONTINUOUS
 62
1
 10
13.152774
 20
180.051787
 11
10.621524
 21
182.372099
  0
LINE
  8
0
  6
CONTINUOUS
 62
1
 10
22.771524
 20
171.234599
 11
18.813570
 21
174.862724
  0
LINE
  8
0
  6
CONTINUOUS
 62
1
 10
16.696524
 20
176.803349
 11
14.165274
 21
179.123662
  0
LINE
  8
0
  6
CONTINUOUS
 62
1
 10
18.813570
 20
189.881474
 11
22.771524
 21
193.509599
  0
LINE
  8
0
  6
CONTINUOUS
 62
1
 10
10.621524
 20
182.372099
 11
13.152774
 21
184.692412
  0
LINE
  8
0
  6
CONTINUOUS
 62
1
 10
14.165274
 20
185.620537
 11
16.696524
 21
187.940849
  0
LINE
  8
0
  6
CONTINUOUS
 62
1
 10
22.771524
 20
174.862724
 11
22.771524
 21
171.234599
  0
LINE
  8
0
  6
CONTINUOUS
 62
1
 10
22.771524
 20
181.865849
 11
22.771524
 21
175.875224
  0
LINE
  8
0
  6
CONTINUOUS
 62
1
 10
22.771524
 20
193.509599
 11
22.771524
 21
189.881474
  0
LINE
  8
0
  6
CONTINUOUS
 62
1
 10
22.771524
 20
188.868974
 11
22.771524
 21
182.878349
  0
LINE
  8
0
  6
CONTINUOUS
 62
1
 10
22.771524
 20
181.865849
 11
17.709024
 21
181.865849
  0
LINE
  8
0
  6
CONTINUOUS
 62
1
 10
16.696524
 20
181.865849
 11
14.165274
 21
181.865849
  0
LINE
  8
0
  6
CONTINUOUS
 62
1
 10
22.771524
 20
182.878349
 11
17.709024
 21
182.878349
  0
LINE
  8
0
  6
CONTINUOUS
 62
1
 10
16.696524
 20
182.878349
 11
14.165274
 21
182.878349
  0
LINE
  8
0
  6
CONTINUOUS
 62
1
 10
16.696524
 20
187.940849
 11
16.696524
 21
182.878349
  0
LINE
  8
0
  6
CONTINUOUS
 62
1
 10
16.696524
 20
181.865849
 11
16.696524
 21
176.803349
  0
LINE
  8
0
  6
CONTINUOUS
 62
1
 10
17.709024
 20
175.875224
 11
17.709024
 21
181.865849
  0
LINE
  8
0
  6
CONTINUOUS
 62
1
 10
17.709024
 20
182.878349
 11
17.709024
 21
188.868974
  0
LINE
  8
0
  6
CONTINUOUS
 62
1
 10
12.950274
 20
180.237412
 11
12.950274
 21
184.506787
  0
LINE
  8
0
  6
CONTINUOUS
 62
1
 10
12.747774
 20
184.321162
 11
12.747774
 21
180.423037
  0
LINE
  8
0
  6
CONTINUOUS
 62
1
 10
12.545274
 20
180.608662
 11
12.545274
 21
184.135537
  0
LINE
  8
0
  6
CONTINUOUS
 62
1
 10
12.342774
 20
183.949912
 11
12.342774
 21
180.794287
  0
LINE
  8
0
  6
CONTINUOUS
 62
1
 10
12.140274
 20
180.979912
 11
12.140274
 21
183.764287
  0
LINE
  8
0
  6
CONTINUOUS
 62
1
 10
11.937774
 20
183.578662
 11
11.937774
 21
181.165537
  0
LINE
  8
0
  6
CONTINUOUS
 62
1
 10
11.735274
 20
181.351162
 11
11.735274
 21
183.393037
  0
LINE
  8
0
  6
CONTINUOUS
 62
1
 10
11.532774
 20
183.207412
 11
11.532774
 21
181.536787
  0
LINE
  8
0
  6
CONTINUOUS
 62
1
 10
11.330274
 20
181.722412
 11
11.330274
 21
183.021787
  0
LINE
  8
0
  6
CONTINUOUS
 62
1
 10
11.127774
 20
182.836162
 11
11.127774
 21
181.908037
  0
LINE
  8
0
  6
CONTINUOUS
 62
1
 10
10.925274
 20
182.093662
 11
10.925274
 21
182.650537
  0
LINE
  8
0
  6
CONTINUOUS
 62
1
 10
10.722774
 20
182.464912
 11
10.722774
 21
182.279287
  0
LINE
  8
0
  6
CONTINUOUS
 62
1
 10
22.366524
 20
175.875224
 11
22.366524
 21
181.865849
  0
LINE
  8
0
  6
CONTINUOUS
 62
1
 10
21.961524
 20
181.865849
 11
21.961524
 21
175.875224
  0
LINE
  8
0
  6
CONTINUOUS
 62
1
 10
21.556524
 20
175.875224
 11
21.556524
 21
181.865849
  0
LINE
  8
0
  6
CONTINUOUS
 62
1
 10
21.151524
 20
181.865849
 11
21.151524
 21
175.875224
  0
LINE
  8
0
  6
CONTINUOUS
 62
1
 10
20.746524
 20
175.875224
 11
20.746524
 21
181.865849
  0
LINE
  8
0
  6
CONTINUOUS
 62
1
 10
20.341524
 20
181.865849
 11
20.341524
 21
175.875224
  0
LINE
  8
0
  6
CONTINUOUS
 62
1
 10
19.936524
 20
175.875224
 11
19.936524
 21
181.865849
  0
LINE
  8
0
  6
CONTINUOUS
 62
1
 10
19.531524
 20
181.865849
 11
19.531524
 21
175.875224
  0
LINE
  8
0
  6
CONTINUOUS
 62
1
 10
19.126524
 20
175.875224
 11
19.126524
 21
181.865849
  0
LINE
  8
0
  6
CONTINUOUS
 62
1
 10
18.721524
 20
181.865849
 11
18.721524
 21
175.875224
  0
LINE
  8
0
  6
CONTINUOUS
 62
1
 10
18.316524
 20
175.875224
 11
18.316524
 21
181.865849
  0
LINE
  8
0
  6
CONTINUOUS
 62
1
 10
17.911524
 20
181.865849
 11
17.911524
 21
175.875224
  0
LINE
  8
0
  6
CONTINUOUS
 62
1
 10
22.366524
 20
182.878349
 11
22.366524
 21
188.868974
  0
LINE
  8
0
  6
CONTINUOUS
 62
1
 10
21.961524
 20
188.868974
 11
21.961524
 21
182.878349
  0
LINE
  8
0
  6
CONTINUOUS
 62
1
 10
21.556524
 20
182.878349
 11
21.556524
 21
188.868974
  0
LINE
  8
0
  6
CONTINUOUS
 62
1
 10
21.151524
 20
188.868974
 11
21.151524
 21
182.878349
  0
LINE
  8
0
  6
CONTINUOUS
 62
1
 10
21.151524
 20
188.868974
 11
21.151524
 21
182.878349
  0
LINE
  8
0
  6
CONTINUOUS
 62
1
 10
20.746524
 20
182.878349
 11
20.746524
 21
188.868974
  0
LINE
  8
0
  6
CONTINUOUS
 62
1
 10
20.341524
 20
188.868974
 11
20.341524
 21
182.878349
  0
LINE
  8
0
  6
CONTINUOUS
 62
1
 10
19.936524
 20
182.878349
 11
19.936524
 21
188.868974
  0
LINE
  8
0
  6
CONTINUOUS
 62
1
 10
19.531524
 20
188.868974
 11
19.531524
 21
182.878349
  0
LINE
  8
0
  6
CONTINUOUS
 62
1
 10
19.126524
 20
182.878349
 11
19.126524
 21
188.868974
  0
LINE
  8
0
  6
CONTINUOUS
 62
1
 10
18.721524
 20
188.868974
 11
18.721524
 21
182.878349
  0
LINE
  8
0
  6
CONTINUOUS
 62
1
 10
18.316524
 20
182.878349
 11
18.316524
 21
188.868974
  0
LINE
  8
0
  6
CONTINUOUS
 62
1
 10
17.911524
 20
188.868974
 11
17.911524
 21
182.878349
  0
LINE
  8
0
  6
CONTINUOUS
 62
1
 10
16.291524
 20
182.878349
 11
16.291524
 21
187.569599
  0
LINE
  8
0
  6
CONTINUOUS
 62
1
 10
15.886524
 20
187.198349
 11
15.886524
 21
182.878349
  0
LINE
  8
0
  6
CONTINUOUS
 62
1
 10
15.481524
 20
182.878349
 11
15.481524
 21
186.827099
  0
LINE
  8
0
  6
CONTINUOUS
 62
1
 10
15.076524
 20
186.455849
 11
15.076524
 21
182.878349
  0
LINE
  8
0
  6
CONTINUOUS
 62
1
 10
14.671524
 20
182.878349
 11
14.671524
 21
186.084599
  0
LINE
  8
0
  6
CONTINUOUS
 62
1
 10
14.266524
 20
185.713349
 11
14.266524
 21
182.878349
  0
LINE
  8
0
  6
CONTINUOUS
 62
1
 10
16.291524
 20
177.174599
 11
16.291524
 21
181.865849
  0
LINE
  8
0
  6
CONTINUOUS
 62
1
 10
15.886524
 20
181.865849
 11
15.886524
 21
177.545849
  0
LINE
  8
0
  6
CONTINUOUS
 62
1
 10
15.481524
 20
177.917099
 11
15.481524
 21
181.865849
  0
LINE
  8
0
  6
CONTINUOUS
 62
1
 10
15.076524
 20
181.865849
 11
15.076524
 21
178.288349
  0
LINE
  8
0
  6
CONTINUOUS
 62
1
 10
14.671524
 20
178.659599
 11
14.671524
 21
181.865849
  0
LINE
  8
0
  6
CONTINUOUS
 62
1
 10
14.266524
 20
181.865849
 11
14.266524
 21
179.030849
  0
LINE
  8
0
  6
CONTINUOUS
 62
1
 10
22.366524
 20
171.605849
 11
22.366524
 21
174.862724
  0
LINE
  8
0
  6
CONTINUOUS
 62
1
 10
21.961524
 20
174.862724
 11
21.961524
 21
171.977099
  0
LINE
  8
0
  6
CONTINUOUS
 62
1
 10
21.556524
 20
172.348349
 11
21.556524
 21
174.862724
  0
LINE
  8
0
  6
CONTINUOUS
 62
1
 10
21.151524
 20
174.862724
 11
21.151524
 21
172.719599
  0
LINE
  8
0
  6
CONTINUOUS
 62
1
 10
20.746524
 20
173.090849
 11
20.746524
 21
174.862724
  0
LINE
  8
0
  6
CONTINUOUS
 62
1
 10
20.341524
 20
174.862724
 11
20.341524
 21
173.462099
  0
LINE
  8
0
  6
CONTINUOUS
 62
1
 10
19.936524
 20
173.833349
 11
19.936524
 21
174.862724
  0
LINE
  8
0
  6
CONTINUOUS
 62
1
 10
19.531524
 20
174.862724
 11
19.531524
 21
174.204599
  0
LINE
  8
0
  6
CONTINUOUS
 62
1
 10
19.126524
 20
174.575849
 11
19.126524
 21
174.862724
  0
LINE
  8
0
  6
CONTINUOUS
 62
1
 10
22.366524
 20
189.881474
 11
22.366524
 21
193.138349
  0
LINE
  8
0
  6
CONTINUOUS
 62
1
 10
21.961524
 20
192.767099
 11
21.961524
 21
189.881474
  0
LINE
  8
0
  6
CONTINUOUS
 62
1
 10
21.556524
 20
189.881474
 11
21.556524
 21
192.395849
  0
LINE
  8
0
  6
CONTINUOUS
 62
1
 10
21.151524
 20
192.024599
 11
21.151524
 21
189.881474
  0
LINE
  8
0
  6
CONTINUOUS
 62
1
 10
20.746524
 20
189.881474
 11
20.746524
 21
191.653349
  0
LINE
  8
0
  6
CONTINUOUS
 62
1
 10
20.341524
 20
191.282099
 11
20.341524
 21
189.881474
  0
LINE
  8
0
  6
CONTINUOUS
 62
1
 10
19.936524
 20
189.881474
 11
19.936524
 21
190.910849
  0
LINE
  8
0
  6
CONTINUOUS
 62
1
 10
19.531524
 20
190.539599
 11
19.531524
 21
189.881474
  0
LINE
  8
0
  6
CONTINUOUS
 62
1
 10
19.126524
 20
189.881474
 11
19.126524
 21
190.168349
  0
LINE
  8
0
  6
CONTINUOUS
 62
1
 10
22.569024
 20
175.875224
 11
22.569024
 21
181.865849
  0
LINE
  8
0
  6
CONTINUOUS
 62
1
 10
22.164024
 20
181.865849
 11
22.164024
 21
175.875224
  0
LINE
  8
0
  6
CONTINUOUS
 62
1
 10
21.759024
 20
181.865849
 11
21.759024
 21
175.875224
  0
LINE
  8
0
  6
CONTINUOUS
 62
1
 10
21.354024
 20
175.875224
 11
21.354024
 21
181.865849
  0
LINE
  8
0
  6
CONTINUOUS
 62
1
 10
19.329024
 20
175.875224
 11
19.329024
 21
181.865849
  0
LINE
  8
0
  6
CONTINUOUS
 62
1
 10
18.924024
 20
181.865849
 11
18.924024
 21
175.875224
  0
LINE
  8
0
  6
CONTINUOUS
 62
1
 10
18.519024
 20
175.875224
 11
18.519024
 21
181.865849
  0
LINE
  8
0
  6
CONTINUOUS
 62
1
 10
18.114024
 20
181.865849
 11
18.114024
 21
175.875224
  0
LINE
  8
0
  6
CONTINUOUS
 62
1
 10
19.734024
 20
181.865849
 11
19.734024
 21
175.875224
  0
LINE
  8
0
  6
CONTINUOUS
 62
1
 10
20.139024
 20
175.875224
 11
20.139024
 21
181.865849
  0
LINE
  8
0
  6
CONTINUOUS
 62
1
 10
20.544024
 20
181.865849
 11
20.544024
 21
175.875224
  0
LINE
  8
0
  6
CONTINUOUS
 62
1
 10
20.949024
 20
175.875224
 11
20.949024
 21
181.865849
  0
LINE
  8
0
  6
CONTINUOUS
 62
1
 10
22.569024
 20
182.878349
 11
22.569024
 21
188.868974
  0
LINE
  8
0
  6
CONTINUOUS
 62
1
 10
22.164024
 20
188.868974
 11
22.164024
 21
182.878349
  0
LINE
  8
0
  6
CONTINUOUS
 62
1
 10
18.114024
 20
182.878349
 11
18.114024
 21
188.868974
  0
LINE
  8
0
  6
CONTINUOUS
 62
1
 10
18.519024
 20
188.868974
 11
18.519024
 21
182.878349
  0
LINE
  8
0
  6
CONTINUOUS
 62
1
 10
18.924024
 20
188.868974
 11
18.924024
 21
182.878349
  0
LINE
  8
0
  6
CONTINUOUS
 62
1
 10
19.329024
 20
182.878349
 11
19.329024
 21
188.868974
  0
LINE
  8
0
  6
CONTINUOUS
 62
1
 10
19.734024
 20
182.878349
 11
19.734024
 21
188.868974
  0
LINE
  8
0
  6
CONTINUOUS
 62
1
 10
20.139024
 20
182.878349
 11
20.139024
 21
188.868974
  0
LINE
  8
0
  6
CONTINUOUS
 62
1
 10
20.544024
 20
182.878349
 11
20.544024
 21
188.868974
  0
LINE
  8
0
  6
CONTINUOUS
 62
1
 10
20.949024
 20
188.868974
 11
20.949024
 21
182.878349
  0
LINE
  8
0
  6
CONTINUOUS
 62
1
 10
21.354024
 20
188.868974
 11
21.354024
 21
182.878349
  0
LINE
  8
0
  6
CONTINUOUS
 62
1
 10
21.759024
 20
182.878349
 11
21.759024
 21
188.868974
  0
LINE
  8
0
  6
CONTINUOUS
 62
1
 10
22.569024
 20
189.881474
 11
22.569024
 21
193.323974
  0
LINE
  8
0
  6
CONTINUOUS
 62
1
 10
22.164024
 20
192.952724
 11
22.164024
 21
189.881474
  0
LINE
  8
0
  6
CONTINUOUS
 62
1
 10
21.759024
 20
189.881474
 11
21.759024
 21
192.581474
  0
LINE
  8
0
  6
CONTINUOUS
 62
1
 10
21.354024
 20
192.210224
 11
21.354024
 21
189.881474
  0
LINE
  8
0
  6
CONTINUOUS
 62
1
 10
20.949024
 20
189.881474
 11
20.949024
 21
191.838974
  0
LINE
  8
0
  6
CONTINUOUS
 62
1
 10
20.544024
 20
191.467724
 11
20.544024
 21
189.881474
  0
LINE
  8
0
  6
CONTINUOUS
 62
1
 10
20.139024
 20
191.096474
 11
20.139024
 21
189.881474
  0
LINE
  8
0
  6
CONTINUOUS
 62
1
 10
19.734024
 20
190.725224
 11
19.734024
 21
189.881474
  0
LINE
  8
0
  6
CONTINUOUS
 62
1
 10
19.329024
 20
189.881474
 11
19.329024
 21
190.353974
  0
LINE
  8
0
  6
CONTINUOUS
 62
1
 10
18.924024
 20
189.982724
 11
18.924024
 21
189.881474
  0
LINE
  8
0
  6
CONTINUOUS
 62
1
 10
22.569024
 20
171.420224
 11
22.569024
 21
174.862724
  0
LINE
  8
0
  6
CONTINUOUS
 62
1
 10
22.164024
 20
174.862724
 11
22.164024
 21
171.791474
  0
LINE
  8
0
  6
CONTINUOUS
 62
1
 10
21.759024
 20
172.162724
 11
21.759024
 21
174.862724
  0
LINE
  8
0
  6
CONTINUOUS
 62
1
 10
21.354024
 20
174.862724
 11
21.354024
 21
172.533974
  0
LINE
  8
0
  6
CONTINUOUS
 62
1
 10
20.949024
 20
172.905224
 11
20.949024
 21
174.862724
  0
LINE
  8
0
  6
CONTINUOUS
 62
1
 10
20.544024
 20
174.862724
 11
20.544024
 21
173.276474
  0
LINE
  8
0
  6
CONTINUOUS
 62
1
 10
20.139024
 20
173.647724
 11
20.139024
 21
174.862724
  0
LINE
  8
0
  6
CONTINUOUS
 62
1
 10
19.734024
 20
174.862724
 11
19.734024
 21
174.018974
  0
LINE
  8
0
  6
CONTINUOUS
 62
1
 10
19.329024
 20
174.390224
 11
19.329024
 21
174.862724
  0
LINE
  8
0
  6
CONTINUOUS
 62
1
 10
18.924024
 20
174.862724
 11
18.924024
 21
174.761474
  0
LINE
  8
0
  6
CONTINUOUS
 62
1
 10
16.494024
 20
182.878349
 11
16.494024
 21
187.755224
  0
LINE
  8
0
  6
CONTINUOUS
 62
1
 10
16.089024
 20
187.383974
 11
16.089024
 21
182.878349
  0
LINE
  8
0
  6
CONTINUOUS
 62
1
 10
15.684024
 20
182.878349
 11
15.684024
 21
187.012724
  0
LINE
  8
0
  6
CONTINUOUS
 62
1
 10
15.279024
 20
186.641474
 11
15.279024
 21
182.878349
  0
LINE
  8
0
  6
CONTINUOUS
 62
1
 10
14.874024
 20
182.878349
 11
14.874024
 21
186.270224
  0
LINE
  8
0
  6
CONTINUOUS
 62
1
 10
14.469024
 20
185.898974
 11
14.469024
 21
182.878349
  0
LINE
  8
0
  6
CONTINUOUS
 62
1
 10
14.469024
 20
181.865849
 11
14.469024
 21
178.845224
  0
LINE
  8
0
  6
CONTINUOUS
 62
1
 10
14.874024
 20
178.473974
 11
14.874024
 21
181.865849
  0
LINE
  8
0
  6
CONTINUOUS
 62
1
 10
15.279024
 20
181.865849
 11
15.279024
 21
178.102724
  0
LINE
  8
0
  6
CONTINUOUS
 62
1
 10
15.684024
 20
177.731474
 11
15.684024
 21
181.865849
  0
LINE
  8
0
  6
CONTINUOUS
 62
1
 10
16.089024
 20
181.865849
 11
16.089024
 21
177.360224
  0
LINE
  8
0
  6
CONTINUOUS
 62
1
 10
16.494024
 20
176.988974
 11
16.494024
 21
181.865849
  0
LINE
  8
0
  6
CONTINUOUS
 62
1
 10
33.571524
 20
198.957126
 11
33.571524
 21
165.787045
  0
LINE
  8
0
  6
CONTINUOUS
 62
1
 10
24.796524
 20
165.787045
 11
24.796524
 21
198.957126
  0
ARC
  8
0
  6
CONTINUOUS
 62
1
 10
27.461923
 20
168.074104
 40
1.075798
 50
101.065051
 51
132.065051
  0
ARC
  8
0
  6
CONTINUOUS
 62
1
 10
27.572266
 20
168.135782
 40
1.110793
 50
138.434949
 51
168.434949
  0
ARC
  8
0
  6
CONTINUOUS
 62
1
 10
28.788962
 20
167.972760
 40
2.336988
 50
170.500000
 51
189.499999
  0
ARC
  8
0
  6
CONTINUOUS
 62
1
 10
28.208722
 20
167.511743
 40
1.726341
 50
177.500000
 51
272.499999
  0
LINE
  8
0
  6
CONTINUOUS
 62
1
 10
28.284024
 20
165.787045
 11
29.826881
 21
165.787045
  0
ARC
  8
0
  6
CONTINUOUS
 62
1
 10
29.701546
 20
168.734479
 40
2.950098
 50
272.434949
 51
304.434949
  0
ARC
  8
0
  6
CONTINUOUS
 62
1
 10
30.617539
 20
167.320288
 40
1.266522
 50
306.434949
 51
0.434948
  0
LINE
  8
0
  6
CONTINUOUS
 62
1
 10
31.884024
 20
167.329902
 11
31.884024
 21
167.844188
  0
ARC
  8
0
  6
CONTINUOUS
 62
1
 10
30.643121
 20
167.905751
 40
1.242430
 50
357.159808
 51
80.159810
  0
LINE
  8
0
  6
CONTINUOUS
 62
1
 10
31.884024
 20
170.415617
 11
26.484024
 21
170.415617
  0
LINE
  8
0
  6
CONTINUOUS
 62
1
 10
26.484024
 20
170.415617
 11
26.484024
 21
172.729902
  0
ARC
  8
0
  6
CONTINUOUS
 62
1
 10
27.512596
 20
172.729902
 40
1.028571
 50
90.000000
 51
180.000000
  0
ARC
  8
0
  6
CONTINUOUS
 62
1
 10
27.512596
 20
172.472760
 40
1.285714
 50
0.000001
 51
90.000000
  0
LINE
  8
0
  6
CONTINUOUS
 62
1
 10
28.798310
 20
172.472760
 11
28.798310
 21
170.158474
  0
LINE
  8
0
  6
CONTINUOUS
 62
1
 10
28.798310
 20
171.958474
 11
31.884024
 21
173.758474
  0
LINE
  8
0
  6
CONTINUOUS
 62
1
 10
31.884024
 20
175.044188
 11
26.484024
 21
175.044188
  0
LINE
  8
0
  6
CONTINUOUS
 62
1
 10
26.484024
 20
178.129902
 11
31.884024
 21
178.129902
  0
LINE
  8
0
  6
CONTINUOUS
 62
1
 10
26.484024
 20
176.329902
 11
26.484024
 21
179.929902
  0
LINE
  8
0
  6
CONTINUOUS
 62
1
 10
26.484024
 20
183.015617
 11
31.884024
 21
183.015617
  0
LINE
  8
0
  6
CONTINUOUS
 62
1
 10
26.484024
 20
181.215617
 11
26.484024
 21
184.815617
  0
LINE
  8
0
  6
CONTINUOUS
 62
1
 10
31.884024
 20
186.101331
 11
26.484024
 21
188.158474
  0
LINE
  8
0
  6
CONTINUOUS
 62
1
 10
26.484024
 20
188.158474
 11
31.884024
 21
190.215617
  0
LINE
  8
0
  6
CONTINUOUS
 62
1
 10
30.084024
 20
186.872760
 11
30.084024
 21
189.701331
  0
LINE
  8
0
  6
CONTINUOUS
 62
1
 10
31.884024
 20
191.501331
 11
26.484024
 21
191.501331
  0
LINE
  8
0
  6
CONTINUOUS
 62
1
 10
31.884024
 20
191.501331
 11
31.884024
 21
194.587045
  0
LINE
  8
0
  6
CONTINUOUS
 62
1
 10
31.884024
 20
195.872760
 11
26.484024
 21
195.872760
  0
LINE
  8
0
  6
CONTINUOUS
 62
1
 10
31.884024
 20
195.872760
 11
31.884024
 21
198.958474
  0
TEXT
  8
0
  6
CONTINUOUS
 62
1
 10
20.000000
 20
20.843750
 40
6.000000
  1
Composite Windows
 50
90.000000
 41
1.000000
 51
0.000000
  7
STANDARD
  0
TEXT
  8
0
  6
CONTINUOUS
 62
1
 10
277.476378
 20
19.947503
 40
2.000000
  1
This drawing is the property of Crittall Windows Ltd and is a
 50
90.000000
 41
1.000000
 51
0.000000
  7
STANDARD
  0
TEXT
  8
0
  6
CONTINUOUS
 62
1
 10
281.476378
 20
19.947503
 40
2.000000
  1
confidential document and must not be copied or its contents
 50
90.000000
 41
1.000000
 51
0.000000
  7
STANDARD
  0
TEXT
  8
0
  6
CONTINUOUS
 62
1
 10
285.476378
 20
19.947503
 40
2.000000
  1
divulged without prior consent.
 50
90.000000
 41
1.000000
 51
0.000000
  7
STANDARD
  0
LINE
  8
0
  6
CONTINUOUS
 62
1
 10
71.363402
 20
115.412000
 11
71.363402
 21
120.000000
  0
LINE
  8
0
  6
CONTINUOUS
 62
1
 10
72.486560
 20
179.782517
 11
72.214222
 21
179.817435
  0
LINE
  8
0
  6
CONTINUOUS
 62
1
 10
114.263402
 20
165.375000
 11
114.263402
 21
170.875000
  0
LINE
  8
0
  6
CONTINUOUS
 62
1
 10
111.263402
 20
170.875000
 11
111.263402
 21
165.375000
  0
LINE
  8
0
  6
CONTINUOUS
 62
1
 10
111.513402
 20
171.125000
 11
114.013402
 21
171.125000
  0
ARC
  8
0
  6
CONTINUOUS
 62
1
 10
114.513402
 20
165.375000
 40
0.250000
 50
180.000000
 51
270.000000
  0
ARC
  8
0
  6
CONTINUOUS
 62
1
 10
111.013402
 20
165.375000
 40
0.250000
 50
270.000000
 51
0.000000
  0
ARC
  8
0
  6
RANDOM
 62
1
 10
67.263402
 20
140.125000
 40
25.000000
 50
36.869898
 51
90.000000
  0
ARC
  8
0
  6
CONTINUOUS
 62
1
 10
114.013402
 20
170.875000
 40
0.250000
 50
0.000000
 51
90.000000
  0
ARC
  8
0
  6
CONTINUOUS
 62
1
 10
111.513402
 20
170.875000
 40
0.250000
 50
90.000000
 51
180.000000
  0
ARC
  8
0
  6
CONTINUOUS
 62
1
 10
95.513402
 20
137.125000
 40
2.000000
 50
270.000000
 51
0.000000
  0
ARC
  8
0
  6
CONTINUOUS
 62
1
 10
71.013402
 20
137.125000
 40
2.000000
 50
180.000000
 51
270.000000
  0
LINE
  8
0
  6
CONTINUOUS
 62
1
 10
69.263402
 20
180.125000
 11
117.263402
 21
180.125000
  0
LINE
  8
0
  6
CONTINUOUS
 62
1
 10
119.263402
 20
178.125000
 11
119.263402
 21
165.375000
  0
LINE
  8
0
  6
CONTINUOUS
 62
1
 10
99.013402
 20
143.125000
 11
89.513402
 21
143.125000
  0
LINE
  8
0
  6
CONTINUOUS
 62
1
 10
89.263402
 20
142.875000
 11
89.263402
 21
140.125000
  0
LINE
  8
0
  6
CONTINUOUS
 62
1
 10
89.513402
 20
139.875000
 11
97.263402
 21
139.875000
  0
LINE
  8
0
  6
CONTINUOUS
 62
1
 10
95.513402
 20
135.125000
 11
71.013402
 21
135.125000
  0
LINE
  8
0
  6
CONTINUOUS
 62
1
 10
97.513402
 20
139.625000
 11
97.513402
 21
137.125000
  0
LINE
  8
0
  6
CONTINUOUS
 62
1
 10
77.263402
 20
140.125000
 11
77.263402
 21
142.875000
  0
LINE
  8
0
  6
CONTINUOUS
 62
1
 10
77.013402
 20
143.125000
 11
67.513402
 21
143.125000
  0
LINE
  8
0
  6
CONTINUOUS
 62
1
 10
77.013402
 20
139.875000
 11
69.263402
 21
139.875000
  0
LINE
  8
0
  6
CONTINUOUS
 62
1
 10
69.013402
 20
139.625000
 11
69.013402
 21
137.125000
  0
ARC
  8
0
  6
CONTINUOUS
 62
1
 10
99.013402
 20
143.375000
 40
0.250000
 50
270.000000
 51
0.000000
  0
ARC
  8
0
  6
CONTINUOUS
 62
1
 10
89.513402
 20
142.875000
 40
0.250000
 50
90.000000
 51
180.000000
  0
ARC
  8
0
  6
CONTINUOUS
 62
1
 10
89.513402
 20
140.125000
 40
0.250000
 50
180.000000
 51
270.000000
  0
ARC
  8
0
  6
CONTINUOUS
 62
1
 10
97.263402
 20
139.625000
 40
0.250000
 50
0.000000
 51
90.000000
  0
ARC
  8
0
  6
CONTINUOUS
 62
1
 10
69.263402
 20
139.625000
 40
0.250000
 50
90.000000
 51
180.000000
  0
ARC
  8
0
  6
CONTINUOUS
 62
1
 10
77.013402
 20
140.125000
 40
0.250000
 50
270.000000
 51
0.000000
  0
ARC
  8
0
  6
CONTINUOUS
 62
1
 10
77.013402
 20
142.875000
 40
0.250000
 50
0.000000
 51
90.000000
  0
ARC
  8
0
  6
CONTINUOUS
 62
1
 10
67.513402
 20
143.375000
 40
0.250000
 50
180.000000
 51
270.000000
  0
ARC
  8
0
  6
RANDOM
 62
1
 10
66.513402
 20
135.125000
 40
5.000000
 50
0.000000
 51
60.000000
  0
ARC
  8
0
  6
RANDOM
 62
1
 10
67.263402
 20
135.125000
 40
25.000000
 50
0.000000
 51
10.952784
  0
ARC
  8
0
  6
RANDOM
 62
1
 10
67.263402
 20
135.125000
 40
10.000000
 50
0.000000
 51
28.359350
  0
ARC
  8
0
  6
RANDOM
 62
1
 10
67.263402
 20
135.125000
 40
10.000000
 50
53.130102
 51
90.000000
  0
LINE
  8
0
  6
CONTINUOUS
 62
1
 10
119.013402
 20
165.125000
 11
114.513402
 21
165.125000
  0
LINE
  8
0
  6
CONTINUOUS
 62
1
 10
99.263402
 20
164.875000
 11
99.263402
 21
162.375000
  0
LINE
  8
0
  6
CONTINUOUS
 62
1
 10
99.013402
 20
162.125000
 11
97.013402
 21
162.125000
  0
LINE
  8
0
  6
CONTINUOUS
 62
1
 10
97.013402
 20
145.875000
 11
99.013402
 21
145.875000
  0
LINE
  8
0
  6
CONTINUOUS
 62
1
 10
99.263402
 20
145.625000
 11
99.263402
 21
143.375000
  0
ARC
  8
0
  6
CONTINUOUS
 62
1
 10
99.013402
 20
145.625000
 40
0.250000
 50
0.000000
 51
90.000000
  0
LINE
  8
0
  6
CONTINUOUS
 62
1
 10
96.763402
 20
161.875000
 11
96.763402
 21
160.350000
  0
LINE
  8
0
  6
CONTINUOUS
 62
1
 10
96.513402
 20
160.100000
 11
87.513402
 21
160.100000
  0
LINE
  8
0
  6
CONTINUOUS
 62
1
 10
87.263402
 20
159.850000
 11
87.263402
 21
148.150000
  0
LINE
  8
0
  6
CONTINUOUS
 62
1
 10
87.513402
 20
147.900000
 11
96.513402
 21
147.900000
  0
LINE
  8
0
  6
CONTINUOUS
 62
1
 10
96.763402
 20
147.650000
 11
96.763402
 21
146.125000
  0
ARC
  8
0
  6
CONTINUOUS
 62
1
 10
119.013402
 20
165.375000
 40
0.250000
 50
270.000000
 51
0.000000
  0
LINE
  8
0
  6
CONTINUOUS
 62
1
 10
67.263402
 20
143.375000
 11
67.263402
 21
178.125000
  0
ARC
  8
0
  6
CONTINUOUS
 62
1
 10
69.263402
 20
178.125000
 40
2.000000
 50
90.000000
 51
180.000000
  0
ARC
  8
0
  6
CONTINUOUS
 62
1
 10
117.263402
 20
178.125000
 40
2.000000
 50
0.000000
 51
90.000000
  0
ARC
  8
0
  6
CONTINUOUS
 62
1
 10
99.513402
 20
164.875000
 40
0.250000
 50
90.000000
 51
180.000000
  0
ARC
  8
0
  6
CONTINUOUS
 62
1
 10
99.013402
 20
162.375000
 40
0.250000
 50
270.000000
 51
0.000000
  0
ARC
  8
0
  6
CONTINUOUS
 62
1
 10
97.013402
 20
161.875000
 40
0.250000
 50
90.000000
 51
180.000000
  0
ARC
  8
0
  6
CONTINUOUS
 62
1
 10
96.513402
 20
160.350000
 40
0.250000
 50
270.000000
 51
0.000000
  0
ARC
  8
0
  6
CONTINUOUS
 62
1
 10
87.513402
 20
159.850000
 40
0.250000
 50
90.000000
 51
180.000000
  0
ARC
  8
0
  6
CONTINUOUS
 62
1
 10
87.513402
 20
148.150000
 40
0.250000
 50
180.000000
 51
270.000000
  0
ARC
  8
0
  6
CONTINUOUS
 62
1
 10
96.513402
 20
147.650000
 40
0.250000
 50
0.000000
 51
90.000000
  0
ARC
  8
0
  6
CONTINUOUS
 62
1
 10
97.013402
 20
146.125000
 40
0.250000
 50
180.000000
 51
270.000000
  0
ARC
  8
0
  6
RANDOM
 62
1
 10
67.263402
 20
135.125000
 40
15.000000
 50
0.000000
 51
90.000000
  0
ARC
  8
0
  6
RANDOM
 62
1
 10
67.263402
 20
135.125000
 40
20.000000
 50
0.000000
 51
90.000000
  0
ARC
  8
0
  6
RANDOM
 62
1
 10
67.263402
 20
140.125000
 40
35.000000
 50
34.849905
 51
90.000000
  0
ARC
  8
0
  6
RANDOM
 62
1
 10
67.263402
 20
140.125000
 40
55.000000
 50
34.307651
 51
46.658242
  0
ARC
  8
0
  6
RANDOM
 62
1
 10
67.263402
 20
140.125000
 40
60.000000
 50
29.926435
 51
41.810315
  0
ARC
  8
0
  6
RANDOM
 62
1
 10
67.263402
 20
135.125000
 40
25.000000
 50
18.662925
 51
30.797141
  0
ARC
  8
0
  6
RANDOM
 62
1
 10
67.263402
 20
135.125000
 40
25.000000
 50
36.869898
 51
90.000000
  0
ARC
  8
0
  6
RANDOM
 62
1
 10
67.263402
 20
135.125000
 40
30.000000
 50
15.466010
 51
25.256204
  0
ARC
  8
0
  6
RANDOM
 62
1
 10
67.263402
 20
140.125000
 40
30.000000
 50
41.810315
 51
90.000000
  0
ARC
  8
0
  6
RANDOM
 62
1
 10
67.263402
 20
140.125000
 40
50.000000
 50
30.000000
 51
53.130102
  0
ARC
  8
0
  6
RANDOM
 62
1
 10
67.263402
 20
140.125000
 40
45.000000
 50
33.748989
 51
62.733956
  0
ARC
  8
0
  6
RANDOM
 62
1
 10
67.263402
 20
140.125000
 40
40.000000
 50
82.890240
 51
87.656375
  0
LINE
  8
0
  6
CONTINUOUS
 62
1
 10
111.013402
 20
165.125000
 11
99.513402
 21
165.125000
  0
ARC
  8
0
  6
RANDOM
 62
1
 10
67.263402
 20
140.125000
 40
40.000000
 50
37.159638
 51
82.496951
  0
LINE
  8
0
  6
CONTINUOUS
 62
1
 10
45.263402
 20
110.000000
 11
91.763402
 21
110.000000
  0
LINE
  8
0
  6
CONTINUOUS
 62
1
 10
49.763402
 20
113.000000
 11
49.763402
 21
114.250000
  0
LINE
  8
0
  6
CONTINUOUS
 62
1
 10
44.263402
 20
111.000000
 11
44.263402
 21
112.500000
  0
LINE
  8
0
  6
CONTINUOUS
 62
1
 10
44.513402
 20
112.750000
 11
49.513402
 21
112.750000
  0
LINE
  8
0
  6
CONTINUOUS
 62
1
 10
50.013402
 20
114.500000
 11
50.763402
 21
114.500000
  0
LINE
  8
0
  6
CONTINUOUS
 62
1
 10
51.763402
 20
113.500000
 11
51.013402
 21
113.500000
  0
LINE
  8
0
  6
CONTINUOUS
 62
1
 10
50.763402
 20
113.250000
 11
50.763402
 21
112.000000
  0
LINE
  8
0
  6
CONTINUOUS
 62
1
 10
51.013402
 20
111.750000
 11
58.013402
 21
111.750000
  0
LINE
  8
0
  6
CONTINUOUS
 62
1
 10
58.263402
 20
112.000000
 11
58.263402
 21
113.250000
  0
LINE
  8
0
  6
CONTINUOUS
 62
1
 10
58.013402
 20
113.500000
 11
57.263402
 21
113.500000
  0
LINE
  8
0
  6
CONTINUOUS
 62
1
 10
58.263402
 20
114.500000
 11
59.013402
 21
114.500000
  0
LINE
  8
0
  6
CONTINUOUS
 62
1
 10
59.263402
 20
114.250000
 11
59.263402
 21
112.000000
  0
LINE
  8
0
  6
CONTINUOUS
 62
1
 10
91.363402
 20
127.350000
 11
91.363402
 21
111.650000
  0
LINE
  8
0
  6
CONTINUOUS
 62
1
 10
91.113402
 20
111.400000
 11
71.613402
 21
111.400000
  0
LINE
  8
0
  6
CONTINUOUS
 62
1
 10
92.579089
 20
129.000000
 11
72.363402
 21
129.000000
  0
LINE
  8
0
  6
CONTINUOUS
 62
1
 10
71.613402
 20
127.600000
 11
91.113402
 21
127.600000
  0
LINE
  8
0
  6
CONTINUOUS
 62
1
 10
92.563402
 20
120.000000
 11
92.763402
 21
120.200000
  0
LINE
  8
0
  6
CONTINUOUS
 62
1
 10
92.763402
 20
111.000000
 11
92.763402
 21
119.800000
  0
LINE
  8
0
  6
CONTINUOUS
 62
1
 10
92.563402
 20
120.000000
 11
92.763402
 21
119.800000
  0
LINE
  8
0
  6
CONTINUOUS
 62
1
 10
95.513402
 20
142.200000
 11
97.863402
 21
142.200000
  0
LINE
  8
0
  6
CONTINUOUS
 62
1
 10
97.613402
 20
140.800000
 11
95.513402
 21
140.800000
  0
ARC
  8
0
  6
CONTINUOUS
 62
1
 10
98.563402
 20
142.300000
 40
0.700000
 50
0.000000
 51
90.000000
  0
ARC
  8
0
  6
CONTINUOUS
 62
1
 10
98.563402
 20
142.300000
 40
0.700000
 50
90.000000
 51
180.000000
  0
LINE
  8
0
  6
CONTINUOUS
 62
1
 10
90.263402
 20
141.562800
 11
90.263402
 21
141.437200
  0
LINE
  8
0
  6
CONTINUOUS
 62
1
 10
92.763402
 20
142.330127
 11
92.763402
 21
143.000000
  0
LINE
  8
0
  6
CONTINUOUS
 62
1
 10
95.263402
 20
143.000000
 11
95.263402
 21
142.450000
  0
LINE
  8
0
  6
CONTINUOUS
 62
1
 10
97.863402
 20
142.300000
 11
97.863402
 21
142.200000
  0
LINE
  8
0
  6
CONTINUOUS
 62
1
 10
95.263402
 20
143.000000
 11
92.763402
 21
142.330127
  0
LINE
  8
0
  6
CONTINUOUS
 62
1
 10
92.763402
 20
143.000000
 11
91.004583
 21
142.528726
  0
LINE
  8
0
  6
CONTINUOUS
 62
1
 10
95.263402
 20
140.000000
 11
92.763402
 21
140.669873
  0
LINE
  8
0
  6
CONTINUOUS
 62
1
 10
92.763402
 20
140.669873
 11
92.763402
 21
140.000000
  0
LINE
  8
0
  6
CONTINUOUS
 62
1
 10
92.763402
 20
140.000000
 11
91.004583
 21
140.471274
  0
LINE
  8
0
  6
CONTINUOUS
 62
1
 10
95.263402
 20
140.550000
 11
95.263402
 21
140.000000
  0
LINE
  8
0
  6
CONTINUOUS
 62
1
 10
59.513402
 20
111.750000
 11
68.963402
 21
111.750000
  0
ARC
  8
0
  6
CONTINUOUS
 62
1
 10
45.263402
 20
111.000000
 40
1.000000
 50
180.000000
 51
270.000000
  0
ARC
  8
0
  6
CONTINUOUS
 62
1
 10
50.763402
 20
113.500000
 40
1.000000
 50
0.000000
 51
90.000000
  0
ARC
  8
0
  6
CONTINUOUS
 62
1
 10
58.263402
 20
113.500000
 40
1.000000
 50
90.000000
 51
180.000000
  0
ARC
  8
0
  6
CONTINUOUS
 62
1
 10
91.763402
 20
111.000000
 40
1.000000
 50
270.000000
 51
0.000000
  0
ARC
  8
0
  6
CONTINUOUS
 62
1
 10
91.263402
 20
141.562800
 40
1.000000
 50
105.000000
 51
180.000000
  0
ARC
  8
0
  6
CONTINUOUS
 62
1
 10
91.263402
 20
141.437200
 40
1.000000
 50
180.000000
 51
255.000000
  0
LINE
  8
0
  6
CONTINUOUS
 62
1
 10
71.063402
 20
142.200000
 11
68.713402
 21
142.200000
  0
LINE
  8
0
  6
CONTINUOUS
 62
1
 10
68.963402
 20
140.800000
 11
71.063402
 21
140.800000
  0
ARC
  8
0
  6
CONTINUOUS
 62
1
 10
68.013402
 20
142.300000
 40
0.700000
 50
90.000000
 51
180.000000
  0
ARC
  8
0
  6
CONTINUOUS
 62
1
 10
68.013402
 20
142.300000
 40
0.700000
 50
0.000000
 51
90.000000
  0
LINE
  8
0
  6
CONTINUOUS
 62
1
 10
76.313402
 20
141.562800
 11
76.313402
 21
141.437200
  0
LINE
  8
0
  6
CONTINUOUS
 62
1
 10
73.813402
 20
142.330127
 11
73.813402
 21
143.000000
  0
LINE
  8
0
  6
CONTINUOUS
 62
1
 10
71.313402
 20
143.000000
 11
71.313402
 21
142.450000
  0
LINE
  8
0
  6
CONTINUOUS
 62
1
 10
68.713402
 20
142.300000
 11
68.713402
 21
142.200000
  0
LINE
  8
0
  6
CONTINUOUS
 62
1
 10
71.313402
 20
143.000000
 11
73.813402
 21
142.330127
  0
LINE
  8
0
  6
CONTINUOUS
 62
1
 10
73.813402
 20
143.000000
 11
75.572221
 21
142.528726
  0
LINE
  8
0
  6
CONTINUOUS
 62
1
 10
71.313402
 20
140.000000
 11
73.813402
 21
140.669873
  0
LINE
  8
0
  6
CONTINUOUS
 62
1
 10
73.813402
 20
140.669873
 11
73.813402
 21
140.000000
  0
LINE
  8
0
  6
CONTINUOUS
 62
1
 10
73.813402
 20
140.000000
 11
75.572221
 21
140.471274
  0
LINE
  8
0
  6
CONTINUOUS
 62
1
 10
71.313402
 20
140.550000
 11
71.313402
 21
140.000000
  0
ARC
  8
0
  6
CONTINUOUS
 62
1
 10
75.313402
 20
141.562800
 40
1.000000
 50
0.000000
 51
75.000000
  0
ARC
  8
0
  6
CONTINUOUS
 62
1
 10
75.313402
 20
141.437200
 40
1.000000
 50
285.000000
 51
0.000000
  0
LINE
  8
0
  6
CONTINUOUS
 62
1
 10
67.313402
 20
124.800000
 11
67.313402
 21
123.600000
  0
LINE
  8
0
  6
CONTINUOUS
 62
1
 10
68.713402
 20
124.250000
 11
68.713402
 21
124.800000
  0
LINE
  8
0
  6
CONTINUOUS
 62
1
 10
71.363402
 20
111.650000
 11
71.363402
 21
127.350000
  0
LINE
  8
0
  6
CONTINUOUS
 62
1
 10
69.713402
 20
124.000000
 11
68.963402
 21
124.000000
  0
LINE
  8
0
  6
CONTINUOUS
 62
1
 10
68.963402
 20
131.500000
 11
69.713402
 21
131.500000
  0
LINE
  8
0
  6
CONTINUOUS
 62
1
 10
69.963402
 20
131.250000
 11
69.963402
 21
124.250000
  0
ARC
  8
0
  6
CONTINUOUS
 62
1
 10
68.013402
 20
124.800000
 40
0.700000
 50
0.000000
 51
90.000000
  0
ARC
  8
0
  6
CONTINUOUS
 62
1
 10
68.013402
 20
124.800000
 40
0.700000
 50
90.000000
 51
180.000000
  0
LINE
  8
0
  6
CONTINUOUS
 62
1
 10
67.313402
 20
130.700000
 11
67.313402
 21
142.300000
  0
ARC
  8
0
  6
CONTINUOUS
 62
1
 10
68.013402
 20
130.700000
 40
0.700000
 50
180.000000
 51
270.000000
  0
LINE
  8
0
  6
CONTINUOUS
 62
1
 10
68.713402
 20
131.250000
 11
68.713402
 21
130.700000
  0
ARC
  8
0
  6
CONTINUOUS
 62
1
 10
68.013402
 20
130.700000
 40
0.700000
 50
270.000000
 51
0.000000
  0
LINE
  8
0
  6
CONTINUOUS
 62
1
 10
71.113402
 20
132.900000
 11
68.963402
 21
132.900000
  0
LINE
  8
0
  6
CONTINUOUS
 62
1
 10
68.713402
 20
140.550000
 11
68.713402
 21
133.150000
  0
LINE
  8
0
  6
CONTINUOUS
 62
1
 10
68.313402
 20
122.600000
 11
68.963402
 21
122.600000
  0
LINE
  8
0
  6
CONTINUOUS
 62
1
 10
71.363402
 20
130.000000
 11
71.363402
 21
132.650000
  0
ARC
  8
0
  6
CONTINUOUS
 62
1
 10
68.313402
 20
123.600000
 40
1.000000
 50
180.000000
 51
270.000000
  0
ARC
  8
0
  6
CONTINUOUS
 62
1
 10
44.513402
 20
112.500000
 40
0.250000
 50
90.000000
 51
180.000000
  0
ARC
  8
0
  6
CONTINUOUS
 62
1
 10
49.513402
 20
113.000000
 40
0.250000
 50
270.000000
 51
0.000000
  0
ARC
  8
0
  6
CONTINUOUS
 62
1
 10
50.013402
 20
114.250000
 40
0.250000
 50
90.000000
 51
180.000000
  0
ARC
  8
0
  6
CONTINUOUS
 62
1
 10
51.013402
 20
113.250000
 40
0.250000
 50
90.000000
 51
180.000000
  0
ARC
  8
0
  6
CONTINUOUS
 62
1
 10
51.013402
 20
112.000000
 40
0.250000
 50
180.000000
 51
270.000000
  0
ARC
  8
0
  6
CONTINUOUS
 62
1
 10
58.013402
 20
112.000000
 40
0.250000
 50
270.000000
 51
0.000000
  0
ARC
  8
0
  6
CONTINUOUS
 62
1
 10
58.013402
 20
113.250000
 40
0.250000
 50
0.000000
 51
90.000000
  0
ARC
  8
0
  6
CONTINUOUS
 62
1
 10
59.513402
 20
112.000000
 40
0.250000
 50
180.000000
 51
270.000000
  0
ARC
  8
0
  6
CONTINUOUS
 62
1
 10
68.963402
 20
124.250000
 40
0.250000
 50
180.000000
 51
270.000000
  0
ARC
  8
0
  6
CONTINUOUS
 62
1
 10
69.713402
 20
124.250000
 40
0.250000
 50
270.000000
 51
0.000000
  0
ARC
  8
0
  6
CONTINUOUS
 62
1
 10
69.713402
 20
131.250000
 40
0.250000
 50
0.000000
 51
90.000000
  0
ARC
  8
0
  6
CONTINUOUS
 62
1
 10
68.963402
 20
131.250000
 40
0.250000
 50
90.000000
 51
180.000000
  0
ARC
  8
0
  6
CONTINUOUS
 62
1
 10
71.063402
 20
142.450000
 40
0.250000
 50
270.000000
 51
0.000000
  0
ARC
  8
0
  6
CONTINUOUS
 62
1
 10
71.063402
 20
140.550000
 40
0.250000
 50
0.000000
 51
90.000000
  0
ARC
  8
0
  6
CONTINUOUS
 62
1
 10
68.963402
 20
140.550000
 40
0.250000
 50
90.000000
 51
180.000000
  0
ARC
  8
0
  6
CONTINUOUS
 62
1
 10
68.963402
 20
133.150000
 40
0.250000
 50
180.000000
 51
270.000000
  0
ARC
  8
0
  6
CONTINUOUS
 62
1
 10
71.113402
 20
132.650000
 40
0.250000
 50
0.000000
 51
90.000000
  0
ARC
  8
0
  6
CONTINUOUS
 62
1
 10
97.613402
 20
140.550000
 40
0.250000
 50
0.000000
 51
90.000000
  0
ARC
  8
0
  6
CONTINUOUS
 62
1
 10
95.513402
 20
140.550000
 40
0.250000
 50
90.000000
 51
180.000000
  0
ARC
  8
0
  6
CONTINUOUS
 62
1
 10
95.513402
 20
142.450000
 40
0.250000
 50
180.000000
 51
270.000000
  0
ARC
  8
0
  6
CONTINUOUS
 62
1
 10
91.113402
 20
127.350000
 40
0.250000
 50
0.000000
 51
90.000000
  0
ARC
  8
0
  6
CONTINUOUS
 62
1
 10
71.613402
 20
127.350000
 40
0.250000
 50
90.000000
 51
180.000000
  0
ARC
  8
0
  6
CONTINUOUS
 62
1
 10
71.613402
 20
111.650000
 40
0.250000
 50
180.000000
 51
270.000000
  0
ARC
  8
0
  6
CONTINUOUS
 62
1
 10
91.113402
 20
111.650000
 40
0.250000
 50
270.000000
 51
0.000000
  0
ARC
  8
0
  6
CONTINUOUS
 62
1
 10
59.013402
 20
114.250000
 40
0.250000
 50
0.000000
 51
90.000000
  0
LINE
  8
0
  6
CONTINUOUS
 62
1
 10
69.963402
 20
121.600000
 11
69.963402
 21
112.750000
  0
ARC
  8
0
  6
CONTINUOUS
 62
1
 10
68.963402
 20
112.750000
 40
1.000000
 50
270.000000
 51
0.000000
  0
ARC
  8
0
  6
CONTINUOUS
 62
1
 10
68.963402
 20
121.600000
 40
1.000000
 50
0.000000
 51
90.000000
  0
ARC
  8
0
  6
CONTINUOUS
 62
1
 10
72.363402
 20
130.000000
 40
1.000000
 50
180.000000
 51
270.000000
  0
LINE
  8
0
  6
CONTINUOUS
 62
1
 10
99.263402
 20
130.108997
 11
99.263402
 21
142.300000
  0
LINE
  8
0
  6
CONTINUOUS
 62
1
 10
92.763402
 20
120.200000
 11
92.763402
 21
126.832673
  0
LINE
  8
0
  6
CONTINUOUS
 62
1
 10
97.863402
 20
140.550000
 11
97.863402
 21
131.183255
  0
LINE
  8
0
  6
CONTINUOUS
 62
1
 10
93.504583
 20
127.798599
 11
98.522221
 21
129.143071
  0
LINE
  8
0
  6
CONTINUOUS
 62
1
 10
97.122221
 20
130.217329
 11
92.579089
 21
129.000000
  0
ARC
  8
0
  6
CONTINUOUS
 62
1
 10
93.763402
 20
126.832673
 40
1.000000
 50
105.000000
 51
180.000000
  0
ARC
  8
0
  6
CONTINUOUS
 62
1
 10
98.263402
 20
130.108997
 40
1.000000
 50
285.000000
 51
0.000000
  0
ARC
  8
0
  6
CONTINUOUS
 62
1
 10
96.863402
 20
131.183255
 40
1.000000
 50
285.000000
 51
0.000000
  0
LINE
  8
0
  6
CONTINUOUS
 62
1
 10
67.263402
 20
71.375000
 11
67.263402
 21
93.125000
  0
LINE
  8
0
  6
CONTINUOUS
 62
1
 10
69.263402
 20
95.125000
 11
97.263402
 21
95.125000
  0
LINE
  8
0
  6
CONTINUOUS
 62
1
 10
99.263402
 20
93.125000
 11
99.263402
 21
71.375000
  0
LINE
  8
0
  6
CONTINUOUS
 62
1
 10
99.013402
 20
71.125000
 11
89.513402
 21
71.125000
  0
LINE
  8
0
  6
CONTINUOUS
 62
1
 10
89.263402
 20
70.875000
 11
89.263402
 21
68.125000
  0
LINE
  8
0
  6
CONTINUOUS
 62
1
 10
89.513402
 20
67.875000
 11
97.263402
 21
67.875000
  0
LINE
  8
0
  6
CONTINUOUS
 62
1
 10
95.513402
 20
62.875000
 11
71.013402
 21
62.875000
  0
LINE
  8
0
  6
CONTINUOUS
 62
1
 10
97.513402
 20
67.625000
 11
97.513402
 21
64.875000
  0
LINE
  8
0
  6
CONTINUOUS
 62
1
 10
77.263402
 20
68.125000
 11
77.263402
 21
70.875000
  0
LINE
  8
0
  6
CONTINUOUS
 62
1
 10
77.013402
 20
71.125000
 11
67.513402
 21
71.125000
  0
LINE
  8
0
  6
CONTINUOUS
 62
1
 10
77.013402
 20
67.875000
 11
69.263402
 21
67.875000
  0
LINE
  8
0
  6
CONTINUOUS
 62
1
 10
69.013402
 20
67.625000
 11
69.013402
 21
64.875000
  0
ARC
  8
0
  6
CONTINUOUS
 62
1
 10
69.263402
 20
93.125000
 40
2.000000
 50
90.000000
 51
180.000000
  0
ARC
  8
0
  6
CONTINUOUS
 62
1
 10
97.263402
 20
93.125000
 40
2.000000
 50
0.000000
 51
90.000000
  0
ARC
  8
0
  6
CONTINUOUS
 62
1
 10
99.013402
 20
71.375000
 40
0.250000
 50
270.000000
 51
0.000000
  0
ARC
  8
0
  6
CONTINUOUS
 62
1
 10
89.513402
 20
70.875000
 40
0.250000
 50
90.000000
 51
180.000000
  0
ARC
  8
0
  6
CONTINUOUS
 62
1
 10
89.513402
 20
68.125000
 40
0.250000
 50
180.000000
 51
270.000000
  0
ARC
  8
0
  6
CONTINUOUS
 62
1
 10
97.263402
 20
67.625000
 40
0.250000
 50
0.000000
 51
90.000000
  0
ARC
  8
0
  6
CONTINUOUS
 62
1
 10
69.263402
 20
67.625000
 40
0.250000
 50
90.000000
 51
180.000000
  0
ARC
  8
0
  6
CONTINUOUS
 62
1
 10
77.013402
 20
68.125000
 40
0.250000
 50
270.000000
 51
0.000000
  0
ARC
  8
0
  6
CONTINUOUS
 62
1
 10
77.013402
 20
70.875000
 40
0.250000
 50
0.000000
 51
90.000000
  0
ARC
  8
0
  6
CONTINUOUS
 62
1
 10
67.513402
 20
71.375000
 40
0.250000
 50
180.000000
 51
270.000000
  0
ARC
  8
0
  6
RANDOM
 62
1
 10
67.263402
 20
63.125000
 40
15.000000
 50
0.000000
 51
90.000000
  0
ARC
  8
0
  6
RANDOM
 62
1
 10
67.263402
 20
63.125000
 40
20.000000
 50
0.000000
 51
90.000000
  0
ARC
  8
0
  6
RANDOM
 62
1
 10
67.263402
 20
63.125000
 40
30.000000
 50
15.466010
 51
90.000000
  0
ARC
  8
0
  6
RANDOM
 62
1
 10
67.263402
 20
63.125000
 40
35.000000
 50
23.895508
 51
66.104492
  0
ARC
  8
0
  6
RANDOM
 62
1
 10
66.513402
 20
62.875000
 40
5.000000
 50
0.000000
 51
60.000000
  0
ARC
  8
0
  6
RANDOM
 62
1
 10
67.263402
 20
63.125000
 40
40.000000
 50
36.869898
 51
53.130102
  0
ARC
  8
0
  6
RANDOM
 62
1
 10
67.263402
 20
62.875000
 40
25.000000
 50
0.000000
 51
11.536959
  0
ARC
  8
0
  6
RANDOM
 62
1
 10
67.263402
 20
63.125000
 40
25.000000
 50
18.662925
 51
90.000000
  0
ARC
  8
0
  6
RANDOM
 62
1
 10
68.263402
 20
62.875000
 40
10.000000
 50
0.000000
 51
30.000000
  0
ARC
  8
0
  6
RANDOM
 62
1
 10
67.263402
 20
63.125000
 40
10.000000
 50
53.130102
 51
90.000000
  0
ARC
  8
0
  6
CONTINUOUS
 62
1
 10
95.513402
 20
64.875000
 40
2.000000
 50
270.000000
 51
0.000000
  0
ARC
  8
0
  6
CONTINUOUS
 62
1
 10
71.013402
 20
64.875000
 40
2.000000
 50
180.000000
 51
270.000000
  0
LINE
  8
0
  6
CONTINUOUS
 62
1
 10
45.263402
 20
35.000000
 11
98.263402
 21
35.000000
  0
LINE
  8
0
  6
CONTINUOUS
 62
1
 10
49.763402
 20
38.000000
 11
49.763402
 21
39.250000
  0
LINE
  8
0
  6
CONTINUOUS
 62
1
 10
44.263402
 20
36.000000
 11
44.263402
 21
37.500000
  0
LINE
  8
0
  6
CONTINUOUS
 62
1
 10
44.513402
 20
37.750000
 11
49.513402
 21
37.750000
  0
LINE
  8
0
  6
CONTINUOUS
 62
1
 10
50.013402
 20
39.500000
 11
50.763402
 21
39.500000
  0
LINE
  8
0
  6
CONTINUOUS
 62
1
 10
51.763402
 20
38.500000
 11
51.013402
 21
38.500000
  0
LINE
  8
0
  6
CONTINUOUS
 62
1
 10
50.763402
 20
38.250000
 11
50.763402
 21
37.000000
  0
LINE
  8
0
  6
CONTINUOUS
 62
1
 10
51.013402
 20
36.750000
 11
58.013402
 21
36.750000
  0
LINE
  8
0
  6
CONTINUOUS
 62
1
 10
58.263402
 20
37.000000
 11
58.263402
 21
38.250000
  0
LINE
  8
0
  6
CONTINUOUS
 62
1
 10
58.013402
 20
38.500000
 11
57.263402
 21
38.500000
  0
LINE
  8
0
  6
CONTINUOUS
 62
1
 10
58.263402
 20
39.500000
 11
59.263402
 21
39.500000
  0
LINE
  8
0
  6
CONTINUOUS
 62
1
 10
59.263402
 20
38.000000
 11
59.263402
 21
37.000000
  0
LINE
  8
0
  6
CONTINUOUS
 62
1
 10
97.863402
 20
52.350000
 11
97.863402
 21
36.650000
  0
LINE
  8
0
  6
CONTINUOUS
 62
1
 10
97.613402
 20
36.400000
 11
78.313402
 21
36.400000
  0
LINE
  8
0
  6
CONTINUOUS
 62
1
 10
96.863402
 20
54.000000
 11
77.663402
 21
54.000000
  0
LINE
  8
0
  6
CONTINUOUS
 62
1
 10
78.313402
 20
52.600000
 11
97.613402
 21
52.600000
  0
LINE
  8
0
  6
CONTINUOUS
 62
1
 10
99.063402
 20
45.000000
 11
99.263402
 21
45.200000
  0
LINE
  8
0
  6
CONTINUOUS
 62
1
 10
99.263402
 20
36.000000
 11
99.263402
 21
44.800000
  0
LINE
  8
0
  6
CONTINUOUS
 62
1
 10
99.263402
 20
45.200000
 11
99.263402
 21
70.300000
  0
LINE
  8
0
  6
CONTINUOUS
 62
1
 10
99.063402
 20
45.000000
 11
99.263402
 21
44.800000
  0
LINE
  8
0
  6
CONTINUOUS
 62
1
 10
95.513402
 20
70.200000
 11
97.863402
 21
70.200000
  0
LINE
  8
0
  6
CONTINUOUS
 62
1
 10
97.613402
 20
68.800000
 11
95.513402
 21
68.800000
  0
ARC
  8
0
  6
CONTINUOUS
 62
1
 10
98.563402
 20
70.300000
 40
0.700000
 50
0.000000
 51
90.000000
  0
ARC
  8
0
  6
CONTINUOUS
 62
1
 10
98.563402
 20
70.300000
 40
0.700000
 50
90.000000
 51
180.000000
  0
LINE
  8
0
  6
CONTINUOUS
 62
1
 10
90.263402
 20
69.562800
 11
90.263402
 21
69.437200
  0
LINE
  8
0
  6
CONTINUOUS
 62
1
 10
92.763402
 20
70.330127
 11
92.763402
 21
71.000000
  0
LINE
  8
0
  6
CONTINUOUS
 62
1
 10
95.263402
 20
71.000000
 11
95.263402
 21
70.450000
  0
LINE
  8
0
  6
CONTINUOUS
 62
1
 10
97.863402
 20
70.300000
 11
97.863402
 21
70.200000
  0
LINE
  8
0
  6
CONTINUOUS
 62
1
 10
97.863402
 20
68.550000
 11
97.863402
 21
55.000000
  0
LINE
  8
0
  6
CONTINUOUS
 62
1
 10
95.263402
 20
71.000000
 11
92.763402
 21
70.330127
  0
LINE
  8
0
  6
CONTINUOUS
 62
1
 10
92.763402
 20
71.000000
 11
91.004583
 21
70.528726
  0
LINE
  8
0
  6
CONTINUOUS
 62
1
 10
95.263402
 20
68.000000
 11
92.763402
 21
68.669873
  0
LINE
  8
0
  6
CONTINUOUS
 62
1
 10
92.763402
 20
68.669873
 11
92.763402
 21
68.000000
  0
LINE
  8
0
  6
CONTINUOUS
 62
1
 10
92.763402
 20
68.000000
 11
91.004583
 21
68.471274
  0
LINE
  8
0
  6
CONTINUOUS
 62
1
 10
95.263402
 20
68.550000
 11
95.263402
 21
68.000000
  0
LINE
  8
0
  6
CONTINUOUS
 62
1
 10
59.513402
 20
36.750000
 11
76.413402
 21
36.750000
  0
ARC
  8
0
  6
CONTINUOUS
 62
1
 10
45.263402
 20
36.000000
 40
1.000000
 50
180.000000
 51
270.000000
  0
ARC
  8
0
  6
CONTINUOUS
 62
1
 10
50.763402
 20
38.500000
 40
1.000000
 50
0.000000
 51
90.000000
  0
ARC
  8
0
  6
CONTINUOUS
 62
1
 10
58.263402
 20
38.500000
 40
1.000000
 50
90.000000
 51
180.000000
  0
ARC
  8
0
  6
CONTINUOUS
 62
1
 10
98.263402
 20
36.000000
 40
1.000000
 50
270.000000
 51
0.000000
  0
ARC
  8
0
  6
CONTINUOUS
 62
1
 10
96.863402
 20
55.000000
 40
1.000000
 50
270.000000
 51
0.000000
  0
ARC
  8
0
  6
CONTINUOUS
 62
1
 10
91.263402
 20
69.562800
 40
1.000000
 50
105.000000
 51
180.000000
  0
ARC
  8
0
  6
CONTINUOUS
 62
1
 10
91.263402
 20
69.437200
 40
1.000000
 50
180.000000
 51
255.000000
  0
LINE
  8
0
  6
CONTINUOUS
 62
1
 10
71.013402
 20
70.200000
 11
68.663402
 21
70.200000
  0
LINE
  8
0
  6
CONTINUOUS
 62
1
 10
68.913402
 20
68.800000
 11
71.013402
 21
68.800000
  0
ARC
  8
0
  6
CONTINUOUS
 62
1
 10
67.963402
 20
70.300000
 40
0.700000
 50
90.000000
 51
180.000000
  0
ARC
  8
0
  6
CONTINUOUS
 62
1
 10
67.963402
 20
70.300000
 40
0.700000
 50
0.000000
 51
90.000000
  0
LINE
  8
0
  6
CONTINUOUS
 62
1
 10
76.263402
 20
69.562800
 11
76.263402
 21
69.437200
  0
LINE
  8
0
  6
CONTINUOUS
 62
1
 10
73.763402
 20
70.330127
 11
73.763402
 21
71.000000
  0
LINE
  8
0
  6
CONTINUOUS
 62
1
 10
71.263402
 20
71.000000
 11
71.263402
 21
70.450000
  0
LINE
  8
0
  6
CONTINUOUS
 62
1
 10
68.663402
 20
70.300000
 11
68.663402
 21
70.200000
  0
LINE
  8
0
  6
CONTINUOUS
 62
1
 10
71.263402
 20
71.000000
 11
73.763402
 21
70.330127
  0
LINE
  8
0
  6
CONTINUOUS
 62
1
 10
73.763402
 20
71.000000
 11
75.522221
 21
70.528726
  0
LINE
  8
0
  6
CONTINUOUS
 62
1
 10
71.263402
 20
68.000000
 11
73.763402
 21
68.669873
  0
LINE
  8
0
  6
CONTINUOUS
 62
1
 10
73.763402
 20
68.669873
 11
73.763402
 21
68.000000
  0
LINE
  8
0
  6
CONTINUOUS
 62
1
 10
73.763402
 20
68.000000
 11
75.522221
 21
68.471274
  0
LINE
  8
0
  6
CONTINUOUS
 62
1
 10
71.263402
 20
68.550000
 11
71.263402
 21
68.000000
  0
ARC
  8
0
  6
CONTINUOUS
 62
1
 10
75.263402
 20
69.562800
 40
1.000000
 50
0.000000
 51
75.000000
  0
ARC
  8
0
  6
CONTINUOUS
 62
1
 10
75.263402
 20
69.437200
 40
1.000000
 50
285.000000
 51
0.000000
  0
LINE
  8
0
  6
CONTINUOUS
 62
1
 10
67.263402
 20
49.800000
 11
67.263402
 21
48.600000
  0
LINE
  8
0
  6
CONTINUOUS
 62
1
 10
68.663402
 20
49.250000
 11
68.663402
 21
49.800000
  0
LINE
  8
0
  6
CONTINUOUS
 62
1
 10
78.063402
 20
36.650000
 11
78.063402
 21
52.350000
  0
LINE
  8
0
  6
CONTINUOUS
 62
1
 10
69.663402
 20
49.000000
 11
68.913402
 21
49.000000
  0
LINE
  8
0
  6
CONTINUOUS
 62
1
 10
68.913402
 20
56.500000
 11
69.663402
 21
56.500000
  0
LINE
  8
0
  6
CONTINUOUS
 62
1
 10
69.913402
 20
56.250000
 11
69.913402
 21
49.250000
  0
ARC
  8
0
  6
CONTINUOUS
 62
1
 10
67.963402
 20
49.800000
 40
0.700000
 50
0.000000
 51
90.000000
  0
ARC
  8
0
  6
CONTINUOUS
 62
1
 10
67.963402
 20
49.800000
 40
0.700000
 50
90.000000
 51
180.000000
  0
LINE
  8
0
  6
CONTINUOUS
 62
1
 10
67.263402
 20
55.700000
 11
67.263402
 21
70.300000
  0
ARC
  8
0
  6
CONTINUOUS
 62
1
 10
67.963402
 20
55.700000
 40
0.700000
 50
180.000000
 51
270.000000
  0
LINE
  8
0
  6
CONTINUOUS
 62
1
 10
68.663402
 20
56.250000
 11
68.663402
 21
55.700000
  0
ARC
  8
0
  6
CONTINUOUS
 62
1
 10
67.963402
 20
55.700000
 40
0.700000
 50
270.000000
 51
0.000000
  0
LINE
  8
0
  6
CONTINUOUS
 62
1
 10
71.063402
 20
57.900000
 11
68.913402
 21
57.900000
  0
LINE
  8
0
  6
CONTINUOUS
 62
1
 10
68.663402
 20
68.550000
 11
68.663402
 21
58.150000
  0
LINE
  8
0
  6
CONTINUOUS
 62
1
 10
68.263402
 20
47.600000
 11
75.663402
 21
47.600000
  0
LINE
  8
0
  6
CONTINUOUS
 62
1
 10
71.313402
 20
50.000000
 11
71.313402
 21
57.650000
  0
LINE
  8
0
  6
CONTINUOUS
 62
1
 10
75.663402
 20
49.000000
 11
72.313402
 21
49.000000
  0
ARC
  8
0
  6
CONTINUOUS
 62
1
 10
68.263402
 20
48.600000
 40
1.000000
 50
180.000000
 51
270.000000
  0
ARC
  8
0
  6
CONTINUOUS
 62
1
 10
72.313402
 20
50.000000
 40
1.000000
 50
180.000000
 51
270.000000
  0
LINE
  8
0
  6
CONTINUOUS
 62
1
 10
76.413402
 20
38.250000
 11
75.163402
 21
38.250000
  0
LINE
  8
0
  6
CONTINUOUS
 62
1
 10
75.163402
 20
39.250000
 11
76.413402
 21
39.250000
  0
ARC
  8
0
  6
CONTINUOUS
 62
1
 10
75.163402
 20
38.750000
 40
0.500000
 50
180.000000
 51
270.000000
  0
ARC
  8
0
  6
CONTINUOUS
 62
1
 10
75.163402
 20
38.750000
 40
0.500000
 50
90.000000
 51
180.000000
  0
LINE
  8
0
  6
CONTINUOUS
 62
1
 10
76.663402
 20
38.000000
 11
76.663402
 21
37.000000
  0
LINE
  8
0
  6
CONTINUOUS
 62
1
 10
76.663402
 20
53.000000
 11
76.663402
 21
50.000000
  0
LINE
  8
0
  6
CONTINUOUS
 62
1
 10
76.663402
 20
46.600000
 11
76.663402
 21
39.500000
  0
ARC
  8
0
  6
CONTINUOUS
 62
1
 10
75.663402
 20
46.600000
 40
1.000000
 50
0.000000
 51
90.000000
  0
ARC
  8
0
  6
CONTINUOUS
 62
1
 10
75.663402
 20
50.000000
 40
1.000000
 50
270.000000
 51
0.000000
  0
ARC
  8
0
  6
CONTINUOUS
 62
1
 10
77.663402
 20
53.000000
 40
1.000000
 50
90.000000
 51
180.000000
  0
ARC
  8
0
  6
CONTINUOUS
 62
1
 10
44.513402
 20
37.500000
 40
0.250000
 50
90.000000
 51
180.000000
  0
ARC
  8
0
  6
CONTINUOUS
 62
1
 10
49.513402
 20
38.000000
 40
0.250000
 50
270.000000
 51
0.000000
  0
ARC
  8
0
  6
CONTINUOUS
 62
1
 10
50.013402
 20
39.250000
 40
0.250000
 50
90.000000
 51
180.000000
  0
ARC
  8
0
  6
CONTINUOUS
 62
1
 10
51.013402
 20
38.250000
 40
0.250000
 50
90.000000
 51
180.000000
  0
ARC
  8
0
  6
CONTINUOUS
 62
1
 10
51.013402
 20
37.000000
 40
0.250000
 50
180.000000
 51
270.000000
  0
ARC
  8
0
  6
CONTINUOUS
 62
1
 10
58.013402
 20
37.000000
 40
0.250000
 50
270.000000
 51
0.000000
  0
ARC
  8
0
  6
CONTINUOUS
 62
1
 10
58.013402
 20
38.250000
 40
0.250000
 50
0.000000
 51
90.000000
  0
ARC
  8
0
  6
CONTINUOUS
 62
1
 10
59.513402
 20
37.000000
 40
0.250000
 50
180.000000
 51
270.000000
  0
ARC
  8
0
  6
CONTINUOUS
 62
1
 10
76.413402
 20
37.000000
 40
0.250000
 50
270.000000
 51
0.000000
  0
ARC
  8
0
  6
CONTINUOUS
 62
1
 10
76.413402
 20
38.000000
 40
0.250000
 50
0.000000
 51
90.000000
  0
ARC
  8
0
  6
CONTINUOUS
 62
1
 10
76.413402
 20
39.500000
 40
0.250000
 50
270.000000
 51
0.000000
  0
ARC
  8
0
  6
CONTINUOUS
 62
1
 10
68.913402
 20
49.250000
 40
0.250000
 50
180.000000
 51
270.000000
  0
ARC
  8
0
  6
CONTINUOUS
 62
1
 10
69.663402
 20
49.250000
 40
0.250000
 50
270.000000
 51
0.000000
  0
ARC
  8
0
  6
CONTINUOUS
 62
1
 10
69.663402
 20
56.250000
 40
0.250000
 50
0.000000
 51
90.000000
  0
ARC
  8
0
  6
CONTINUOUS
 62
1
 10
68.913402
 20
56.250000
 40
0.250000
 50
90.000000
 51
180.000000
  0
ARC
  8
0
  6
CONTINUOUS
 62
1
 10
71.013402
 20
70.450000
 40
0.250000
 50
270.000000
 51
0.000000
  0
ARC
  8
0
  6
CONTINUOUS
 62
1
 10
71.013402
 20
68.550000
 40
0.250000
 50
0.000000
 51
90.000000
  0
ARC
  8
0
  6
CONTINUOUS
 62
1
 10
68.913402
 20
68.550000
 40
0.250000
 50
90.000000
 51
180.000000
  0
ARC
  8
0
  6
CONTINUOUS
 62
1
 10
68.913402
 20
58.150000
 40
0.250000
 50
180.000000
 51
270.000000
  0
ARC
  8
0
  6
CONTINUOUS
 62
1
 10
71.063402
 20
57.650000
 40
0.250000
 50
0.000000
 51
90.000000
  0
ARC
  8
0
  6
CONTINUOUS
 62
1
 10
97.613402
 20
68.550000
 40
0.250000
 50
0.000000
 51
90.000000
  0
ARC
  8
0
  6
CONTINUOUS
 62
1
 10
95.513402
 20
68.550000
 40
0.250000
 50
90.000000
 51
180.000000
  0
ARC
  8
0
  6
CONTINUOUS
 62
1
 10
95.513402
 20
70.450000
 40
0.250000
 50
180.000000
 51
270.000000
  0
ARC
  8
0
  6
CONTINUOUS
 62
1
 10
97.613402
 20
52.350000
 40
0.250000
 50
0.000000
 51
90.000000
  0
ARC
  8
0
  6
CONTINUOUS
 62
1
 10
78.313402
 20
52.350000
 40
0.250000
 50
90.000000
 51
180.000000
  0
ARC
  8
0
  6
CONTINUOUS
 62
1
 10
78.313402
 20
36.650000
 40
0.250000
 50
180.000000
 51
270.000000
  0
ARC
  8
0
  6
CONTINUOUS
 62
1
 10
97.613402
 20
36.650000
 40
0.250000
 50
270.000000
 51
0.000000
  0
LINE
  8
0
  6
CONTINUOUS
 62
1
 10
60.763402
 20
38.250000
 11
59.513402
 21
38.250000
  0
ARC
  8
0
  6
CONTINUOUS
 62
1
 10
59.513402
 20
38.000000
 40
0.250000
 50
90.000000
 51
180.000000
  0
ARC
  8
0
  6
CONTINUOUS
 62
1
 10
60.763402
 20
38.750000
 40
0.500000
 50
270.000000
 51
0.000000
  0
ARC
  8
0
  6
CONTINUOUS
 62
1
 10
60.763402
 20
38.750000
 40
0.500000
 50
0.000000
 51
90.000000
  0
LINE
  8
0
  6
CONTINUOUS
 62
1
 10
60.763402
 20
39.250000
 11
59.263402
 21
39.500000
  0
LINE
  8
0
  6
CONTINUOUS
 62
1
 10
162.552446
 20
35.000000
 11
238.552446
 21
35.000000
  0
LINE
  8
0
  6
CONTINUOUS
 62
1
 10
167.052446
 20
38.000000
 11
167.052446
 21
39.250000
  0
LINE
  8
0
  6
CONTINUOUS
 62
1
 10
161.552446
 20
36.000000
 11
161.552446
 21
37.500000
  0
LINE
  8
0
  6
CONTINUOUS
 62
1
 10
161.802446
 20
37.750000
 11
166.802446
 21
37.750000
  0
LINE
  8
0
  6
CONTINUOUS
 62
1
 10
167.302446
 20
39.500000
 11
168.052446
 21
39.500000
  0
LINE
  8
0
  6
CONTINUOUS
 62
1
 10
169.052446
 20
38.500000
 11
168.302446
 21
38.500000
  0
LINE
  8
0
  6
CONTINUOUS
 62
1
 10
168.052446
 20
38.250000
 11
168.052446
 21
37.000000
  0
LINE
  8
0
  6
CONTINUOUS
 62
1
 10
168.302446
 20
36.750000
 11
175.302446
 21
36.750000
  0
LINE
  8
0
  6
CONTINUOUS
 62
1
 10
175.552446
 20
37.000000
 11
175.552446
 21
38.250000
  0
LINE
  8
0
  6
CONTINUOUS
 62
1
 10
175.302446
 20
38.500000
 11
174.552446
 21
38.500000
  0
LINE
  8
0
  6
CONTINUOUS
 62
1
 10
175.552446
 20
39.500000
 11
176.302446
 21
39.500000
  0
LINE
  8
0
  6
CONTINUOUS
 62
1
 10
176.552446
 20
39.250000
 11
176.552446
 21
37.000000
  0
LINE
  8
0
  6
CONTINUOUS
 62
1
 10
212.802446
 20
70.200000
 11
215.152446
 21
70.200000
  0
LINE
  8
0
  6
CONTINUOUS
 62
1
 10
214.902446
 20
68.800000
 11
212.802446
 21
68.800000
  0
ARC
  8
0
  6
CONTINUOUS
 62
1
 10
215.852446
 20
70.300000
 40
0.700000
 50
0.000000
 51
90.000000
  0
ARC
  8
0
  6
CONTINUOUS
 62
1
 10
215.852446
 20
70.300000
 40
0.700000
 50
90.000000
 51
180.000000
  0
LINE
  8
0
  6
CONTINUOUS
 62
1
 10
207.552446
 20
69.562800
 11
207.552446
 21
69.437200
  0
LINE
  8
0
  6
CONTINUOUS
 62
1
 10
210.052446
 20
70.330127
 11
210.052446
 21
71.000000
  0
LINE
  8
0
  6
CONTINUOUS
 62
1
 10
212.552446
 20
71.000000
 11
212.552446
 21
70.450000
  0
LINE
  8
0
  6
CONTINUOUS
 62
1
 10
215.152446
 20
70.300000
 11
215.152446
 21
70.200000
  0
LINE
  8
0
  6
CONTINUOUS
 62
1
 10
215.152446
 20
68.550000
 11
215.152446
 21
58.900000
  0
LINE
  8
0
  6
CONTINUOUS
 62
1
 10
212.552446
 20
71.000000
 11
210.052446
 21
70.330127
  0
LINE
  8
0
  6
CONTINUOUS
 62
1
 10
210.052446
 20
71.000000
 11
208.293627
 21
70.528726
  0
LINE
  8
0
  6
CONTINUOUS
 62
1
 10
212.552446
 20
68.000000
 11
210.052446
 21
68.669873
  0
LINE
  8
0
  6
CONTINUOUS
 62
1
 10
210.052446
 20
68.669873
 11
210.052446
 21
68.000000
  0
LINE
  8
0
  6
CONTINUOUS
 62
1
 10
210.052446
 20
68.000000
 11
208.293627
 21
68.471274
  0
LINE
  8
0
  6
CONTINUOUS
 62
1
 10
212.552446
 20
68.550000
 11
212.552446
 21
68.000000
  0
ARC
  8
0
  6
CONTINUOUS
 62
1
 10
162.552446
 20
36.000000
 40
1.000000
 50
180.000000
 51
270.000000
  0
ARC
  8
0
  6
CONTINUOUS
 62
1
 10
168.052446
 20
38.500000
 40
1.000000
 50
0.000000
 51
90.000000
  0
ARC
  8
0
  6
CONTINUOUS
 62
1
 10
175.552446
 20
38.500000
 40
1.000000
 50
90.000000
 51
180.000000
  0
ARC
  8
0
  6
CONTINUOUS
 62
1
 10
208.552446
 20
69.562800
 40
1.000000
 50
105.000000
 51
180.000000
  0
ARC
  8
0
  6
CONTINUOUS
 62
1
 10
208.552446
 20
69.437200
 40
1.000000
 50
180.000000
 51
255.000000
  0
LINE
  8
0
  6
CONTINUOUS
 62
1
 10
188.302446
 20
70.200000
 11
185.952446
 21
70.200000
  0
LINE
  8
0
  6
CONTINUOUS
 62
1
 10
186.202446
 20
68.800000
 11
188.302446
 21
68.800000
  0
ARC
  8
0
  6
CONTINUOUS
 62
1
 10
185.252446
 20
70.300000
 40
0.700000
 50
90.000000
 51
180.000000
  0
ARC
  8
0
  6
CONTINUOUS
 62
1
 10
185.252446
 20
70.300000
 40
0.700000
 50
0.000000
 51
90.000000
  0
LINE
  8
0
  6
CONTINUOUS
 62
1
 10
193.552446
 20
69.562800
 11
193.552446
 21
69.437200
  0
LINE
  8
0
  6
CONTINUOUS
 62
1
 10
191.052446
 20
70.330127
 11
191.052446
 21
71.000000
  0
LINE
  8
0
  6
CONTINUOUS
 62
1
 10
188.552446
 20
71.000000
 11
188.552446
 21
70.450000
  0
LINE
  8
0
  6
CONTINUOUS
 62
1
 10
185.952446
 20
70.300000
 11
185.952446
 21
70.200000
  0
LINE
  8
0
  6
CONTINUOUS
 62
1
 10
188.552446
 20
71.000000
 11
191.052446
 21
70.330127
  0
LINE
  8
0
  6
CONTINUOUS
 62
1
 10
191.052446
 20
71.000000
 11
192.811265
 21
70.528726
  0
LINE
  8
0
  6
CONTINUOUS
 62
1
 10
188.552446
 20
68.000000
 11
191.052446
 21
68.669873
  0
LINE
  8
0
  6
CONTINUOUS
 62
1
 10
191.052446
 20
68.669873
 11
191.052446
 21
68.000000
  0
LINE
  8
0
  6
CONTINUOUS
 62
1
 10
191.052446
 20
68.000000
 11
192.811265
 21
68.471274
  0
LINE
  8
0
  6
CONTINUOUS
 62
1
 10
188.552446
 20
68.550000
 11
188.552446
 21
68.000000
  0
ARC
  8
0
  6
CONTINUOUS
 62
1
 10
192.552446
 20
69.562800
 40
1.000000
 50
0.000000
 51
75.000000
  0
ARC
  8
0
  6
CONTINUOUS
 62
1
 10
192.552446
 20
69.437200
 40
1.000000
 50
285.000000
 51
0.000000
  0
LINE
  8
0
  6
CONTINUOUS
 62
1
 10
184.552446
 20
49.800000
 11
184.552446
 21
48.600000
  0
LINE
  8
0
  6
CONTINUOUS
 62
1
 10
185.952446
 20
49.250000
 11
185.952446
 21
49.800000
  0
LINE
  8
0
  6
CONTINUOUS
 62
1
 10
186.952446
 20
49.000000
 11
186.202446
 21
49.000000
  0
LINE
  8
0
  6
CONTINUOUS
 62
1
 10
186.202446
 20
56.500000
 11
186.952446
 21
56.500000
  0
LINE
  8
0
  6
CONTINUOUS
 62
1
 10
187.202446
 20
56.250000
 11
187.202446
 21
49.250000
  0
ARC
  8
0
  6
CONTINUOUS
 62
1
 10
185.252446
 20
49.800000
 40
0.700000
 50
0.000000
 51
90.000000
  0
ARC
  8
0
  6
CONTINUOUS
 62
1
 10
185.252446
 20
49.800000
 40
0.700000
 50
90.000000
 51
180.000000
  0
LINE
  8
0
  6
CONTINUOUS
 62
1
 10
184.552446
 20
55.700000
 11
184.552446
 21
70.300000
  0
ARC
  8
0
  6
CONTINUOUS
 62
1
 10
185.252446
 20
55.700000
 40
0.700000
 50
180.000000
 51
270.000000
  0
LINE
  8
0
  6
CONTINUOUS
 62
1
 10
185.952446
 20
56.250000
 11
185.952446
 21
55.700000
  0
ARC
  8
0
  6
CONTINUOUS
 62
1
 10
185.252446
 20
55.700000
 40
0.700000
 50
270.000000
 51
0.000000
  0
LINE
  8
0
  6
CONTINUOUS
 62
1
 10
214.152446
 20
57.900000
 11
186.952446
 21
57.900000
  0
LINE
  8
0
  6
CONTINUOUS
 62
1
 10
185.952446
 20
68.550000
 11
185.952446
 21
58.900000
  0
LINE
  8
0
  6
CONTINUOUS
 62
1
 10
185.552446
 20
47.600000
 11
186.252446
 21
47.600000
  0
LINE
  8
0
  6
CONTINUOUS
 62
1
 10
188.602446
 20
49.300000
 11
188.602446
 21
55.500000
  0
ARC
  8
0
  6
CONTINUOUS
 62
1
 10
185.552446
 20
48.600000
 40
1.000000
 50
180.000000
 51
270.000000
  0
ARC
  8
0
  6
CONTINUOUS
 62
1
 10
161.802446
 20
37.500000
 40
0.250000
 50
90.000000
 51
180.000000
  0
ARC
  8
0
  6
CONTINUOUS
 62
1
 10
166.802446
 20
38.000000
 40
0.250000
 50
270.000000
 51
0.000000
  0
ARC
  8
0
  6
CONTINUOUS
 62
1
 10
167.302446
 20
39.250000
 40
0.250000
 50
90.000000
 51
180.000000
  0
ARC
  8
0
  6
CONTINUOUS
 62
1
 10
168.302446
 20
38.250000
 40
0.250000
 50
90.000000
 51
180.000000
  0
ARC
  8
0
  6
CONTINUOUS
 62
1
 10
168.302446
 20
37.000000
 40
0.250000
 50
180.000000
 51
270.000000
  0
ARC
  8
0
  6
CONTINUOUS
 62
1
 10
175.302446
 20
37.000000
 40
0.250000
 50
270.000000
 51
0.000000
  0
ARC
  8
0
  6
CONTINUOUS
 62
1
 10
175.302446
 20
38.250000
 40
0.250000
 50
0.000000
 51
90.000000
  0
ARC
  8
0
  6
CONTINUOUS
 62
1
 10
176.802446
 20
37.000000
 40
0.250000
 50
180.000000
 51
270.000000
  0
ARC
  8
0
  6
CONTINUOUS
 62
1
 10
186.202446
 20
49.250000
 40
0.250000
 50
180.000000
 51
270.000000
  0
ARC
  8
0
  6
CONTINUOUS
 62
1
 10
186.952446
 20
49.250000
 40
0.250000
 50
270.000000
 51
0.000000
  0
ARC
  8
0
  6
CONTINUOUS
 62
1
 10
186.952446
 20
56.250000
 40
0.250000
 50
0.000000
 51
90.000000
  0
ARC
  8
0
  6
CONTINUOUS
 62
1
 10
186.202446
 20
56.250000
 40
0.250000
 50
90.000000
 51
180.000000
  0
ARC
  8
0
  6
CONTINUOUS
 62
1
 10
188.302446
 20
70.450000
 40
0.250000
 50
270.000000
 51
0.000000
  0
ARC
  8
0
  6
CONTINUOUS
 62
1
 10
188.302446
 20
68.550000
 40
0.250000
 50
0.000000
 51
90.000000
  0
ARC
  8
0
  6
CONTINUOUS
 62
1
 10
186.202446
 20
68.550000
 40
0.250000
 50
90.000000
 51
180.000000
  0
ARC
  8
0
  6
CONTINUOUS
 62
1
 10
214.902446
 20
68.550000
 40
0.250000
 50
0.000000
 51
90.000000
  0
ARC
  8
0
  6
CONTINUOUS
 62
1
 10
212.802446
 20
68.550000
 40
0.250000
 50
90.000000
 51
180.000000
  0
ARC
  8
0
  6
CONTINUOUS
 62
1
 10
212.802446
 20
70.450000
 40
0.250000
 50
180.000000
 51
270.000000
  0
ARC
  8
0
  6
CONTINUOUS
 62
1
 10
176.302446
 20
39.250000
 40
0.250000
 50
0.000000
 51
90.000000
  0
LINE
  8
0
  6
CONTINUOUS
 62
1
 10
234.052446
 20
38.000000
 11
234.052446
 21
39.250000
  0
LINE
  8
0
  6
CONTINUOUS
 62
1
 10
239.552446
 20
36.000000
 11
239.552446
 21
37.500000
  0
LINE
  8
0
  6
CONTINUOUS
 62
1
 10
239.302446
 20
37.750000
 11
234.302446
 21
37.750000
  0
LINE
  8
0
  6
CONTINUOUS
 62
1
 10
233.802446
 20
39.500000
 11
233.052446
 21
39.500000
  0
LINE
  8
0
  6
CONTINUOUS
 62
1
 10
232.052446
 20
38.500000
 11
232.802446
 21
38.500000
  0
LINE
  8
0
  6
CONTINUOUS
 62
1
 10
233.052446
 20
38.250000
 11
233.052446
 21
37.000000
  0
LINE
  8
0
  6
CONTINUOUS
 62
1
 10
232.802446
 20
36.750000
 11
225.802446
 21
36.750000
  0
LINE
  8
0
  6
CONTINUOUS
 62
1
 10
225.552446
 20
37.000000
 11
225.552446
 21
38.250000
  0
LINE
  8
0
  6
CONTINUOUS
 62
1
 10
225.802446
 20
38.500000
 11
226.552446
 21
38.500000
  0
LINE
  8
0
  6
CONTINUOUS
 62
1
 10
225.552446
 20
39.500000
 11
224.802446
 21
39.500000
  0
LINE
  8
0
  6
CONTINUOUS
 62
1
 10
224.552446
 20
39.250000
 11
224.552446
 21
37.000000
  0
ARC
  8
0
  6
CONTINUOUS
 62
1
 10
238.552446
 20
36.000000
 40
1.000000
 50
270.000000
 51
0.000000
  0
ARC
  8
0
  6
CONTINUOUS
 62
1
 10
233.052446
 20
38.500000
 40
1.000000
 50
90.000000
 51
180.000000
  0
ARC
  8
0
  6
CONTINUOUS
 62
1
 10
225.552446
 20
38.500000
 40
1.000000
 50
0.000000
 51
90.000000
  0
ARC
  8
0
  6
CONTINUOUS
 62
1
 10
239.302446
 20
37.500000
 40
0.250000
 50
0.000000
 51
90.000000
  0
ARC
  8
0
  6
CONTINUOUS
 62
1
 10
234.302446
 20
38.000000
 40
0.250000
 50
180.000000
 51
270.000000
  0
ARC
  8
0
  6
CONTINUOUS
 62
1
 10
233.802446
 20
39.250000
 40
0.250000
 50
0.000000
 51
90.000000
  0
ARC
  8
0
  6
CONTINUOUS
 62
1
 10
232.802446
 20
38.250000
 40
0.250000
 50
0.000000
 51
90.000000
  0
ARC
  8
0
  6
CONTINUOUS
 62
1
 10
232.802446
 20
37.000000
 40
0.250000
 50
270.000000
 51
0.000000
  0
ARC
  8
0
  6
CONTINUOUS
 62
1
 10
225.802446
 20
37.000000
 40
0.250000
 50
180.000000
 51
270.000000
  0
ARC
  8
0
  6
CONTINUOUS
 62
1
 10
225.802446
 20
38.250000
 40
0.250000
 50
90.000000
 51
180.000000
  0
ARC
  8
0
  6
CONTINUOUS
 62
1
 10
224.302446
 20
37.000000
 40
0.250000
 50
270.000000
 51
0.000000
  0
ARC
  8
0
  6
CONTINUOUS
 62
1
 10
224.802446
 20
39.250000
 40
0.250000
 50
90.000000
 51
180.000000
  0
LINE
  8
0
  6
CONTINUOUS
 62
1
 10
189.602446
 20
56.500000
 11
211.502446
 21
56.500000
  0
ARC
  8
0
  6
CONTINUOUS
 62
1
 10
189.602446
 20
55.500000
 40
1.000000
 50
90.000000
 51
180.000000
  0
ARC
  8
0
  6
CONTINUOUS
 62
1
 10
214.152446
 20
58.900000
 40
1.000000
 50
270.000000
 51
0.000000
  0
ARC
  8
0
  6
CONTINUOUS
 62
1
 10
186.952446
 20
58.900000
 40
1.000000
 50
180.000000
 51
270.000000
  0
LINE
  8
0
  6
CONTINUOUS
 62
1
 10
193.552446
 20
40.700000
 11
193.552446
 21
37.750000
  0
LINE
  8
0
  6
CONTINUOUS
 62
1
 10
176.802446
 20
36.750000
 11
192.552446
 21
36.750000
  0
LINE
  8
0
  6
CONTINUOUS
 62
1
 10
194.952446
 20
37.750000
 11
194.952446
 21
42.459659
  0
LINE
  8
0
  6
CONTINUOUS
 62
1
 10
192.197894
 20
44.050000
 11
194.952446
 21
42.459659
  0
LINE
  8
0
  6
CONTINUOUS
 62
1
 10
192.197894
 20
45.950000
 11
193.410329
 21
46.650000
  0
ARC
  8
0
  6
CONTINUOUS
 62
1
 10
190.552446
 20
45.000000
 40
1.900000
 50
90.000000
 51
330.000000
  0
ARC
  8
0
  6
CONTINUOUS
 62
1
 10
190.552446
 20
45.000000
 40
1.900000
 50
30.000000
 51
90.000000
  0
ARC
  8
0
  6
CONTINUOUS
 62
1
 10
190.552446
 20
45.000000
 40
3.300000
 50
180.000000
 51
270.000000
  0
ARC
  8
0
  6
CONTINUOUS
 62
1
 10
190.552446
 20
45.000000
 40
3.300000
 50
30.000000
 51
90.000000
  0
LINE
  8
0
  6
CONTINUOUS
 62
1
 10
190.552446
 20
41.700000
 11
192.552446
 21
41.700000
  0
LINE
  8
0
  6
CONTINUOUS
 62
1
 10
187.252446
 20
45.000000
 11
187.252446
 21
46.600000
  0
LINE
  8
0
  6
CONTINUOUS
 62
1
 10
190.552446
 20
48.300000
 11
189.602446
 21
48.300000
  0
ARC
  8
0
  6
CONTINUOUS
 62
1
 10
189.602446
 20
49.300000
 40
1.000000
 50
180.000000
 51
270.000000
  0
ARC
  8
0
  6
CONTINUOUS
 62
1
 10
186.252446
 20
46.600000
 40
1.000000
 50
0.000000
 51
90.000000
  0
ARC
  8
0
  6
CONTINUOUS
 62
1
 10
192.552446
 20
40.700000
 40
1.000000
 50
0.000000
 51
90.000000
  0
ARC
  8
0
  6
CONTINUOUS
 62
1
 10
192.552446
 20
37.750000
 40
1.000000
 50
270.000000
 51
0.000000
  0
ARC
  8
0
  6
CONTINUOUS
 62
1
 10
195.952446
 20
37.750000
 40
1.000000
 50
180.000000
 51
270.000000
  0
LINE
  8
0
  6
CONTINUOUS
 62
1
 10
216.552446
 20
49.800000
 11
216.552446
 21
48.600000
  0
LINE
  8
0
  6
CONTINUOUS
 62
1
 10
215.152446
 20
49.250000
 11
215.152446
 21
49.800000
  0
LINE
  8
0
  6
CONTINUOUS
 62
1
 10
214.152446
 20
49.000000
 11
214.902446
 21
49.000000
  0
LINE
  8
0
  6
CONTINUOUS
 62
1
 10
214.902446
 20
56.500000
 11
214.152446
 21
56.500000
  0
LINE
  8
0
  6
CONTINUOUS
 62
1
 10
213.902446
 20
56.250000
 11
213.902446
 21
49.250000
  0
ARC
  8
0
  6
CONTINUOUS
 62
1
 10
215.852446
 20
49.800000
 40
0.700000
 50
90.000000
 51
180.000000
  0
ARC
  8
0
  6
CONTINUOUS
 62
1
 10
215.852446
 20
49.800000
 40
0.700000
 50
0.000000
 51
90.000000
  0
ARC
  8
0
  6
CONTINUOUS
 62
1
 10
215.852446
 20
55.700000
 40
0.700000
 50
270.000000
 51
0.000000
  0
LINE
  8
0
  6
CONTINUOUS
 62
1
 10
215.152446
 20
56.250000
 11
215.152446
 21
55.700000
  0
ARC
  8
0
  6
CONTINUOUS
 62
1
 10
215.852446
 20
55.700000
 40
0.700000
 50
180.000000
 51
270.000000
  0
LINE
  8
0
  6
CONTINUOUS
 62
1
 10
215.552446
 20
47.600000
 11
214.852446
 21
47.600000
  0
LINE
  8
0
  6
CONTINUOUS
 62
1
 10
212.502446
 20
49.300000
 11
212.502446
 21
55.500000
  0
ARC
  8
0
  6
CONTINUOUS
 62
1
 10
215.552446
 20
48.600000
 40
1.000000
 50
270.000000
 51
0.000000
  0
ARC
  8
0
  6
CONTINUOUS
 62
1
 10
214.902446
 20
49.250000
 40
0.250000
 50
270.000000
 51
0.000000
  0
ARC
  8
0
  6
CONTINUOUS
 62
1
 10
214.152446
 20
49.250000
 40
0.250000
 50
180.000000
 51
270.000000
  0
ARC
  8
0
  6
CONTINUOUS
 62
1
 10
214.152446
 20
56.250000
 40
0.250000
 50
90.000000
 51
180.000000
  0
ARC
  8
0
  6
CONTINUOUS
 62
1
 10
214.902446
 20
56.250000
 40
0.250000
 50
0.000000
 51
90.000000
  0
ARC
  8
0
  6
CONTINUOUS
 62
1
 10
211.502446
 20
55.500000
 40
1.000000
 50
0.000000
 51
90.000000
  0
LINE
  8
0
  6
CONTINUOUS
 62
1
 10
207.552446
 20
40.700000
 11
207.552446
 21
37.750000
  0
LINE
  8
0
  6
CONTINUOUS
 62
1
 10
206.152446
 20
37.750000
 11
206.152446
 21
42.459659
  0
LINE
  8
0
  6
CONTINUOUS
 62
1
 10
208.906997
 20
44.050000
 11
206.152446
 21
42.459659
  0
LINE
  8
0
  6
CONTINUOUS
 62
1
 10
208.906997
 20
45.950000
 11
207.694562
 21
46.650000
  0
ARC
  8
0
  6
CONTINUOUS
 62
1
 10
210.552446
 20
45.000000
 40
1.900000
 50
210.000000
 51
90.000000
  0
ARC
  8
0
  6
CONTINUOUS
 62
1
 10
210.552446
 20
45.000000
 40
1.900000
 50
90.000000
 51
150.000000
  0
ARC
  8
0
  6
CONTINUOUS
 62
1
 10
210.552446
 20
45.000000
 40
3.300000
 50
270.000000
 51
0.000000
  0
ARC
  8
0
  6
CONTINUOUS
 62
1
 10
210.552446
 20
45.000000
 40
3.300000
 50
90.000000
 51
150.000000
  0
LINE
  8
0
  6
CONTINUOUS
 62
1
 10
210.552446
 20
41.700000
 11
208.552446
 21
41.700000
  0
LINE
  8
0
  6
CONTINUOUS
 62
1
 10
213.852446
 20
45.000000
 11
213.852446
 21
46.600000
  0
LINE
  8
0
  6
CONTINUOUS
 62
1
 10
210.552446
 20
48.300000
 11
211.502446
 21
48.300000
  0
ARC
  8
0
  6
CONTINUOUS
 62
1
 10
211.502446
 20
49.300000
 40
1.000000
 50
270.000000
 51
0.000000
  0
ARC
  8
0
  6
CONTINUOUS
 62
1
 10
214.852446
 20
46.600000
 40
1.000000
 50
90.000000
 51
180.000000
  0
ARC
  8
0
  6
CONTINUOUS
 62
1
 10
208.552446
 20
40.700000
 40
1.000000
 50
90.000000
 51
180.000000
  0
ARC
  8
0
  6
CONTINUOUS
 62
1
 10
208.552446
 20
37.750000
 40
1.000000
 50
180.000000
 51
270.000000
  0
ARC
  8
0
  6
CONTINUOUS
 62
1
 10
205.152446
 20
37.750000
 40
1.000000
 50
270.000000
 51
0.000000
  0
LINE
  8
0
  6
CONTINUOUS
 62
1
 10
216.552446
 20
55.700000
 11
216.552446
 21
70.300000
  0
LINE
  8
0
  6
CONTINUOUS
 62
1
 10
195.952446
 20
36.750000
 11
205.152446
 21
36.750000
  0
LINE
  8
0
  6
CONTINUOUS
 62
1
 10
208.552446
 20
36.750000
 11
224.302446
 21
36.750000
  0
LINE
  8
0
  6
CONTINUOUS
 62
1
 10
184.552446
 20
71.375000
 11
184.552446
 21
93.125000
  0
LINE
  8
0
  6
CONTINUOUS
 62
1
 10
186.552446
 20
95.125000
 11
214.552446
 21
95.125000
  0
LINE
  8
0
  6
CONTINUOUS
 62
1
 10
216.552446
 20
93.125000
 11
216.552446
 21
71.375000
  0
LINE
  8
0
  6
CONTINUOUS
 62
1
 10
216.302446
 20
71.125000
 11
206.802446
 21
71.125000
  0
LINE
  8
0
  6
CONTINUOUS
 62
1
 10
206.552446
 20
70.875000
 11
206.552446
 21
68.125000
  0
LINE
  8
0
  6
CONTINUOUS
 62
1
 10
206.802446
 20
67.875000
 11
214.552446
 21
67.875000
  0
LINE
  8
0
  6
CONTINUOUS
 62
1
 10
212.802446
 20
62.875000
 11
188.302446
 21
62.875000
  0
LINE
  8
0
  6
CONTINUOUS
 62
1
 10
214.802446
 20
67.625000
 11
214.802446
 21
64.875000
  0
LINE
  8
0
  6
CONTINUOUS
 62
1
 10
194.552446
 20
68.125000
 11
194.552446
 21
70.875000
  0
LINE
  8
0
  6
CONTINUOUS
 62
1
 10
194.302446
 20
71.125000
 11
184.802446
 21
71.125000
  0
LINE
  8
0
  6
CONTINUOUS
 62
1
 10
194.302446
 20
67.875000
 11
186.552446
 21
67.875000
  0
LINE
  8
0
  6
CONTINUOUS
 62
1
 10
186.302446
 20
67.625000
 11
186.302446
 21
64.875000
  0
ARC
  8
0
  6
CONTINUOUS
 62
1
 10
186.552446
 20
93.125000
 40
2.000000
 50
90.000000
 51
180.000000
  0
ARC
  8
0
  6
CONTINUOUS
 62
1
 10
214.552446
 20
93.125000
 40
2.000000
 50
0.000000
 51
90.000000
  0
ARC
  8
0
  6
CONTINUOUS
 62
1
 10
216.302446
 20
71.375000
 40
0.250000
 50
270.000000
 51
0.000000
  0
ARC
  8
0
  6
CONTINUOUS
 62
1
 10
206.802446
 20
70.875000
 40
0.250000
 50
90.000000
 51
180.000000
  0
ARC
  8
0
  6
CONTINUOUS
 62
1
 10
206.802446
 20
68.125000
 40
0.250000
 50
180.000000
 51
270.000000
  0
ARC
  8
0
  6
CONTINUOUS
 62
1
 10
214.552446
 20
67.625000
 40
0.250000
 50
0.000000
 51
90.000000
  0
ARC
  8
0
  6
CONTINUOUS
 62
1
 10
186.552446
 20
67.625000
 40
0.250000
 50
90.000000
 51
180.000000
  0
ARC
  8
0
  6
CONTINUOUS
 62
1
 10
194.302446
 20
68.125000
 40
0.250000
 50
270.000000
 51
0.000000
  0
ARC
  8
0
  6
CONTINUOUS
 62
1
 10
194.302446
 20
70.875000
 40
0.250000
 50
0.000000
 51
90.000000
  0
ARC
  8
0
  6
CONTINUOUS
 62
1
 10
184.802446
 20
71.375000
 40
0.250000
 50
180.000000
 51
270.000000
  0
ARC
  8
0
  6
RANDOM
 62
1
 10
184.552446
 20
63.125000
 40
15.000000
 50
0.000000
 51
90.000000
  0
ARC
  8
0
  6
RANDOM
 62
1
 10
184.552446
 20
63.125000
 40
20.000000
 50
0.000000
 51
90.000000
  0
ARC
  8
0
  6
RANDOM
 62
1
 10
184.552446
 20
63.125000
 40
30.000000
 50
15.466010
 51
90.000000
  0
ARC
  8
0
  6
RANDOM
 62
1
 10
184.552446
 20
63.125000
 40
35.000000
 50
23.895508
 51
66.104492
  0
ARC
  8
0
  6
RANDOM
 62
1
 10
183.802446
 20
62.875000
 40
5.000000
 50
0.000000
 51
60.000000
  0
ARC
  8
0
  6
RANDOM
 62
1
 10
184.552446
 20
63.125000
 40
40.000000
 50
36.869898
 51
53.130102
  0
ARC
  8
0
  6
RANDOM
 62
1
 10
184.552446
 20
62.875000
 40
25.000000
 50
0.000000
 51
11.536959
  0
ARC
  8
0
  6
RANDOM
 62
1
 10
184.552446
 20
63.125000
 40
25.000000
 50
18.662925
 51
90.000000
  0
ARC
  8
0
  6
RANDOM
 62
1
 10
185.552446
 20
62.875000
 40
10.000000
 50
0.000000
 51
30.000000
  0
ARC
  8
0
  6
RANDOM
 62
1
 10
184.552446
 20
63.125000
 40
10.000000
 50
53.130102
 51
90.000000
  0
ARC
  8
0
  6
CONTINUOUS
 62
1
 10
212.802446
 20
64.875000
 40
2.000000
 50
270.000000
 51
0.000000
  0
ARC
  8
0
  6
CONTINUOUS
 62
1
 10
188.302446
 20
64.875000
 40
2.000000
 50
180.000000
 51
270.000000
  0
LINE
  8
0
  6
CONTINUOUS
 62
1
 10
162.552446
 20
110.000000
 11
238.552446
 21
110.000000
  0
LINE
  8
0
  6
CONTINUOUS
 62
1
 10
167.052446
 20
113.000000
 11
167.052446
 21
114.250000
  0
LINE
  8
0
  6
CONTINUOUS
 62
1
 10
161.552446
 20
111.000000
 11
161.552446
 21
112.500000
  0
LINE
  8
0
  6
CONTINUOUS
 62
1
 10
161.802446
 20
112.750000
 11
166.802446
 21
112.750000
  0
LINE
  8
0
  6
CONTINUOUS
 62
1
 10
167.302446
 20
114.500000
 11
168.052446
 21
114.500000
  0
LINE
  8
0
  6
CONTINUOUS
 62
1
 10
169.052446
 20
113.500000
 11
168.302446
 21
113.500000
  0
LINE
  8
0
  6
CONTINUOUS
 62
1
 10
168.052446
 20
113.250000
 11
168.052446
 21
112.000000
  0
LINE
  8
0
  6
CONTINUOUS
 62
1
 10
168.302446
 20
111.750000
 11
175.302446
 21
111.750000
  0
LINE
  8
0
  6
CONTINUOUS
 62
1
 10
175.552446
 20
112.000000
 11
175.552446
 21
113.250000
  0
LINE
  8
0
  6
CONTINUOUS
 62
1
 10
175.302446
 20
113.500000
 11
174.552446
 21
113.500000
  0
LINE
  8
0
  6
CONTINUOUS
 62
1
 10
175.552446
 20
114.500000
 11
176.302446
 21
114.500000
  0
LINE
  8
0
  6
CONTINUOUS
 62
1
 10
176.552446
 20
114.250000
 11
176.552446
 21
112.000000
  0
LINE
  8
0
  6
CONTINUOUS
 62
1
 10
212.802446
 20
140.200000
 11
215.152446
 21
140.200000
  0
LINE
  8
0
  6
CONTINUOUS
 62
1
 10
214.902446
 20
138.800000
 11
212.802446
 21
138.800000
  0
ARC
  8
0
  6
CONTINUOUS
 62
1
 10
215.852446
 20
140.300000
 40
0.700000
 50
0.000000
 51
90.000000
  0
ARC
  8
0
  6
CONTINUOUS
 62
1
 10
215.852446
 20
140.300000
 40
0.700000
 50
90.000000
 51
180.000000
  0
LINE
  8
0
  6
CONTINUOUS
 62
1
 10
207.552446
 20
139.562800
 11
207.552446
 21
139.437200
  0
LINE
  8
0
  6
CONTINUOUS
 62
1
 10
210.052446
 20
140.330127
 11
210.052446
 21
141.000000
  0
LINE
  8
0
  6
CONTINUOUS
 62
1
 10
212.552446
 20
141.000000
 11
212.552446
 21
140.450000
  0
LINE
  8
0
  6
CONTINUOUS
 62
1
 10
215.152446
 20
140.300000
 11
215.152446
 21
140.200000
  0
LINE
  8
0
  6
CONTINUOUS
 62
1
 10
215.152446
 20
138.550000
 11
215.152446
 21
133.900000
  0
LINE
  8
0
  6
CONTINUOUS
 62
1
 10
212.552446
 20
141.000000
 11
210.052446
 21
140.330127
  0
LINE
  8
0
  6
CONTINUOUS
 62
1
 10
210.052446
 20
141.000000
 11
208.293627
 21
140.528726
  0
LINE
  8
0
  6
CONTINUOUS
 62
1
 10
212.552446
 20
138.000000
 11
210.052446
 21
138.669873
  0
LINE
  8
0
  6
CONTINUOUS
 62
1
 10
210.052446
 20
138.669873
 11
210.052446
 21
138.000000
  0
LINE
  8
0
  6
CONTINUOUS
 62
1
 10
210.052446
 20
138.000000
 11
208.293627
 21
138.471274
  0
LINE
  8
0
  6
CONTINUOUS
 62
1
 10
212.552446
 20
138.550000
 11
212.552446
 21
138.000000
  0
ARC
  8
0
  6
CONTINUOUS
 62
1
 10
162.552446
 20
111.000000
 40
1.000000
 50
180.000000
 51
270.000000
  0
ARC
  8
0
  6
CONTINUOUS
 62
1
 10
168.052446
 20
113.500000
 40
1.000000
 50
0.000000
 51
90.000000
  0
ARC
  8
0
  6
CONTINUOUS
 62
1
 10
175.552446
 20
113.500000
 40
1.000000
 50
90.000000
 51
180.000000
  0
ARC
  8
0
  6
CONTINUOUS
 62
1
 10
208.552446
 20
139.562800
 40
1.000000
 50
105.000000
 51
180.000000
  0
ARC
  8
0
  6
CONTINUOUS
 62
1
 10
208.552446
 20
139.437200
 40
1.000000
 50
180.000000
 51
255.000000
  0
LINE
  8
0
  6
CONTINUOUS
 62
1
 10
188.302446
 20
140.200000
 11
185.952446
 21
140.200000
  0
LINE
  8
0
  6
CONTINUOUS
 62
1
 10
186.202446
 20
138.800000
 11
188.302446
 21
138.800000
  0
ARC
  8
0
  6
CONTINUOUS
 62
1
 10
185.252446
 20
140.300000
 40
0.700000
 50
90.000000
 51
180.000000
  0
ARC
  8
0
  6
CONTINUOUS
 62
1
 10
185.252446
 20
140.300000
 40
0.700000
 50
0.000000
 51
90.000000
  0
LINE
  8
0
  6
CONTINUOUS
 62
1
 10
193.552446
 20
139.562800
 11
193.552446
 21
139.437200
  0
LINE
  8
0
  6
CONTINUOUS
 62
1
 10
191.052446
 20
140.330127
 11
191.052446
 21
141.000000
  0
LINE
  8
0
  6
CONTINUOUS
 62
1
 10
188.552446
 20
141.000000
 11
188.552446
 21
140.450000
  0
LINE
  8
0
  6
CONTINUOUS
 62
1
 10
185.952446
 20
140.300000
 11
185.952446
 21
140.200000
  0
LINE
  8
0
  6
CONTINUOUS
 62
1
 10
188.552446
 20
141.000000
 11
191.052446
 21
140.330127
  0
LINE
  8
0
  6
CONTINUOUS
 62
1
 10
191.052446
 20
141.000000
 11
192.811265
 21
140.528726
  0
LINE
  8
0
  6
CONTINUOUS
 62
1
 10
188.552446
 20
138.000000
 11
191.052446
 21
138.669873
  0
LINE
  8
0
  6
CONTINUOUS
 62
1
 10
191.052446
 20
138.669873
 11
191.052446
 21
138.000000
  0
LINE
  8
0
  6
CONTINUOUS
 62
1
 10
191.052446
 20
138.000000
 11
192.811265
 21
138.471274
  0
LINE
  8
0
  6
CONTINUOUS
 62
1
 10
188.552446
 20
138.550000
 11
188.552446
 21
138.000000
  0
ARC
  8
0
  6
CONTINUOUS
 62
1
 10
192.552446
 20
139.562800
 40
1.000000
 50
0.000000
 51
75.000000
  0
ARC
  8
0
  6
CONTINUOUS
 62
1
 10
192.552446
 20
139.437200
 40
1.000000
 50
285.000000
 51
0.000000
  0
LINE
  8
0
  6
CONTINUOUS
 62
1
 10
184.552446
 20
124.800000
 11
184.552446
 21
123.600000
  0
LINE
  8
0
  6
CONTINUOUS
 62
1
 10
185.952446
 20
124.250000
 11
185.952446
 21
124.800000
  0
LINE
  8
0
  6
CONTINUOUS
 62
1
 10
186.952446
 20
124.000000
 11
186.202446
 21
124.000000
  0
LINE
  8
0
  6
CONTINUOUS
 62
1
 10
186.202446
 20
131.500000
 11
186.952446
 21
131.500000
  0
LINE
  8
0
  6
CONTINUOUS
 62
1
 10
187.202446
 20
131.250000
 11
187.202446
 21
124.250000
  0
ARC
  8
0
  6
CONTINUOUS
 62
1
 10
185.252446
 20
124.800000
 40
0.700000
 50
0.000000
 51
90.000000
  0
ARC
  8
0
  6
CONTINUOUS
 62
1
 10
185.252446
 20
124.800000
 40
0.700000
 50
90.000000
 51
180.000000
  0
LINE
  8
0
  6
CONTINUOUS
 62
1
 10
184.552446
 20
130.700000
 11
184.552446
 21
140.300000
  0
ARC
  8
0
  6
CONTINUOUS
 62
1
 10
185.252446
 20
130.700000
 40
0.700000
 50
180.000000
 51
270.000000
  0
LINE
  8
0
  6
CONTINUOUS
 62
1
 10
185.952446
 20
131.250000
 11
185.952446
 21
130.700000
  0
ARC
  8
0
  6
CONTINUOUS
 62
1
 10
185.252446
 20
130.700000
 40
0.700000
 50
270.000000
 51
0.000000
  0
LINE
  8
0
  6
CONTINUOUS
 62
1
 10
185.952446
 20
138.550000
 11
185.952446
 21
133.900000
  0
LINE
  8
0
  6
CONTINUOUS
 62
1
 10
185.552446
 20
122.600000
 11
186.202446
 21
122.600000
  0
LINE
  8
0
  6
CONTINUOUS
 62
1
 10
188.602446
 20
130.000000
 11
188.602446
 21
131.900000
  0
ARC
  8
0
  6
CONTINUOUS
 62
1
 10
185.552446
 20
123.600000
 40
1.000000
 50
180.000000
 51
270.000000
  0
ARC
  8
0
  6
CONTINUOUS
 62
1
 10
161.802446
 20
112.500000
 40
0.250000
 50
90.000000
 51
180.000000
  0
ARC
  8
0
  6
CONTINUOUS
 62
1
 10
166.802446
 20
113.000000
 40
0.250000
 50
270.000000
 51
0.000000
  0
ARC
  8
0
  6
CONTINUOUS
 62
1
 10
167.302446
 20
114.250000
 40
0.250000
 50
90.000000
 51
180.000000
  0
ARC
  8
0
  6
CONTINUOUS
 62
1
 10
168.302446
 20
113.250000
 40
0.250000
 50
90.000000
 51
180.000000
  0
ARC
  8
0
  6
CONTINUOUS
 62
1
 10
168.302446
 20
112.000000
 40
0.250000
 50
180.000000
 51
270.000000
  0
ARC
  8
0
  6
CONTINUOUS
 62
1
 10
175.302446
 20
112.000000
 40
0.250000
 50
270.000000
 51
0.000000
  0
ARC
  8
0
  6
CONTINUOUS
 62
1
 10
175.302446
 20
113.250000
 40
0.250000
 50
0.000000
 51
90.000000
  0
ARC
  8
0
  6
CONTINUOUS
 62
1
 10
176.802446
 20
112.000000
 40
0.250000
 50
180.000000
 51
270.000000
  0
ARC
  8
0
  6
CONTINUOUS
 62
1
 10
186.202446
 20
124.250000
 40
0.250000
 50
180.000000
 51
270.000000
  0
ARC
  8
0
  6
CONTINUOUS
 62
1
 10
186.952446
 20
124.250000
 40
0.250000
 50
270.000000
 51
0.000000
  0
ARC
  8
0
  6
CONTINUOUS
 62
1
 10
186.952446
 20
131.250000
 40
0.250000
 50
0.000000
 51
90.000000
  0
ARC
  8
0
  6
CONTINUOUS
 62
1
 10
186.202446
 20
131.250000
 40
0.250000
 50
90.000000
 51
180.000000
  0
ARC
  8
0
  6
CONTINUOUS
 62
1
 10
188.302446
 20
140.450000
 40
0.250000
 50
270.000000
 51
0.000000
  0
ARC
  8
0
  6
CONTINUOUS
 62
1
 10
188.302446
 20
138.550000
 40
0.250000
 50
0.000000
 51
90.000000
  0
ARC
  8
0
  6
CONTINUOUS
 62
1
 10
186.202446
 20
138.550000
 40
0.250000
 50
90.000000
 51
180.000000
  0
ARC
  8
0
  6
CONTINUOUS
 62
1
 10
214.902446
 20
138.550000
 40
0.250000
 50
0.000000
 51
90.000000
  0
ARC
  8
0
  6
CONTINUOUS
 62
1
 10
212.802446
 20
138.550000
 40
0.250000
 50
90.000000
 51
180.000000
  0
ARC
  8
0
  6
CONTINUOUS
 62
1
 10
212.802446
 20
140.450000
 40
0.250000
 50
180.000000
 51
270.000000
  0
ARC
  8
0
  6
CONTINUOUS
 62
1
 10
176.302446
 20
114.250000
 40
0.250000
 50
0.000000
 51
90.000000
  0
LINE
  8
0
  6
CONTINUOUS
 62
1
 10
234.052446
 20
113.000000
 11
234.052446
 21
114.250000
  0
LINE
  8
0
  6
CONTINUOUS
 62
1
 10
239.552446
 20
111.000000
 11
239.552446
 21
112.500000
  0
LINE
  8
0
  6
CONTINUOUS
 62
1
 10
239.302446
 20
112.750000
 11
234.302446
 21
112.750000
  0
LINE
  8
0
  6
CONTINUOUS
 62
1
 10
233.802446
 20
114.500000
 11
233.052446
 21
114.500000
  0
LINE
  8
0
  6
CONTINUOUS
 62
1
 10
232.052446
 20
113.500000
 11
232.802446
 21
113.500000
  0
LINE
  8
0
  6
CONTINUOUS
 62
1
 10
233.052446
 20
113.250000
 11
233.052446
 21
112.000000
  0
LINE
  8
0
  6
CONTINUOUS
 62
1
 10
232.802446
 20
111.750000
 11
225.802446
 21
111.750000
  0
LINE
  8
0
  6
CONTINUOUS
 62
1
 10
225.552446
 20
112.000000
 11
225.552446
 21
113.250000
  0
LINE
  8
0
  6
CONTINUOUS
 62
1
 10
225.802446
 20
113.500000
 11
226.552446
 21
113.500000
  0
LINE
  8
0
  6
CONTINUOUS
 62
1
 10
225.552446
 20
114.500000
 11
224.802446
 21
114.500000
  0
LINE
  8
0
  6
CONTINUOUS
 62
1
 10
224.552446
 20
114.250000
 11
224.552446
 21
112.000000
  0
ARC
  8
0
  6
CONTINUOUS
 62
1
 10
238.552446
 20
111.000000
 40
1.000000
 50
270.000000
 51
0.000000
  0
ARC
  8
0
  6
CONTINUOUS
 62
1
 10
233.052446
 20
113.500000
 40
1.000000
 50
90.000000
 51
180.000000
  0
ARC
  8
0
  6
CONTINUOUS
 62
1
 10
225.552446
 20
113.500000
 40
1.000000
 50
0.000000
 51
90.000000
  0
ARC
  8
0
  6
CONTINUOUS
 62
1
 10
239.302446
 20
112.500000
 40
0.250000
 50
0.000000
 51
90.000000
  0
ARC
  8
0
  6
CONTINUOUS
 62
1
 10
234.302446
 20
113.000000
 40
0.250000
 50
180.000000
 51
270.000000
  0
ARC
  8
0
  6
CONTINUOUS
 62
1
 10
233.802446
 20
114.250000
 40
0.250000
 50
0.000000
 51
90.000000
  0
ARC
  8
0
  6
CONTINUOUS
 62
1
 10
232.802446
 20
113.250000
 40
0.250000
 50
0.000000
 51
90.000000
  0
ARC
  8
0
  6
CONTINUOUS
 62
1
 10
232.802446
 20
112.000000
 40
0.250000
 50
270.000000
 51
0.000000
  0
ARC
  8
0
  6
CONTINUOUS
 62
1
 10
225.802446
 20
112.000000
 40
0.250000
 50
180.000000
 51
270.000000
  0
ARC
  8
0
  6
CONTINUOUS
 62
1
 10
225.802446
 20
113.250000
 40
0.250000
 50
90.000000
 51
180.000000
  0
ARC
  8
0
  6
CONTINUOUS
 62
1
 10
224.302446
 20
112.000000
 40
0.250000
 50
270.000000
 51
0.000000
  0
ARC
  8
0
  6
CONTINUOUS
 62
1
 10
224.802446
 20
114.250000
 40
0.250000
 50
90.000000
 51
180.000000
  0
ARC
  8
0
  6
CONTINUOUS
 62
1
 10
214.152446
 20
133.900000
 40
1.000000
 50
270.000000
 51
0.000000
  0
ARC
  8
0
  6
CONTINUOUS
 62
1
 10
186.952446
 20
133.900000
 40
1.000000
 50
180.000000
 51
270.000000
  0
LINE
  8
0
  6
CONTINUOUS
 62
1
 10
176.802446
 20
111.750000
 11
186.202446
 21
111.750000
  0
LINE
  8
0
  6
CONTINUOUS
 62
1
 10
192.197894
 20
119.050000
 11
193.410329
 21
118.350000
  0
LINE
  8
0
  6
CONTINUOUS
 62
1
 10
192.197894
 20
120.950000
 11
193.410329
 21
121.650000
  0
ARC
  8
0
  6
CONTINUOUS
 62
1
 10
190.552446
 20
120.000000
 40
1.900000
 50
90.000000
 51
330.000000
  0
ARC
  8
0
  6
CONTINUOUS
 62
1
 10
190.552446
 20
120.000000
 40
1.900000
 50
30.000000
 51
90.000000
  0
ARC
  8
0
  6
CONTINUOUS
 62
1
 10
190.552446
 20
120.000000
 40
3.300000
 50
270.000000
 51
330.000000
  0
ARC
  8
0
  6
CONTINUOUS
 62
1
 10
190.552446
 20
120.000000
 40
3.300000
 50
30.000000
 51
90.000000
  0
LINE
  8
0
  6
CONTINUOUS
 62
1
 10
190.552446
 20
123.300000
 11
189.602446
 21
123.300000
  0
ARC
  8
0
  6
CONTINUOUS
 62
1
 10
189.602446
 20
124.300000
 40
1.000000
 50
180.000000
 51
270.000000
  0
LINE
  8
0
  6
CONTINUOUS
 62
1
 10
214.902446
 20
131.500000
 11
214.152446
 21
131.500000
  0
LINE
  8
0
  6
CONTINUOUS
 62
1
 10
213.902446
 20
131.250000
 11
213.902446
 21
124.250000
  0
ARC
  8
0
  6
CONTINUOUS
 62
1
 10
215.852446
 20
130.700000
 40
0.700000
 50
270.000000
 51
0.000000
  0
LINE
  8
0
  6
CONTINUOUS
 62
1
 10
215.152446
 20
131.250000
 11
215.152446
 21
130.700000
  0
ARC
  8
0
  6
CONTINUOUS
 62
1
 10
215.852446
 20
130.700000
 40
0.700000
 50
180.000000
 51
270.000000
  0
LINE
  8
0
  6
CONTINUOUS
 62
1
 10
212.502446
 20
130.000000
 11
212.502446
 21
131.900000
  0
ARC
  8
0
  6
CONTINUOUS
 62
1
 10
214.152446
 20
131.250000
 40
0.250000
 50
90.000000
 51
180.000000
  0
ARC
  8
0
  6
CONTINUOUS
 62
1
 10
214.902446
 20
131.250000
 40
0.250000
 50
0.000000
 51
90.000000
  0
LINE
  8
0
  6
CONTINUOUS
 62
1
 10
216.552446
 20
130.700000
 11
216.552446
 21
140.300000
  0
LINE
  8
0
  6
CONTINUOUS
 62
1
 10
214.902446
 20
111.750000
 11
224.302446
 21
111.750000
  0
LINE
  8
0
  6
CONTINUOUS
 62
1
 10
211.502446
 20
111.400000
 11
189.602446
 21
111.400000
  0
LINE
  8
0
  6
CONTINUOUS
 62
1
 10
189.602446
 20
127.600000
 11
211.502446
 21
127.600000
  0
LINE
  8
0
  6
CONTINUOUS
 62
1
 10
211.502446
 20
129.000000
 11
189.602446
 21
129.000000
  0
LINE
  8
0
  6
CONTINUOUS
 62
1
 10
186.952446
 20
132.900000
 11
187.602446
 21
132.900000
  0
ARC
  8
0
  6
CONTINUOUS
 62
1
 10
187.602446
 20
131.900000
 40
1.000000
 50
0.000000
 51
90.000000
  0
ARC
  8
0
  6
CONTINUOUS
 62
1
 10
189.602446
 20
130.000000
 40
1.000000
 50
180.000000
 51
270.000000
  0
LINE
  8
0
  6
CONTINUOUS
 62
1
 10
188.602446
 20
124.300000
 11
188.602446
 21
126.600000
  0
ARC
  8
0
  6
CONTINUOUS
 62
1
 10
189.602446
 20
126.600000
 40
1.000000
 50
90.000000
 51
180.000000
  0
LINE
  8
0
  6
CONTINUOUS
 62
1
 10
214.152446
 20
132.900000
 11
213.502446
 21
132.900000
  0
ARC
  8
0
  6
CONTINUOUS
 62
1
 10
213.502446
 20
131.900000
 40
1.000000
 50
90.000000
 51
180.000000
  0
ARC
  8
0
  6
CONTINUOUS
 62
1
 10
211.502446
 20
130.000000
 40
1.000000
 50
270.000000
 51
0.000000
  0
LINE
  8
0
  6
CONTINUOUS
 62
1
 10
187.202446
 20
121.600000
 11
187.202446
 21
112.750000
  0
ARC
  8
0
  6
CONTINUOUS
 62
1
 10
186.202446
 20
121.600000
 40
1.000000
 50
0.000000
 51
90.000000
  0
ARC
  8
0
  6
CONTINUOUS
 62
1
 10
186.202446
 20
112.750000
 40
1.000000
 50
270.000000
 51
0.000000
  0
LINE
  8
0
  6
CONTINUOUS
 62
1
 10
188.602446
 20
112.400000
 11
188.602446
 21
115.700000
  0
LINE
  8
0
  6
CONTINUOUS
 62
1
 10
190.552446
 20
116.700000
 11
189.602446
 21
116.700000
  0
ARC
  8
0
  6
CONTINUOUS
 62
1
 10
189.602446
 20
115.700000
 40
1.000000
 50
90.000000
 51
180.000000
  0
ARC
  8
0
  6
CONTINUOUS
 62
1
 10
189.602446
 20
112.400000
 40
1.000000
 50
180.000000
 51
270.000000
  0
LINE
  8
0
  6
CONTINUOUS
 62
1
 10
216.552446
 20
124.800000
 11
216.552446
 21
123.600000
  0
LINE
  8
0
  6
CONTINUOUS
 62
1
 10
215.152446
 20
124.250000
 11
215.152446
 21
124.800000
  0
LINE
  8
0
  6
CONTINUOUS
 62
1
 10
214.152446
 20
124.000000
 11
214.902446
 21
124.000000
  0
ARC
  8
0
  6
CONTINUOUS
 62
1
 10
215.852446
 20
124.800000
 40
0.700000
 50
90.000000
 51
180.000000
  0
ARC
  8
0
  6
CONTINUOUS
 62
1
 10
215.852446
 20
124.800000
 40
0.700000
 50
0.000000
 51
90.000000
  0
LINE
  8
0
  6
CONTINUOUS
 62
1
 10
215.552446
 20
122.600000
 11
214.902446
 21
122.600000
  0
ARC
  8
0
  6
CONTINUOUS
 62
1
 10
215.552446
 20
123.600000
 40
1.000000
 50
270.000000
 51
0.000000
  0
ARC
  8
0
  6
CONTINUOUS
 62
1
 10
214.902446
 20
124.250000
 40
0.250000
 50
270.000000
 51
0.000000
  0
ARC
  8
0
  6
CONTINUOUS
 62
1
 10
214.152446
 20
124.250000
 40
0.250000
 50
180.000000
 51
270.000000
  0
LINE
  8
0
  6
CONTINUOUS
 62
1
 10
208.906997
 20
119.050000
 11
207.694562
 21
118.350000
  0
LINE
  8
0
  6
CONTINUOUS
 62
1
 10
208.906997
 20
120.950000
 11
207.694562
 21
121.650000
  0
ARC
  8
0
  6
CONTINUOUS
 62
1
 10
210.552446
 20
120.000000
 40
1.900000
 50
210.000000
 51
90.000000
  0
ARC
  8
0
  6
CONTINUOUS
 62
1
 10
210.552446
 20
120.000000
 40
1.900000
 50
90.000000
 51
150.000000
  0
ARC
  8
0
  6
CONTINUOUS
 62
1
 10
210.552446
 20
120.000000
 40
3.300000
 50
210.000000
 51
270.000000
  0
ARC
  8
0
  6
CONTINUOUS
 62
1
 10
210.552446
 20
120.000000
 40
3.300000
 50
90.000000
 51
150.000000
  0
LINE
  8
0
  6
CONTINUOUS
 62
1
 10
210.552446
 20
123.300000
 11
211.502446
 21
123.300000
  0
ARC
  8
0
  6
CONTINUOUS
 62
1
 10
211.502446
 20
124.300000
 40
1.000000
 50
270.000000
 51
0.000000
  0
LINE
  8
0
  6
CONTINUOUS
 62
1
 10
212.502446
 20
124.300000
 11
212.502446
 21
126.600000
  0
LINE
  8
0
  6
CONTINUOUS
 62
1
 10
213.902446
 20
121.600000
 11
213.902446
 21
112.750000
  0
ARC
  8
0
  6
CONTINUOUS
 62
1
 10
214.902446
 20
121.600000
 40
1.000000
 50
90.000000
 51
180.000000
  0
ARC
  8
0
  6
CONTINUOUS
 62
1
 10
214.902446
 20
112.750000
 40
1.000000
 50
180.000000
 51
270.000000
  0
LINE
  8
0
  6
CONTINUOUS
 62
1
 10
212.502446
 20
112.400000
 11
212.502446
 21
115.700000
  0
LINE
  8
0
  6
CONTINUOUS
 62
1
 10
210.552446
 20
116.700000
 11
211.502446
 21
116.700000
  0
ARC
  8
0
  6
CONTINUOUS
 62
1
 10
211.502446
 20
115.700000
 40
1.000000
 50
0.000000
 51
90.000000
  0
ARC
  8
0
  6
CONTINUOUS
 62
1
 10
211.502446
 20
112.400000
 40
1.000000
 50
270.000000
 51
0.000000
  0
ARC
  8
0
  6
CONTINUOUS
 62
1
 10
211.502446
 20
126.600000
 40
1.000000
 50
0.000000
 51
90.000000
  0
LINE
  8
0
  6
CONTINUOUS
 62
1
 10
184.552446
 20
141.375000
 11
184.552446
 21
163.125000
  0
LINE
  8
0
  6
CONTINUOUS
 62
1
 10
186.552446
 20
165.125000
 11
214.552446
 21
165.125000
  0
LINE
  8
0
  6
CONTINUOUS
 62
1
 10
216.552446
 20
163.125000
 11
216.552446
 21
141.375000
  0
LINE
  8
0
  6
CONTINUOUS
 62
1
 10
216.302446
 20
141.125000
 11
206.802446
 21
141.125000
  0
LINE
  8
0
  6
CONTINUOUS
 62
1
 10
206.552446
 20
140.875000
 11
206.552446
 21
138.125000
  0
LINE
  8
0
  6
CONTINUOUS
 62
1
 10
206.802446
 20
137.875000
 11
214.552446
 21
137.875000
  0
LINE
  8
0
  6
CONTINUOUS
 62
1
 10
212.802446
 20
132.875000
 11
188.302446
 21
132.875000
  0
LINE
  8
0
  6
CONTINUOUS
 62
1
 10
214.802446
 20
137.625000
 11
214.802446
 21
134.875000
  0
LINE
  8
0
  6
CONTINUOUS
 62
1
 10
194.552446
 20
138.125000
 11
194.552446
 21
140.875000
  0
LINE
  8
0
  6
CONTINUOUS
 62
1
 10
194.302446
 20
141.125000
 11
184.802446
 21
141.125000
  0
LINE
  8
0
  6
CONTINUOUS
 62
1
 10
194.302446
 20
137.875000
 11
186.552446
 21
137.875000
  0
LINE
  8
0
  6
CONTINUOUS
 62
1
 10
186.302446
 20
137.625000
 11
186.302446
 21
134.875000
  0
ARC
  8
0
  6
CONTINUOUS
 62
1
 10
186.552446
 20
163.125000
 40
2.000000
 50
90.000000
 51
180.000000
  0
ARC
  8
0
  6
CONTINUOUS
 62
1
 10
214.552446
 20
163.125000
 40
2.000000
 50
0.000000
 51
90.000000
  0
ARC
  8
0
  6
CONTINUOUS
 62
1
 10
216.302446
 20
141.375000
 40
0.250000
 50
270.000000
 51
0.000000
  0
ARC
  8
0
  6
CONTINUOUS
 62
1
 10
206.802446
 20
140.875000
 40
0.250000
 50
90.000000
 51
180.000000
  0
ARC
  8
0
  6
CONTINUOUS
 62
1
 10
206.802446
 20
138.125000
 40
0.250000
 50
180.000000
 51
270.000000
  0
ARC
  8
0
  6
CONTINUOUS
 62
1
 10
214.552446
 20
137.625000
 40
0.250000
 50
0.000000
 51
90.000000
  0
ARC
  8
0
  6
CONTINUOUS
 62
1
 10
186.552446
 20
137.625000
 40
0.250000
 50
90.000000
 51
180.000000
  0
ARC
  8
0
  6
CONTINUOUS
 62
1
 10
194.302446
 20
138.125000
 40
0.250000
 50
270.000000
 51
0.000000
  0
ARC
  8
0
  6
CONTINUOUS
 62
1
 10
194.302446
 20
140.875000
 40
0.250000
 50
0.000000
 51
90.000000
  0
ARC
  8
0
  6
CONTINUOUS
 62
1
 10
184.802446
 20
141.375000
 40
0.250000
 50
180.000000
 51
270.000000
  0
ARC
  8
0
  6
RANDOM
 62
1
 10
184.552446
 20
133.125000
 40
15.000000
 50
0.000000
 51
90.000000
  0
ARC
  8
0
  6
RANDOM
 62
1
 10
184.552446
 20
133.125000
 40
20.000000
 50
0.000000
 51
90.000000
  0
ARC
  8
0
  6
RANDOM
 62
1
 10
184.552446
 20
133.125000
 40
30.000000
 50
15.466010
 51
90.000000
  0
ARC
  8
0
  6
RANDOM
 62
1
 10
184.552446
 20
133.125000
 40
35.000000
 50
23.895508
 51
66.104492
  0
ARC
  8
0
  6
RANDOM
 62
1
 10
183.802446
 20
132.875000
 40
5.000000
 50
0.000000
 51
60.000000
  0
ARC
  8
0
  6
RANDOM
 62
1
 10
184.552446
 20
133.125000
 40
40.000000
 50
36.869898
 51
53.130102
  0
ARC
  8
0
  6
RANDOM
 62
1
 10
184.552446
 20
132.875000
 40
25.000000
 50
0.000000
 51
11.536959
  0
ARC
  8
0
  6
RANDOM
 62
1
 10
184.552446
 20
133.125000
 40
25.000000
 50
18.662925
 51
90.000000
  0
ARC
  8
0
  6
RANDOM
 62
1
 10
185.552446
 20
132.875000
 40
10.000000
 50
0.000000
 51
30.000000
  0
ARC
  8
0
  6
RANDOM
 62
1
 10
184.552446
 20
133.125000
 40
10.000000
 50
53.130102
 51
90.000000
  0
ARC
  8
0
  6
CONTINUOUS
 62
1
 10
212.802446
 20
134.875000
 40
2.000000
 50
270.000000
 51
0.000000
  0
ARC
  8
0
  6
CONTINUOUS
 62
1
 10
188.302446
 20
134.875000
 40
2.000000
 50
180.000000
 51
270.000000
  0
LINE
  8
0
  6
CONTINUOUS
 62
1
 10
128.263402
 20
180.125000
 11
128.263402
 21
110.000000
  0
LINE
  8
0
  6
CONTINUOUS
 62
1
 10
128.263402
 20
180.125000
 11
127.834831
 21
177.125000
  0
LINE
  8
0
  6
CONTINUOUS
 62
1
 10
127.834831
 20
177.125000
 11
128.477688
 21
177.125000
  0
LINE
  8
0
  6
CONTINUOUS
 62
1
 10
128.477688
 20
177.125000
 11
128.263402
 21
178.839286
  0
LINE
  8
0
  6
CONTINUOUS
 62
1
 10
128.263402
 20
178.839286
 11
128.049117
 21
177.125000
  0
LINE
  8
0
  6
CONTINUOUS
 62
1
 10
128.049117
 20
177.125000
 11
128.691974
 21
177.125000
  0
LINE
  8
0
  6
CONTINUOUS
 62
1
 10
128.691974
 20
177.125000
 11
128.263402
 21
180.125000
  0
LINE
  8
0
  6
CONTINUOUS
 62
1
 10
128.263402
 20
110.000000
 11
128.691974
 21
113.000000
  0
LINE
  8
0
  6
CONTINUOUS
 62
1
 10
128.691974
 20
113.000000
 11
128.049117
 21
113.000000
  0
LINE
  8
0
  6
CONTINUOUS
 62
1
 10
128.049117
 20
113.000000
 11
128.263402
 21
111.285714
  0
LINE
  8
0
  6
CONTINUOUS
 62
1
 10
128.263402
 20
111.285714
 11
128.477688
 21
113.000000
  0
LINE
  8
0
  6
CONTINUOUS
 62
1
 10
128.477688
 20
113.000000
 11
127.834831
 21
113.000000
  0
LINE
  8
0
  6
CONTINUOUS
 62
1
 10
127.834831
 20
113.000000
 11
128.263402
 21
110.000000
  0
LINE
  8
0
  6
CONTINUOUS
 62
1
 10
44.263402
 20
101.000000
 11
119.263402
 21
101.000000
  0
LINE
  8
0
  6
CONTINUOUS
 62
1
 10
44.263402
 20
101.000000
 11
47.263402
 21
100.571429
  0
LINE
  8
0
  6
CONTINUOUS
 62
1
 10
47.263402
 20
100.571429
 11
47.263402
 21
101.214286
  0
LINE
  8
0
  6
CONTINUOUS
 62
1
 10
47.263402
 20
101.214286
 11
45.549117
 21
101.000000
  0
LINE
  8
0
  6
CONTINUOUS
 62
1
 10
45.549117
 20
101.000000
 11
47.263402
 21
100.785714
  0
LINE
  8
0
  6
CONTINUOUS
 62
1
 10
47.263402
 20
100.785714
 11
47.263402
 21
101.428571
  0
LINE
  8
0
  6
CONTINUOUS
 62
1
 10
47.263402
 20
101.428571
 11
44.263402
 21
101.000000
  0
LINE
  8
0
  6
CONTINUOUS
 62
1
 10
119.263402
 20
101.000000
 11
116.263402
 21
101.428571
  0
LINE
  8
0
  6
CONTINUOUS
 62
1
 10
116.263402
 20
101.428571
 11
116.263402
 21
100.785714
  0
LINE
  8
0
  6
CONTINUOUS
 62
1
 10
116.263402
 20
100.785714
 11
117.977688
 21
101.000000
  0
LINE
  8
0
  6
CONTINUOUS
 62
1
 10
117.977688
 20
101.000000
 11
116.263402
 21
101.214286
  0
LINE
  8
0
  6
CONTINUOUS
 62
1
 10
116.263402
 20
101.214286
 11
116.263402
 21
100.571429
  0
LINE
  8
0
  6
CONTINUOUS
 62
1
 10
116.263402
 20
100.571429
 11
119.263402
 21
101.000000
  0
LINE
  8
0
  6
CONTINUOUS
 62
1
 10
108.263402
 20
35.000000
 11
108.263402
 21
95.125000
  0
LINE
  8
0
  6
CONTINUOUS
 62
1
 10
108.263402
 20
35.000000
 11
108.691974
 21
38.000000
  0
LINE
  8
0
  6
CONTINUOUS
 62
1
 10
108.691974
 20
38.000000
 11
108.049117
 21
38.000000
  0
LINE
  8
0
  6
CONTINUOUS
 62
1
 10
108.049117
 20
38.000000
 11
108.263402
 21
36.285714
  0
LINE
  8
0
  6
CONTINUOUS
 62
1
 10
108.263402
 20
36.285714
 11
108.477688
 21
38.000000
  0
LINE
  8
0
  6
CONTINUOUS
 62
1
 10
108.477688
 20
38.000000
 11
107.834831
 21
38.000000
  0
LINE
  8
0
  6
CONTINUOUS
 62
1
 10
107.834831
 20
38.000000
 11
108.263402
 21
35.000000
  0
LINE
  8
0
  6
CONTINUOUS
 62
1
 10
108.263402
 20
95.125000
 11
107.834831
 21
92.125000
  0
LINE
  8
0
  6
CONTINUOUS
 62
1
 10
107.834831
 20
92.125000
 11
108.477688
 21
92.125000
  0
LINE
  8
0
  6
CONTINUOUS
 62
1
 10
108.477688
 20
92.125000
 11
108.263402
 21
93.839286
  0
LINE
  8
0
  6
CONTINUOUS
 62
1
 10
108.263402
 20
93.839286
 11
108.049117
 21
92.125000
  0
LINE
  8
0
  6
CONTINUOUS
 62
1
 10
108.049117
 20
92.125000
 11
108.691974
 21
92.125000
  0
LINE
  8
0
  6
CONTINUOUS
 62
1
 10
108.691974
 20
92.125000
 11
108.263402
 21
95.125000
  0
LINE
  8
0
  6
CONTINUOUS
 62
1
 10
44.263402
 20
26.000000
 11
99.263402
 21
26.000000
  0
LINE
  8
0
  6
CONTINUOUS
 62
1
 10
44.263402
 20
26.000000
 11
47.263402
 21
25.571429
  0
LINE
  8
0
  6
CONTINUOUS
 62
1
 10
47.263402
 20
25.571429
 11
47.263402
 21
26.214286
  0
LINE
  8
0
  6
CONTINUOUS
 62
1
 10
47.263402
 20
26.214286
 11
45.549117
 21
26.000000
  0
LINE
  8
0
  6
CONTINUOUS
 62
1
 10
45.549117
 20
26.000000
 11
47.263402
 21
25.785714
  0
LINE
  8
0
  6
CONTINUOUS
 62
1
 10
47.263402
 20
25.785714
 11
47.263402
 21
26.428571
  0
LINE
  8
0
  6
CONTINUOUS
 62
1
 10
47.263402
 20
26.428571
 11
44.263402
 21
26.000000
  0
LINE
  8
0
  6
CONTINUOUS
 62
1
 10
99.263402
 20
26.000000
 11
96.263402
 21
26.428571
  0
LINE
  8
0
  6
CONTINUOUS
 62
1
 10
96.263402
 20
26.428571
 11
96.263402
 21
25.785714
  0
LINE
  8
0
  6
CONTINUOUS
 62
1
 10
96.263402
 20
25.785714
 11
97.977688
 21
26.000000
  0
LINE
  8
0
  6
CONTINUOUS
 62
1
 10
97.977688
 20
26.000000
 11
96.263402
 21
26.214286
  0
LINE
  8
0
  6
CONTINUOUS
 62
1
 10
96.263402
 20
26.214286
 11
96.263402
 21
25.571429
  0
LINE
  8
0
  6
CONTINUOUS
 62
1
 10
96.263402
 20
25.571429
 11
99.263402
 21
26.000000
  0
LINE
  8
0
  6
CONTINUOUS
 62
1
 10
161.552446
 20
26.000000
 11
239.552446
 21
26.000000
  0
LINE
  8
0
  6
CONTINUOUS
 62
1
 10
161.552446
 20
26.000000
 11
164.552446
 21
25.571429
  0
LINE
  8
0
  6
CONTINUOUS
 62
1
 10
164.552446
 20
25.571429
 11
164.552446
 21
26.214286
  0
LINE
  8
0
  6
CONTINUOUS
 62
1
 10
164.552446
 20
26.214286
 11
162.838160
 21
26.000000
  0
LINE
  8
0
  6
CONTINUOUS
 62
1
 10
162.838160
 20
26.000000
 11
164.552446
 21
25.785714
  0
LINE
  8
0
  6
CONTINUOUS
 62
1
 10
164.552446
 20
25.785714
 11
164.552446
 21
26.428571
  0
LINE
  8
0
  6
CONTINUOUS
 62
1
 10
164.552446
 20
26.428571
 11
161.552446
 21
26.000000
  0
LINE
  8
0
  6
CONTINUOUS
 62
1
 10
239.552446
 20
26.000000
 11
236.552446
 21
26.428571
  0
LINE
  8
0
  6
CONTINUOUS
 62
1
 10
236.552446
 20
26.428571
 11
236.552446
 21
25.785714
  0
LINE
  8
0
  6
CONTINUOUS
 62
1
 10
236.552446
 20
25.785714
 11
238.266731
 21
26.000000
  0
LINE
  8
0
  6
CONTINUOUS
 62
1
 10
238.266731
 20
26.000000
 11
236.552446
 21
26.214286
  0
LINE
  8
0
  6
CONTINUOUS
 62
1
 10
236.552446
 20
26.214286
 11
236.552446
 21
25.571429
  0
LINE
  8
0
  6
CONTINUOUS
 62
1
 10
236.552446
 20
25.571429
 11
239.552446
 21
26.000000
  0
LINE
  8
0
  6
CONTINUOUS
 62
1
 10
248.552446
 20
35.000000
 11
248.552446
 21
95.125000
  0
LINE
  8
0
  6
CONTINUOUS
 62
1
 10
248.552446
 20
35.000000
 11
248.981017
 21
38.000000
  0
LINE
  8
0
  6
CONTINUOUS
 62
1
 10
248.981017
 20
38.000000
 11
248.338160
 21
38.000000
  0
LINE
  8
0
  6
CONTINUOUS
 62
1
 10
248.338160
 20
38.000000
 11
248.552446
 21
36.285714
  0
LINE
  8
0
  6
CONTINUOUS
 62
1
 10
248.552446
 20
36.285714
 11
248.766731
 21
38.000000
  0
LINE
  8
0
  6
CONTINUOUS
 62
1
 10
248.766731
 20
38.000000
 11
248.123874
 21
38.000000
  0
LINE
  8
0
  6
CONTINUOUS
 62
1
 10
248.123874
 20
38.000000
 11
248.552446
 21
35.000000
  0
LINE
  8
0
  6
CONTINUOUS
 62
1
 10
248.552446
 20
95.125000
 11
248.123874
 21
92.125000
  0
LINE
  8
0
  6
CONTINUOUS
 62
1
 10
248.123874
 20
92.125000
 11
248.766731
 21
92.125000
  0
LINE
  8
0
  6
CONTINUOUS
 62
1
 10
248.766731
 20
92.125000
 11
248.552446
 21
93.839286
  0
LINE
  8
0
  6
CONTINUOUS
 62
1
 10
248.552446
 20
93.839286
 11
248.338160
 21
92.125000
  0
LINE
  8
0
  6
CONTINUOUS
 62
1
 10
248.338160
 20
92.125000
 11
248.981017
 21
92.125000
  0
LINE
  8
0
  6
CONTINUOUS
 62
1
 10
248.981017
 20
92.125000
 11
248.552446
 21
95.125000
  0
LINE
  8
0
  6
CONTINUOUS
 62
1
 10
161.552446
 20
101.000000
 11
239.552446
 21
101.000000
  0
LINE
  8
0
  6
CONTINUOUS
 62
1
 10
161.552446
 20
101.000000
 11
164.552446
 21
100.571429
  0
LINE
  8
0
  6
CONTINUOUS
 62
1
 10
164.552446
 20
100.571429
 11
164.552446
 21
101.214286
  0
LINE
  8
0
  6
CONTINUOUS
 62
1
 10
164.552446
 20
101.214286
 11
162.838160
 21
101.000000
  0
LINE
  8
0
  6
CONTINUOUS
 62
1
 10
162.838160
 20
101.000000
 11
164.552446
 21
100.785714
  0
LINE
  8
0
  6
CONTINUOUS
 62
1
 10
164.552446
 20
100.785714
 11
164.552446
 21
101.428571
  0
LINE
  8
0
  6
CONTINUOUS
 62
1
 10
164.552446
 20
101.428571
 11
161.552446
 21
101.000000
  0
LINE
  8
0
  6
CONTINUOUS
 62
1
 10
239.552446
 20
101.000000
 11
236.552446
 21
101.428571
  0
LINE
  8
0
  6
CONTINUOUS
 62
1
 10
236.552446
 20
101.428571
 11
236.552446
 21
100.785714
  0
LINE
  8
0
  6
CONTINUOUS
 62
1
 10
236.552446
 20
100.785714
 11
238.266731
 21
101.000000
  0
LINE
  8
0
  6
CONTINUOUS
 62
1
 10
238.266731
 20
101.000000
 11
236.552446
 21
101.214286
  0
LINE
  8
0
  6
CONTINUOUS
 62
1
 10
236.552446
 20
101.214286
 11
236.552446
 21
100.571429
  0
LINE
  8
0
  6
CONTINUOUS
 62
1
 10
236.552446
 20
100.571429
 11
239.552446
 21
101.000000
  0
LINE
  8
0
  6
CONTINUOUS
 62
1
 10
248.552446
 20
110.000000
 11
248.552446
 21
165.125000
  0
LINE
  8
0
  6
CONTINUOUS
 62
1
 10
248.552446
 20
110.000000
 11
248.981017
 21
113.000000
  0
LINE
  8
0
  6
CONTINUOUS
 62
1
 10
248.981017
 20
113.000000
 11
248.338160
 21
113.000000
  0
LINE
  8
0
  6
CONTINUOUS
 62
1
 10
248.338160
 20
113.000000
 11
248.552446
 21
111.285714
  0
LINE
  8
0
  6
CONTINUOUS
 62
1
 10
248.552446
 20
111.285714
 11
248.766731
 21
113.000000
  0
LINE
  8
0
  6
CONTINUOUS
 62
1
 10
248.766731
 20
113.000000
 11
248.123874
 21
113.000000
  0
LINE
  8
0
  6
CONTINUOUS
 62
1
 10
248.123874
 20
113.000000
 11
248.552446
 21
110.000000
  0
LINE
  8
0
  6
CONTINUOUS
 62
1
 10
248.552446
 20
165.125000
 11
248.123874
 21
162.125000
  0
LINE
  8
0
  6
CONTINUOUS
 62
1
 10
248.123874
 20
162.125000
 11
248.766731
 21
162.125000
  0
LINE
  8
0
  6
CONTINUOUS
 62
1
 10
248.766731
 20
162.125000
 11
248.552446
 21
163.839286
  0
LINE
  8
0
  6
CONTINUOUS
 62
1
 10
248.552446
 20
163.839286
 11
248.338160
 21
162.125000
  0
LINE
  8
0
  6
CONTINUOUS
 62
1
 10
248.338160
 20
162.125000
 11
248.981017
 21
162.125000
  0
LINE
  8
0
  6
CONTINUOUS
 62
1
 10
248.981017
 20
162.125000
 11
248.552446
 21
165.125000
  0
LINE
  8
0
  6
CONTINUOUS
 62
1
 10
44.263402
 20
107.000000
 11
44.263402
 21
100.000000
  0
LINE
  8
0
  6
CONTINUOUS
 62
1
 10
119.263402
 20
107.000000
 11
119.263402
 21
100.000000
  0
LINE
  8
0
  6
CONTINUOUS
 62
1
 10
122.263402
 20
110.000000
 11
129.263402
 21
110.000000
  0
LINE
  8
0
  6
CONTINUOUS
 62
1
 10
122.263402
 20
180.125000
 11
129.263402
 21
180.125000
  0
LINE
  8
0
  6
CONTINUOUS
 62
1
 10
161.552446
 20
107.000000
 11
161.552446
 21
100.000000
  0
LINE
  8
0
  6
CONTINUOUS
 62
1
 10
239.552446
 20
107.000000
 11
239.552446
 21
100.000000
  0
LINE
  8
0
  6
CONTINUOUS
 62
1
 10
242.552446
 20
110.000000
 11
249.552446
 21
110.000000
  0
LINE
  8
0
  6
CONTINUOUS
 62
1
 10
242.552446
 20
165.125000
 11
249.552446
 21
165.125000
  0
LINE
  8
0
  6
CONTINUOUS
 62
1
 10
242.552446
 20
95.125000
 11
249.552446
 21
95.125000
  0
LINE
  8
0
  6
CONTINUOUS
 62
1
 10
242.552446
 20
35.000000
 11
249.552446
 21
35.000000
  0
LINE
  8
0
  6
CONTINUOUS
 62
1
 10
239.552446
 20
32.000000
 11
239.552446
 21
25.000000
  0
LINE
  8
0
  6
CONTINUOUS
 62
1
 10
161.552446
 20
32.000000
 11
161.552446
 21
25.000000
  0
LINE
  8
0
  6
CONTINUOUS
 62
1
 10
102.263402
 20
35.000000
 11
109.263402
 21
35.000000
  0
LINE
  8
0
  6
CONTINUOUS
 62
1
 10
102.263402
 20
95.125000
 11
109.263402
 21
95.125000
  0
LINE
  8
0
  6
CONTINUOUS
 62
1
 10
44.263402
 20
32.000000
 11
44.263402
 21
25.000000
  0
LINE
  8
0
  6
CONTINUOUS
 62
1
 10
99.263402
 20
32.000000
 11
99.263402
 21
25.000000
  0
TEXT
  8
0
  6
CONTINUOUS
 62
1
 10
76.781346
 20
25.000000
 40
2.000000
  1
55.0 mm
 50
180.000000
 41
1.000000
 51
0.000000
  7
STANDARD
  0
TEXT
  8
0
  6
CONTINUOUS
 62
1
 10
206.341023
 20
25.000000
 40
2.000000
  1
78.0 mm
 50
180.000000
 41
1.000000
 51
0.000000
  7
STANDARD
  0
TEXT
  8
0
  6
CONTINUOUS
 62
1
 10
205.725058
 20
100.000000
 40
2.000000
  1
78.0 mm
 50
180.000000
 41
1.000000
 51
0.000000
  7
STANDARD
  0
TEXT
  8
0
  6
CONTINUOUS
 62
1
 10
87.450638
 20
100.000000
 40
2.000000
  1
75.0 mm
 50
180.000000
 41
1.000000
 51
0.000000
  7
STANDARD
  0
TEXT
  8
0
  6
CONTINUOUS
 62
1
 10
107.263402
 20
59.789763
 40
2.000000
  1
60.0 mm
 50
90.000000
 41
1.000000
 51
0.000000
  7
STANDARD
  0
TEXT
  8
0
  6
CONTINUOUS
 62
1
 10
247.552446
 20
59.211096
 40
2.000000
  1
60.0 mm
 50
90.000000
 41
1.000000
 51
0.000000
  7
STANDARD
  0
TEXT
  8
0
  6
CONTINUOUS
 62
1
 10
247.552446
 20
132.015429
 40
2.000000
  1
55.0 mm
 50
90.000000
 41
1.000000
 51
0.000000
  7
STANDARD
  0
TEXT
  8
0
  6
CONTINUOUS
 62
1
 10
127.263402
 20
138.453729
 40
2.000000
  1
70.0 mm
 50
90.000000
 41
1.000000
 51
0.000000
  7
STANDARD
  0
LINE
  8
0
  6
CONTINUOUS
 62
1
 10
248.875000
 20
194.750000
 11
247.000000
 21
195.125000
  0
ARC
  8
0
  6
CONTINUOUS
 62
1
 10
253.476645
 20
194.005033
 40
6.572766
 50
132.189205
 51
170.189206
  0
ARC
  8
0
  6
CONTINUOUS
 62
1
 10
252.896828
 20
194.099269
 40
6.124514
 50
83.760205
 51
128.760205
  0
ARC
  8
0
  6
CONTINUOUS
 62
1
 10
253.603472
 20
194.429723
 40
5.757923
 50
20.407710
 51
90.407711
  0
ARC
  8
0
  6
CONTINUOUS
 62
1
 10
249.641348
 20
192.523066
 40
10.144316
 50
334.698047
 51
22.698047
  0
ARC
  8
0
  6
CONTINUOUS
 62
1
 10
253.553432
 20
190.730485
 40
5.841624
 50
281.194241
 51
334.194240
  0
ARC
  8
0
  6
CONTINUOUS
 62
1
 10
253.045255
 20
190.972177
 40
6.193857
 50
234.375329
 51
285.375328
  0
ARC
  8
0
  6
CONTINUOUS
 62
1
 10
253.619172
 20
190.904317
 40
6.492738
 50
195.905245
 51
229.905243
  0
LINE
  8
0
  6
CONTINUOUS
 62
1
 10
247.375000
 20
189.125000
 11
249.250000
 21
189.687500
  0
ARC
  8
0
  6
CONTINUOUS
 62
1
 10
253.383590
 20
190.655953
 40
4.245523
 50
193.185925
 51
249.185926
  0
ARC
  8
0
  6
CONTINUOUS
 62
1
 10
253.150721
 20
191.147114
 40
4.638494
 50
254.036243
 51
314.036243
  0
ARC
  8
0
  6
CONTINUOUS
 62
1
 10
250.036920
 20
192.440009
 40
7.847618
 50
323.866366
 51
12.866365
  0
ARC
  8
0
  6
CONTINUOUS
 62
1
 10
252.174284
 20
193.539736
 40
5.551140
 50
6.701124
 51
43.701125
  0
ARC
  8
0
  6
CONTINUOUS
 62
1
 10
253.130790
 20
193.701632
 40
4.778819
 50
50.235226
 51
105.235225
  0
ARC
  8
0
  6
CONTINUOUS
 62
1
 10
253.398962
 20
193.984755
 40
4.588228
 50
109.399092
 51
170.399094
  0
ARC
  8
0
  6
CONTINUOUS
 62
1
 10
235.124992
 20
192.500946
 40
9.111727
 50
346.911226
 51
26.911227
  0
ARC
  8
0
  6
CONTINUOUS
 62
1
 10
237.361167
 20
191.543052
 40
6.730256
 50
283.545409
 51
350.545408
  0
ARC
  8
0
  6
CONTINUOUS
 62
1
 10
237.143785
 20
191.996021
 40
7.222307
 50
234.380344
 51
284.380345
  0
ARC
  8
0
  6
CONTINUOUS
 62
1
 10
237.654381
 20
192.013881
 40
7.545057
 50
176.305945
 51
231.305944
  0
ARC
  8
0
  6
CONTINUOUS
 62
1
 10
237.654381
 20
192.986119
 40
7.545057
 50
128.694058
 51
183.694056
  0
ARC
  8
0
  6
CONTINUOUS
 62
1
 10
237.171794
 20
192.854601
 40
7.360330
 50
76.119656
 51
125.119655
  0
ARC
  8
0
  6
CONTINUOUS
 62
1
 10
237.474895
 20
193.688407
 40
6.478844
 50
26.952957
 51
76.952957
  0
ARC
  8
0
  6
CONTINUOUS
 62
1
 10
237.196683
 20
193.496002
 40
5.004282
 50
33.389540
 51
89.389541
  0
ARC
  8
0
  6
CONTINUOUS
 62
1
 10
237.087057
 20
193.668076
 40
4.834670
 50
88.068592
 51
167.068594
  0
ARC
  8
0
  6
CONTINUOUS
 62
1
 10
239.698676
 20
192.498514
 40
7.661947
 50
162.911227
 51
210.911227
  0
ARC
  8
0
  6
CONTINUOUS
 62
1
 10
237.088889
 20
191.373888
 40
4.859662
 50
215.346176
 51
285.346177
  0
ARC
  8
0
  6
CONTINUOUS
 62
1
 10
237.417728
 20
191.267476
 40
4.678947
 50
281.805571
 51
337.805572
  0
ARC
  8
0
  6
CONTINUOUS
 62
1
 10
233.800532
 20
192.443779
 40
8.477021
 50
339.679830
 51
26.679832
  0
LINE
  8
0
  6
CONTINUOUS
 62
1
 10
226.937500
 20
191.937500
 11
226.937500
 21
185.000000
  0
LINE
  8
0
  6
CONTINUOUS
 62
1
 10
226.937500
 20
185.000000
 11
223.937500
 21
185.000000
  0
LINE
  8
0
  6
CONTINUOUS
 62
1
 10
223.937500
 20
185.000000
 11
221.875000
 21
191.375000
  0
LINE
  8
0
  6
CONTINUOUS
 62
1
 10
221.875000
 20
191.375000
 11
219.812500
 21
197.750000
  0
LINE
  8
0
  6
CONTINUOUS
 62
1
 10
219.812500
 20
197.750000
 11
217.750000
 21
191.000000
  0
LINE
  8
0
  6
CONTINUOUS
 62
1
 10
217.750000
 20
191.000000
 11
215.875000
 21
185.000000
  0
LINE
  8
0
  6
CONTINUOUS
 62
1
 10
215.875000
 20
185.000000
 11
212.687500
 21
185.000000
  0
LINE
  8
0
  6
CONTINUOUS
 62
1
 10
212.687500
 20
185.000000
 11
212.687500
 21
192.875000
  0
LINE
  8
0
  6
CONTINUOUS
 62
1
 10
212.687500
 20
192.875000
 11
212.687500
 21
200.000000
  0
LINE
  8
0
  6
CONTINUOUS
 62
1
 10
212.687500
 20
200.000000
 11
214.750000
 21
200.000000
  0
LINE
  8
0
  6
CONTINUOUS
 62
1
 10
214.750000
 20
200.000000
 11
214.750000
 21
193.062500
  0
LINE
  8
0
  6
CONTINUOUS
 62
1
 10
214.750000
 20
193.062500
 11
214.750000
 21
187.062500
  0
LINE
  8
0
  6
CONTINUOUS
 62
1
 10
214.750000
 20
187.062500
 11
216.625000
 21
193.250000
  0
LINE
  8
0
  6
CONTINUOUS
 62
1
 10
216.625000
 20
193.250000
 11
218.687500
 21
200.000000
  0
LINE
  8
0
  6
CONTINUOUS
 62
1
 10
218.687500
 20
200.000000
 11
220.937500
 21
200.000000
  0
LINE
  8
0
  6
CONTINUOUS
 62
1
 10
220.937500
 20
200.000000
 11
223.000000
 21
193.437500
  0
LINE
  8
0
  6
CONTINUOUS
 62
1
 10
223.000000
 20
193.437500
 11
224.875000
 21
187.250000
  0
LINE
  8
0
  6
CONTINUOUS
 62
1
 10
224.875000
 20
187.250000
 11
224.875000
 21
194.000000
  0
LINE
  8
0
  6
CONTINUOUS
 62
1
 10
224.875000
 20
194.000000
 11
224.875000
 21
200.000000
  0
LINE
  8
0
  6
CONTINUOUS
 62
1
 10
224.875000
 20
200.000000
 11
226.937500
 21
200.000000
  0
LINE
  8
0
  6
CONTINUOUS
 62
1
 10
226.937500
 20
200.000000
 11
226.937500
 21
191.937500
  0
LINE
  8
0
  6
CONTINUOUS
 62
1
 10
208.937500
 20
191.750000
 11
208.937500
 21
185.000000
  0
LINE
  8
0
  6
CONTINUOUS
 62
1
 10
208.937500
 20
185.000000
 11
202.750000
 21
185.000000
  0
ARC
  8
0
  6
CONTINUOUS
 62
1
 10
202.715078
 20
192.882385
 40
7.882462
 50
252.253838
 51
270.253838
  0
ARC
  8
0
  6
CONTINUOUS
 62
1
 10
201.656087
 20
188.968587
 40
3.836547
 50
200.500001
 51
249.500000
  0
ARC
  8
0
  6
CONTINUOUS
 62
1
 10
203.168890
 20
189.271857
 40
5.365386
 50
147.874983
 51
197.874984
  0
ARC
  8
0
  6
CONTINUOUS
 62
1
 10
201.516889
 20
190.224666
 40
3.460389
 50
100.690068
 51
146.690068
  0
ARC
  8
0
  6
CONTINUOUS
 62
1
 10
204.476163
 20
178.326814
 40
15.716325
 50
94.246162
 51
103.246162
  0
LINE
  8
0
  6
CONTINUOUS
 62
1
 10
203.312500
 20
194.000000
 11
206.875000
 21
194.000000
  0
LINE
  8
0
  6
CONTINUOUS
 62
1
 10
206.875000
 20
194.000000
 11
206.875000
 21
200.000000
  0
LINE
  8
0
  6
CONTINUOUS
 62
1
 10
206.875000
 20
200.000000
 11
208.937500
 21
200.000000
  0
LINE
  8
0
  6
CONTINUOUS
 62
1
 10
208.937500
 20
200.000000
 11
208.937500
 21
191.750000
  0
LINE
  8
0
  6
CONTINUOUS
 62
1
 10
206.875000
 20
186.687500
 11
206.875000
 21
192.125000
  0
LINE
  8
0
  6
CONTINUOUS
 62
1
 10
206.875000
 20
192.125000
 11
202.375000
 21
192.125000
  0
ARC
  8
0
  6
CONTINUOUS
 62
1
 10
202.618763
 20
188.581211
 40
3.552163
 50
93.934949
 51
122.934949
  0
ARC
  8
0
  6
CONTINUOUS
 62
1
 10
202.475151
 20
189.497333
 40
2.731412
 50
130.880135
 51
183.880135
  0
ARC
  8
0
  6
CONTINUOUS
 62
1
 10
202.430273
 20
189.286488
 40
2.680399
 50
179.443955
 51
229.443956
  0
ARC
  8
0
  6
CONTINUOUS
 62
1
 10
202.535559
 20
189.963717
 40
3.283228
 50
235.744881
 51
273.744883
  0
LINE
  8
0
  6
CONTINUOUS
 62
1
 10
202.750000
 20
186.687500
 11
206.875000
 21
186.687500
  0
ARC
  8
0
  6
CONTINUOUS
 62
1
 10
185.999992
 20
192.500946
 40
9.111727
 50
346.911226
 51
26.911227
  0
ARC
  8
0
  6
CONTINUOUS
 62
1
 10
188.236167
 20
191.543052
 40
6.730256
 50
283.545409
 51
350.545408
  0
ARC
  8
0
  6
CONTINUOUS
 62
1
 10
188.018785
 20
191.996021
 40
7.222307
 50
234.380344
 51
284.380345
  0
ARC
  8
0
  6
CONTINUOUS
 62
1
 10
188.529381
 20
192.013881
 40
7.545057
 50
176.305945
 51
231.305944
  0
ARC
  8
0
  6
CONTINUOUS
 62
1
 10
188.529381
 20
192.986119
 40
7.545057
 50
128.694058
 51
183.694056
  0
ARC
  8
0
  6
CONTINUOUS
 62
1
 10
188.046794
 20
192.854601
 40
7.360330
 50
76.119656
 51
125.119655
  0
ARC
  8
0
  6
CONTINUOUS
 62
1
 10
188.349895
 20
193.688407
 40
6.478844
 50
26.952957
 51
76.952957
  0
ARC
  8
0
  6
CONTINUOUS
 62
1
 10
188.071683
 20
193.496002
 40
5.004282
 50
33.389540
 51
89.389541
  0
ARC
  8
0
  6
CONTINUOUS
 62
1
 10
187.962057
 20
193.668076
 40
4.834670
 50
88.068592
 51
167.068594
  0
ARC
  8
0
  6
CONTINUOUS
 62
1
 10
190.573676
 20
192.498514
 40
7.661947
 50
162.911227
 51
210.911227
  0
ARC
  8
0
  6
CONTINUOUS
 62
1
 10
187.963889
 20
191.373888
 40
4.859662
 50
215.346176
 51
285.346177
  0
ARC
  8
0
  6
CONTINUOUS
 62
1
 10
188.292728
 20
191.267476
 40
4.678947
 50
281.805571
 51
337.805572
  0
ARC
  8
0
  6
CONTINUOUS
 62
1
 10
184.675532
 20
192.443779
 40
8.477021
 50
339.679830
 51
26.679832
  0
LINE
  8
0
  6
CONTINUOUS
 62
1
 10
178.187500
 20
194.750000
 11
176.312500
 21
194.750000
  0
ARC
  8
0
  6
CONTINUOUS
 62
1
 10
171.938223
 20
194.428881
 40
4.386048
 50
4.198591
 51
42.198592
  0
ARC
  8
0
  6
CONTINUOUS
 62
1
 10
172.005299
 20
193.436889
 40
5.063114
 50
51.059965
 51
90.059967
  0
ARC
  8
0
  6
CONTINUOUS
 62
1
 10
171.892236
 20
194.224870
 40
4.276488
 50
88.556045
 51
132.556044
  0
ARC
  8
0
  6
CONTINUOUS
 62
1
 10
170.586173
 20
195.942506
 40
2.137285
 50
137.914383
 51
213.914386
  0
ARC
  8
0
  6
CONTINUOUS
 62
1
 10
171.481197
 20
197.072828
 40
3.538004
 50
221.036243
 51
257.036244
  0
LINE
  8
0
  6
CONTINUOUS
 62
1
 10
170.687500
 20
193.625000
 11
174.062500
 21
192.687500
  0
ARC
  8
0
  6
CONTINUOUS
 62
1
 10
173.129459
 20
187.982879
 40
4.796251
 50
30.782407
 51
78.782407
  0
ARC
  8
0
  6
CONTINUOUS
 62
1
 10
173.679910
 20
188.900759
 40
3.886787
 50
325.289408
 51
23.289407
  0
ARC
  8
0
  6
CONTINUOUS
 62
1
 10
172.942844
 20
189.864312
 40
5.055095
 50
272.065052
 51
321.065051
  0
ARC
  8
0
  6
CONTINUOUS
 62
1
 10
172.292459
 20
191.370312
 40
6.610448
 50
238.235225
 51
277.235226
  0
ARC
  8
0
  6
CONTINUOUS
 62
1
 10
171.296749
 20
189.332171
 40
4.359294
 50
180.258542
 51
235.258541
  0
LINE
  8
0
  6
CONTINUOUS
 62
1
 10
166.937500
 20
189.312500
 11
168.812500
 21
189.312500
  0
ARC
  8
0
  6
CONTINUOUS
 62
1
 10
172.056073
 20
189.696772
 40
3.266256
 50
186.756437
 51
233.756439
  0
ARC
  8
0
  6
CONTINUOUS
 62
1
 10
172.502111
 20
192.048557
 40
5.523714
 50
244.510447
 51
290.510447
  0
ARC
  8
0
  6
CONTINUOUS
 62
1
 10
173.479650
 20
188.760175
 40
2.114560
 50
296.934949
 51
9.934947
  0
ARC
  8
0
  6
CONTINUOUS
 62
1
 10
173.657601
 20
188.720101
 40
1.947455
 50
12.000000
 51
78.000002
  0
LINE
  8
0
  6
CONTINUOUS
 62
1
 10
174.062500
 20
190.625000
 11
169.000000
 21
192.125000
  0
ARC
  8
0
  6
CONTINUOUS
 62
1
 10
170.426022
 20
195.823385
 40
3.963785
 50
192.914382
 51
248.914383
  0
ARC
  8
0
  6
CONTINUOUS
 62
1
 10
170.844736
 20
195.697588
 40
4.349170
 50
133.065052
 51
190.065051
  0
ARC
  8
0
  6
CONTINUOUS
 62
1
 10
171.692720
 20
194.014843
 40
6.180300
 50
87.150123
 51
128.150124
  0
ARC
  8
0
  6
CONTINUOUS
 62
1
 10
172.331233
 20
192.924917
 40
7.270132
 50
63.611341
 51
92.611342
  0
ARC
  8
0
  6
CONTINUOUS
 62
1
 10
172.974345
 20
194.909383
 40
5.215591
 50
358.248827
 51
60.248826
  0
LINE
  8
0
  6
CONTINUOUS
 62
1
 10
163.000000
 20
192.500000
 11
163.000000
 21
185.000000
  0
LINE
  8
0
  6
CONTINUOUS
 62
1
 10
163.000000
 20
185.000000
 11
160.937500
 21
185.000000
  0
LINE
  8
0
  6
CONTINUOUS
 62
1
 10
160.937500
 20
185.000000
 11
160.937500
 21
192.312500
  0
LINE
  8
0
  6
CONTINUOUS
 62
1
 10
160.937500
 20
192.312500
 11
160.937500
 21
200.000000
  0
LINE
  8
0
  6
CONTINUOUS
 62
1
 10
160.937500
 20
200.000000
 11
163.000000
 21
200.000000
  0
LINE
  8
0
  6
CONTINUOUS
 62
1
 10
163.000000
 20
200.000000
 11
163.000000
 21
192.500000
  0
LINE
  8
0
  6
CONTINUOUS
 62
1
 10
151.187500
 20
200.000000
 11
153.250000
 21
200.000000
  0
LINE
  8
0
  6
CONTINUOUS
 62
1
 10
153.250000
 20
200.000000
 11
153.250000
 21
193.250000
  0
LINE
  8
0
  6
CONTINUOUS
 62
1
 10
153.250000
 20
193.250000
 11
153.250000
 21
186.687500
  0
LINE
  8
0
  6
CONTINUOUS
 62
1
 10
153.250000
 20
186.687500
 11
158.312500
 21
186.687500
  0
LINE
  8
0
  6
CONTINUOUS
 62
1
 10
158.312500
 20
186.687500
 11
158.312500
 21
185.000000
  0
LINE
  8
0
  6
CONTINUOUS
 62
1
 10
158.312500
 20
185.000000
 11
152.125000
 21
185.000000
  0
LINE
  8
0
  6
CONTINUOUS
 62
1
 10
152.125000
 20
185.000000
 11
146.312500
 21
185.000000
  0
LINE
  8
0
  6
CONTINUOUS
 62
1
 10
146.312500
 20
185.000000
 11
146.312500
 21
186.687500
  0
LINE
  8
0
  6
CONTINUOUS
 62
1
 10
146.312500
 20
186.687500
 11
151.187500
 21
186.687500
  0
LINE
  8
0
  6
CONTINUOUS
 62
1
 10
151.187500
 20
186.687500
 11
151.187500
 21
193.625000
  0
LINE
  8
0
  6
CONTINUOUS
 62
1
 10
151.187500
 20
193.625000
 11
151.187500
 21
200.000000
  0
LINE
  8
0
  6
CONTINUOUS
 62
1
 10
143.687500
 20
191.937500
 11
143.687500
 21
185.000000
  0
LINE
  8
0
  6
CONTINUOUS
 62
1
 10
143.687500
 20
185.000000
 11
133.000000
 21
185.000000
  0
LINE
  8
0
  6
CONTINUOUS
 62
1
 10
133.000000
 20
185.000000
 11
133.000000
 21
186.687500
  0
LINE
  8
0
  6
CONTINUOUS
 62
1
 10
133.000000
 20
186.687500
 11
141.625000
 21
186.687500
  0
LINE
  8
0
  6
CONTINUOUS
 62
1
 10
141.625000
 20
186.687500
 11
141.625000
 21
191.375000
  0
LINE
  8
0
  6
CONTINUOUS
 62
1
 10
141.625000
 20
191.375000
 11
133.562500
 21
191.375000
  0
LINE
  8
0
  6
CONTINUOUS
 62
1
 10
133.562500
 20
191.375000
 11
133.562500
 21
193.062500
  0
LINE
  8
0
  6
CONTINUOUS
 62
1
 10
133.562500
 20
193.062500
 11
141.625000
 21
193.062500
  0
LINE
  8
0
  6
CONTINUOUS
 62
1
 10
141.625000
 20
193.062500
 11
141.625000
 21
198.312500
  0
LINE
  8
0
  6
CONTINUOUS
 62
1
 10
141.625000
 20
198.312500
 11
132.437500
 21
198.312500
  0
LINE
  8
0
  6
CONTINUOUS
 62
1
 10
132.437500
 20
198.312500
 11
132.437500
 21
200.000000
  0
LINE
  8
0
  6
CONTINUOUS
 62
1
 10
132.437500
 20
200.000000
 11
143.687500
 21
200.000000
  0
LINE
  8
0
  6
CONTINUOUS
 62
1
 10
143.687500
 20
200.000000
 11
143.687500
 21
191.937500
  0
TEXT
  8
0
  6
CONTINUOUS
 62
1
 10
118.263402
 20
55.633157
 40
2.000000
  1
SECTION 11905
 50
90.000000
 41
1.000000
 51
0.000000
  7
STANDARD
  0
TEXT
  8
0
  6
CONTINUOUS
 62
1
 10
122.263402
 20
55.633157
 40
2.000000
  1
OUTER FRAME
 50
90.000000
 41
1.000000
 51
0.000000
  7
STANDARD
  0
TEXT
  8
0
  6
CONTINUOUS
 62
1
 10
126.263402
 20
55.633157
 40
2.000000
  1
FIXED FRAME
 50
90.000000
 41
1.000000
 51
0.000000
  7
STANDARD
  0
TEXT
  8
0
  6
CONTINUOUS
 62
1
 10
258.552446
 20
56.908157
 40
2.000000
  1
SECTION 11906
 50
90.000000
 41
1.000000
 51
0.000000
  7
STANDARD
  0
TEXT
  8
0
  6
CONTINUOUS
 62
1
 10
262.552446
 20
56.908157
 40
2.000000
  1
MEETING RAIL
 50
90.000000
 41
1.000000
 51
0.000000
  7
STANDARD
  0
TEXT
  8
0
  6
CONTINUOUS
 62
1
 10
258.552446
 20
129.369623
 40
2.000000
  1
SECTION 11907
 50
90.000000
 41
1.000000
 51
0.000000
  7
STANDARD
  0
TEXT
  8
0
  6
CONTINUOUS
 62
1
 10
262.552446
 20
129.369623
 40
2.000000
  1
GLAZING BAR
 50
90.000000
 41
1.000000
 51
0.000000
  7
STANDARD
  0
TEXT
  8
0
  6
CONTINUOUS
 62
1
 10
138.263402
 20
135.381847
 40
2.000000
  1
SECTION 11908
 50
90.000000
 41
1.000000
 51
0.000000
  7
STANDARD
  0
TEXT
  8
0
  6
CONTINUOUS
 62
1
 10
142.263402
 20
135.381847
 40
2.000000
  1
VENT FRAME
 50
90.000000
 41
1.000000
 51
0.000000
  7
STANDARD
  0
TEXT
  8
0
  6
CONTINUOUS
 62
1
 10
30.000000
 20
20.843750
 40
3.000000
  1
OPEN IN SECTIONS
 50
90.000000
 41
1.000000
 51
0.000000
  7
STANDARD
  0
LINE
  8
0
  6
CONTINUOUS
 62
1
 10
31.000000
 20
60.994485
 11
31.000000
 21
20.843750
  0
ENDSEC
  0
EOF
