  0
SECTION
  2
HEADER
  9
$LIMMIN
 10
0.000000
 20
0.000000
  9
$LIMMAX
 10
297.301779
 20
210.224104
  9
$EXTMIN
 10
0.000000
 20
0.000000
  9
$EXTMAX
 10
297.301779
 20
210.224104
  9
$ANGBASE
 50
0.0
  9
$ANGDIR
 70
0
  9
$DIMRND
 40
0.100000
  9
$DIMSE1
 70
0
  9
$DIMSE2
 70
0
  9
$DIMTXT
 40
3.000000
  9
$LTSCALE
 40
1.000000
  9
$LUPREC
 70
3
  9
$AUPREC
 70
3
  9
$PDMODE
 70
2
  9
$PDSIZE
 40
1.486509
  0
ENDSEC
  0
SECTION
  2
TABLES
  0
TABLE
  2
VPORT
  70
1
  0
VPORT
  2
*ACTIVE
 70
0
  10
0.0
 20
0.0
 11
1.0
 21
1.0
 12
594.0
 22
420.0
 13
0.0
 23
0.0
 14
10.0
 24
10.0
 15
10.0
 25
10.0
 16
0.0
 26
0.0
 36
1.0
 17
594.0
 27
420.0
 37
100.0
 40
1000.0
 41
1.0
 42
50.0
 43
0.0
 44
0.0
 50
0.0
 51
0.0
 71
0
 72
2000
 73
1
 74
3
 75
0
 76
0
 77
0
 78
1
  0
ENDTAB
  0
TABLE
  2
LTYPE
 70
4
  0
LTYPE
  2
CONTINUOUS
 70
0
  3
Solid line
 72
65
 73
0
 40
0.0
  0
LTYPE
  2
DASHED
 70
0
  3
Dashed line
 72
65
 73
2
 40
6.000000
 49
3.000000
 49
-3.000000
  0
LTYPE
  2
CENTER
 70
0
  3
Chain line
 72
65
 73
4
 40
24.000000
 49
15.000000
 49
-3.000000
 49
3.000000
 49
-3.000000
  0
LTYPE
  2
RANDOM
 70
0
  3
Random line
 72
65
 73
4
 40
22.500000
 49
6.000000
 49
-3.000000
 49
4.500000
 49
-9.000000
  0
ENDTAB
  0
TABLE
  2
STYLE
 70
9
  0
STYLE
  2
STANDARD
 40
0
 41
1.0
 50
0.0
 71
0
 42
0
  3
simplex
  4

 70
0
  0
ENDTAB
  0
TABLE
  2
LAYER
 70
2
  0
LAYER
  2
0
 70
0
 62
7
  6
CONTINUOUS
  0
LAYER
  2
0
 62
1
  6
CONTINUOUS
 70
0
  0
ENDTAB
  0
ENDSEC
  0
SECTION
  2
BLOCKS
  0
ENDSEC
  0
SECTION
  2
ENTITIES
  0
LINE
  8
0
  6
CONTINUOUS
 62
1
 10
92.214444
 20
78.101411
 11
92.214444
 21
38.101411
  0
LINE
  8
0
  6
CONTINUOUS
 62
1
 10
90.964444
 20
76.851411
 11
93.464444
 21
79.351411
  0
LINE
  8
0
  6
CONTINUOUS
 62
1
 10
93.464444
 20
39.351411
 11
90.964444
 21
36.851411
  0
LINE
  8
0
  6
CONTINUOUS
 62
1
 10
95.994658
 20
38.101411
 11
90.059266
 21
38.101411
  0
LINE
  8
0
  6
CONTINUOUS
 62
1
 10
95.994658
 20
78.101411
 11
90.184530
 21
78.101411
  0
LINE
  8
0
  6
CONTINUOUS
 62
1
 10
77.740376
 20
160.160369
 11
77.740376
 21
120.160369
  0
LINE
  8
0
  6
CONTINUOUS
 62
1
 10
76.490376
 20
158.910369
 11
78.990376
 21
161.410369
  0
LINE
  8
0
  6
CONTINUOUS
 62
1
 10
78.990376
 20
121.410369
 11
76.490376
 21
118.910369
  0
LINE
  8
0
  6
CONTINUOUS
 62
1
 10
81.520590
 20
120.160369
 11
75.585198
 21
120.160369
  0
LINE
  8
0
  6
CONTINUOUS
 62
1
 10
81.520590
 20
160.160369
 11
75.710462
 21
160.160369
  0
LINE
  8
0
  6
CONTINUOUS
 62
1
 10
102.762119
 20
33.094606
 11
102.762119
 21
28.276152
  0
LINE
  8
0
  6
CONTINUOUS
 62
1
 10
122.762119
 20
33.094606
 11
122.762119
 21
28.276152
  0
LINE
  8
0
  6
CONTINUOUS
 62
1
 10
102.762119
 20
30.101411
 11
108.892256
 21
30.101411
  0
LINE
  8
0
  6
CONTINUOUS
 62
1
 10
104.012119
 20
28.851411
 11
101.512119
 21
31.351411
  0
LINE
  8
0
  6
CONTINUOUS
 62
1
 10
102.762119
 20
114.223580
 11
102.762119
 21
109.405126
  0
LINE
  8
0
  6
CONTINUOUS
 62
1
 10
139.762119
 20
114.223580
 11
139.762119
 21
109.405126
  0
LINE
  8
0
  6
CONTINUOUS
 62
1
 10
102.762119
 20
111.230385
 11
117.291288
 21
111.230385
  0
LINE
  8
0
  6
CONTINUOUS
 62
1
 10
104.012119
 20
109.980385
 11
101.512119
 21
112.480385
  0
LINE
  8
0
  6
CONTINUOUS
 62
1
 10
122.762119
 20
165.291312
 11
122.762119
 21
170.134630
  0
LINE
  8
0
  6
CONTINUOUS
 62
1
 10
85.762119
 20
168.195355
 11
100.616552
 21
168.195355
  0
LINE
  8
0
  6
CONTINUOUS
 62
1
 10
87.012119
 20
166.945355
 11
84.512119
 21
169.445355
  0
LINE
  8
0
  6
CONTINUOUS
 62
1
 10
85.762119
 20
170.134630
 11
85.762119
 21
165.291312
  0
LINE
  8
0
  6
CONTINUOUS
 62
1
 10
139.762119
 20
82.232355
 11
139.762119
 21
87.075672
  0
LINE
  8
0
  6
CONTINUOUS
 62
1
 10
102.762119
 20
85.136398
 11
117.621249
 21
85.136398
  0
LINE
  8
0
  6
CONTINUOUS
 62
1
 10
104.012119
 20
83.886398
 11
101.512119
 21
86.386398
  0
LINE
  8
0
  6
CONTINUOUS
 62
1
 10
102.762119
 20
87.075672
 11
102.762119
 21
82.232355
  0
LINE
  8
0
  6
CONTINUOUS
 62
1
 10
167.761613
 20
83.647619
 11
167.761613
 21
123.612117
  0
LINE
  8
0
  6
CONTINUOUS
 62
1
 10
169.011613
 20
84.897619
 11
166.511613
 21
82.397619
  0
LINE
  8
0
  6
CONTINUOUS
 62
1
 10
166.511613
 20
122.362117
 11
169.011613
 21
124.862117
  0
LINE
  8
0
  6
CONTINUOUS
 62
1
 10
165.685758
 20
123.612117
 11
171.621149
 21
123.612117
  0
LINE
  8
0
  6
CONTINUOUS
 62
1
 10
165.685758
 20
83.647619
 11
171.495885
 21
83.647619
  0
LINE
  8
0
  6
CONTINUOUS
 62
1
 10
214.253180
 20
127.618923
 11
214.253180
 21
132.437376
  0
LINE
  8
0
  6
CONTINUOUS
 62
1
 10
194.253180
 20
127.618923
 11
194.253180
 21
132.437376
  0
LINE
  8
0
  6
CONTINUOUS
 62
1
 10
214.253180
 20
130.612117
 11
208.842336
 21
130.612117
  0
LINE
  8
0
  6
CONTINUOUS
 62
1
 10
213.003180
 20
131.862117
 11
215.503180
 21
129.362117
  0
LINE
  8
0
  6
CONTINUOUS
 62
1
 10
177.253180
 20
78.516676
 11
177.253180
 21
73.673358
  0
LINE
  8
0
  6
CONTINUOUS
 62
1
 10
231.253180
 20
75.612633
 11
209.243139
 21
75.612633
  0
LINE
  8
0
  6
CONTINUOUS
 62
1
 10
230.003180
 20
76.862633
 11
232.503180
 21
74.362633
  0
LINE
  8
0
  6
CONTINUOUS
 62
1
 10
231.253180
 20
73.673358
 11
231.253180
 21
78.516676
  0
LINE
  8
0
  6
CONTINUOUS
 62
1
 10
102.762119
 20
77.101411
 11
102.762119
 21
75.901411
  0
LINE
  8
0
  6
CONTINUOUS
 62
1
 10
103.762119
 20
38.101411
 11
121.762119
 21
38.101411
  0
LINE
  8
0
  6
CONTINUOUS
 62
1
 10
139.762119
 20
75.901411
 11
139.762119
 21
77.101411
  0
LINE
  8
0
  6
CONTINUOUS
 62
1
 10
138.762119
 20
78.101411
 11
103.762119
 21
78.101411
  0
LINE
  8
0
  6
CONTINUOUS
 62
1
 10
103.762119
 20
74.901411
 11
106.162119
 21
74.901411
  0
LINE
  8
0
  6
CONTINUOUS
 62
1
 10
121.762119
 20
41.301411
 11
119.362119
 21
41.301411
  0
LINE
  8
0
  6
CONTINUOUS
 62
1
 10
122.762119
 20
39.101411
 11
122.762119
 21
40.301411
  0
LINE
  8
0
  6
CONTINUOUS
 62
1
 10
111.162119
 20
46.301411
 11
111.162119
 21
69.901411
  0
LINE
  8
0
  6
CONTINUOUS
 62
1
 10
114.362119
 20
69.901411
 11
114.362119
 21
46.301411
  0
LINE
  8
0
  6
CONTINUOUS
 62
1
 10
102.762119
 20
40.301411
 11
102.762119
 21
39.101411
  0
LINE
  8
0
  6
CONTINUOUS
 62
1
 10
119.362119
 20
74.901411
 11
127.062119
 21
74.901411
  0
LINE
  8
0
  6
CONTINUOUS
 62
1
 10
106.162119
 20
41.301411
 11
103.762119
 21
41.301411
  0
ARC
  8
0
  6
CONTINUOUS
 62
1
 10
119.362119
 20
69.901411
 40
5.000000
 50
90.000000
 51
180.000000
  0
ARC
  8
0
  6
CONTINUOUS
 62
1
 10
106.162119
 20
69.901411
 40
5.000000
 50
0.000000
 51
90.000000
  0
ARC
  8
0
  6
CONTINUOUS
 62
1
 10
119.362119
 20
46.301411
 40
5.000000
 50
180.000000
 51
270.000000
  0
ARC
  8
0
  6
CONTINUOUS
 62
1
 10
106.162119
 20
46.301411
 40
5.000000
 50
270.000000
 51
0.000000
  0
ARC
  8
0
  6
CONTINUOUS
 62
1
 10
138.762119
 20
77.101411
 40
1.000000
 50
0.000000
 51
90.000000
  0
ARC
  8
0
  6
CONTINUOUS
 62
1
 10
138.762119
 20
75.901411
 40
1.000000
 50
270.000000
 51
0.000000
  0
ARC
  8
0
  6
CONTINUOUS
 62
1
 10
103.762119
 20
77.101411
 40
1.000000
 50
90.000000
 51
180.000000
  0
ARC
  8
0
  6
CONTINUOUS
 62
1
 10
103.762119
 20
75.901411
 40
1.000000
 50
180.000000
 51
270.000000
  0
ARC
  8
0
  6
CONTINUOUS
 62
1
 10
103.762119
 20
40.301411
 40
1.000000
 50
90.000000
 51
180.000000
  0
ARC
  8
0
  6
CONTINUOUS
 62
1
 10
103.762119
 20
39.101411
 40
1.000000
 50
180.000000
 51
270.000000
  0
ARC
  8
0
  6
CONTINUOUS
 62
1
 10
121.762119
 20
39.101411
 40
1.000000
 50
270.000000
 51
0.000000
  0
ARC
  8
0
  6
CONTINUOUS
 62
1
 10
121.762119
 20
40.301411
 40
1.000000
 50
0.000000
 51
90.000000
  0
LINE
  8
0
  6
CONTINUOUS
 62
1
 10
136.262119
 20
76.101411
 11
128.262119
 21
76.101411
  0
LINE
  8
0
  6
CONTINUOUS
 62
1
 10
136.262119
 20
76.101411
 11
137.462119
 21
74.901411
  0
LINE
  8
0
  6
CONTINUOUS
 62
1
 10
128.262119
 20
76.101411
 11
127.062119
 21
74.901411
  0
LINE
  8
0
  6
CONTINUOUS
 62
1
 10
137.462119
 20
74.901411
 11
138.762119
 21
74.901411
  0
LINE
  8
0
  6
CONTINUOUS
 62
1
 10
213.253180
 20
123.612117
 11
195.253180
 21
123.612117
  0
LINE
  8
0
  6
CONTINUOUS
 62
1
 10
177.253180
 20
85.812117
 11
177.253180
 21
84.612117
  0
LINE
  8
0
  6
CONTINUOUS
 62
1
 10
178.253180
 20
83.612117
 11
230.253180
 21
83.612117
  0
LINE
  8
0
  6
CONTINUOUS
 62
1
 10
195.253180
 20
120.412117
 11
197.653180
 21
120.412117
  0
LINE
  8
0
  6
CONTINUOUS
 62
1
 10
194.253180
 20
122.612117
 11
194.253180
 21
121.412117
  0
LINE
  8
0
  6
CONTINUOUS
 62
1
 10
205.853180
 20
115.412117
 11
205.853180
 21
91.812117
  0
LINE
  8
0
  6
CONTINUOUS
 62
1
 10
202.653180
 20
91.812117
 11
202.653180
 21
115.412117
  0
LINE
  8
0
  6
CONTINUOUS
 62
1
 10
214.253180
 20
121.412117
 11
214.253180
 21
122.612117
  0
LINE
  8
0
  6
CONTINUOUS
 62
1
 10
197.653180
 20
86.812117
 11
189.953180
 21
86.812117
  0
LINE
  8
0
  6
CONTINUOUS
 62
1
 10
210.853180
 20
120.412117
 11
213.253180
 21
120.412117
  0
ARC
  8
0
  6
CONTINUOUS
 62
1
 10
197.653180
 20
91.812117
 40
5.000000
 50
270.000000
 51
0.000000
  0
ARC
  8
0
  6
CONTINUOUS
 62
1
 10
210.853180
 20
91.812117
 40
5.000000
 50
180.000000
 51
270.000000
  0
ARC
  8
0
  6
CONTINUOUS
 62
1
 10
197.653180
 20
115.412117
 40
5.000000
 50
0.000000
 51
90.000000
  0
ARC
  8
0
  6
CONTINUOUS
 62
1
 10
210.853180
 20
115.412117
 40
5.000000
 50
90.000000
 51
180.000000
  0
ARC
  8
0
  6
CONTINUOUS
 62
1
 10
178.253180
 20
84.612117
 40
1.000000
 50
180.000000
 51
270.000000
  0
ARC
  8
0
  6
CONTINUOUS
 62
1
 10
178.253180
 20
85.812117
 40
1.000000
 50
90.000000
 51
180.000000
  0
ARC
  8
0
  6
CONTINUOUS
 62
1
 10
213.253180
 20
121.412117
 40
1.000000
 50
270.000000
 51
0.000000
  0
ARC
  8
0
  6
CONTINUOUS
 62
1
 10
213.253180
 20
122.612117
 40
1.000000
 50
0.000000
 51
90.000000
  0
ARC
  8
0
  6
CONTINUOUS
 62
1
 10
195.253180
 20
122.612117
 40
1.000000
 50
90.000000
 51
180.000000
  0
ARC
  8
0
  6
CONTINUOUS
 62
1
 10
195.253180
 20
121.412117
 40
1.000000
 50
180.000000
 51
270.000000
  0
LINE
  8
0
  6
CONTINUOUS
 62
1
 10
180.753180
 20
85.612117
 11
188.753180
 21
85.612117
  0
LINE
  8
0
  6
CONTINUOUS
 62
1
 10
180.753180
 20
85.612117
 11
179.553180
 21
86.812117
  0
LINE
  8
0
  6
CONTINUOUS
 62
1
 10
188.753180
 20
85.612117
 11
189.953180
 21
86.812117
  0
LINE
  8
0
  6
CONTINUOUS
 62
1
 10
179.553180
 20
86.812117
 11
178.253180
 21
86.812117
  0
LINE
  8
0
  6
CONTINUOUS
 62
1
 10
231.253180
 20
85.812117
 11
231.253180
 21
84.612117
  0
LINE
  8
0
  6
CONTINUOUS
 62
1
 10
210.853180
 20
86.812117
 11
218.553180
 21
86.812117
  0
ARC
  8
0
  6
CONTINUOUS
 62
1
 10
230.253180
 20
84.612117
 40
1.000000
 50
270.000000
 51
0.000000
  0
ARC
  8
0
  6
CONTINUOUS
 62
1
 10
230.253180
 20
85.812117
 40
1.000000
 50
0.000000
 51
90.000000
  0
LINE
  8
0
  6
CONTINUOUS
 62
1
 10
227.753180
 20
85.612117
 11
219.753180
 21
85.612117
  0
LINE
  8
0
  6
CONTINUOUS
 62
1
 10
227.753180
 20
85.612117
 11
228.953180
 21
86.812117
  0
LINE
  8
0
  6
CONTINUOUS
 62
1
 10
219.753180
 20
85.612117
 11
218.553180
 21
86.812117
  0
LINE
  8
0
  6
CONTINUOUS
 62
1
 10
228.953180
 20
86.812117
 11
230.253180
 21
86.812117
  0
LINE
  8
0
  6
CONTINUOUS
 62
1
 10
102.762119
 20
121.160369
 11
102.762119
 21
122.360369
  0
LINE
  8
0
  6
CONTINUOUS
 62
1
 10
86.762119
 20
160.160369
 11
121.762119
 21
160.160369
  0
LINE
  8
0
  6
CONTINUOUS
 62
1
 10
139.762119
 20
122.360369
 11
139.762119
 21
121.160369
  0
LINE
  8
0
  6
CONTINUOUS
 62
1
 10
138.762119
 20
120.160369
 11
103.762119
 21
120.160369
  0
LINE
  8
0
  6
CONTINUOUS
 62
1
 10
103.762119
 20
123.360369
 11
106.162119
 21
123.360369
  0
LINE
  8
0
  6
CONTINUOUS
 62
1
 10
121.762119
 20
156.960369
 11
119.362119
 21
156.960369
  0
LINE
  8
0
  6
CONTINUOUS
 62
1
 10
122.762119
 20
159.160369
 11
122.762119
 21
157.960369
  0
LINE
  8
0
  6
CONTINUOUS
 62
1
 10
111.162119
 20
151.960369
 11
111.162119
 21
128.360369
  0
LINE
  8
0
  6
CONTINUOUS
 62
1
 10
114.362119
 20
128.360369
 11
114.362119
 21
151.960369
  0
LINE
  8
0
  6
CONTINUOUS
 62
1
 10
119.362119
 20
123.360369
 11
127.062119
 21
123.360369
  0
LINE
  8
0
  6
CONTINUOUS
 62
1
 10
106.162119
 20
156.960369
 11
103.762119
 21
156.960369
  0
ARC
  8
0
  6
CONTINUOUS
 62
1
 10
119.362119
 20
128.360369
 40
5.000000
 50
180.000000
 51
270.000000
  0
ARC
  8
0
  6
CONTINUOUS
 62
1
 10
106.162119
 20
128.360369
 40
5.000000
 50
270.000000
 51
0.000000
  0
ARC
  8
0
  6
CONTINUOUS
 62
1
 10
119.362119
 20
151.960369
 40
5.000000
 50
90.000000
 51
180.000000
  0
ARC
  8
0
  6
CONTINUOUS
 62
1
 10
106.162119
 20
151.960369
 40
5.000000
 50
0.000000
 51
90.000000
  0
ARC
  8
0
  6
CONTINUOUS
 62
1
 10
138.762119
 20
121.160369
 40
1.000000
 50
270.000000
 51
0.000000
  0
ARC
  8
0
  6
CONTINUOUS
 62
1
 10
138.762119
 20
122.360369
 40
1.000000
 50
0.000000
 51
90.000000
  0
ARC
  8
0
  6
CONTINUOUS
 62
1
 10
103.762119
 20
121.160369
 40
1.000000
 50
180.000000
 51
270.000000
  0
ARC
  8
0
  6
CONTINUOUS
 62
1
 10
103.762119
 20
122.360369
 40
1.000000
 50
90.000000
 51
180.000000
  0
ARC
  8
0
  6
CONTINUOUS
 62
1
 10
121.762119
 20
159.160369
 40
1.000000
 50
0.000000
 51
90.000000
  0
ARC
  8
0
  6
CONTINUOUS
 62
1
 10
121.762119
 20
157.960369
 40
1.000000
 50
270.000000
 51
0.000000
  0
LINE
  8
0
  6
CONTINUOUS
 62
1
 10
136.262119
 20
122.160369
 11
128.262119
 21
122.160369
  0
LINE
  8
0
  6
CONTINUOUS
 62
1
 10
136.262119
 20
122.160369
 11
137.462119
 21
123.360369
  0
LINE
  8
0
  6
CONTINUOUS
 62
1
 10
128.262119
 20
122.160369
 11
127.062119
 21
123.360369
  0
LINE
  8
0
  6
CONTINUOUS
 62
1
 10
137.462119
 20
123.360369
 11
138.762119
 21
123.360369
  0
LINE
  8
0
  6
CONTINUOUS
 62
1
 10
85.762119
 20
157.960369
 11
85.762119
 21
159.160369
  0
LINE
  8
0
  6
CONTINUOUS
 62
1
 10
106.162119
 20
156.960369
 11
98.462119
 21
156.960369
  0
ARC
  8
0
  6
CONTINUOUS
 62
1
 10
86.762119
 20
159.160369
 40
1.000000
 50
90.000000
 51
180.000000
  0
ARC
  8
0
  6
CONTINUOUS
 62
1
 10
86.762119
 20
157.960369
 40
1.000000
 50
180.000000
 51
270.000000
  0
LINE
  8
0
  6
CONTINUOUS
 62
1
 10
89.262119
 20
158.160369
 11
97.262119
 21
158.160369
  0
LINE
  8
0
  6
CONTINUOUS
 62
1
 10
89.262119
 20
158.160369
 11
88.062119
 21
156.960369
  0
LINE
  8
0
  6
CONTINUOUS
 62
1
 10
97.262119
 20
158.160369
 11
98.462119
 21
156.960369
  0
LINE
  8
0
  6
CONTINUOUS
 62
1
 10
88.062119
 20
156.960369
 11
86.762119
 21
156.960369
  0
TEXT
  8
0
  6
CONTINUOUS
 62
1
 10
139.710576
 20
48.811376
 40
2.000000
  1
Section 40111
 50
90.000000
 41
1.000000
 51
0.000000
  7
STANDARD
  0
TEXT
  8
0
  6
CONTINUOUS
 62
1
 10
139.710576
 20
132.985585
 40
2.000000
  1
Section 40112
 50
90.000000
 41
1.000000
 51
0.000000
  7
STANDARD
  0
TEXT
  8
0
  6
CONTINUOUS
 62
1
 10
231.250020
 20
94.553334
 40
2.000000
  1
Section 40113
 50
90.000000
 41
1.000000
 51
0.000000
  7
STANDARD
  0
LINE
  8
0
  6
CONTINUOUS
 62
1
 10
17.709024
 20
175.875224
 11
22.771524
 21
175.875224
  0
LINE
  8
0
  6
CONTINUOUS
 62
1
 10
17.709024
 20
188.868974
 11
22.771524
 21
188.868974
  0
LINE
  8
0
  6
CONTINUOUS
 62
1
 10
22.771524
 20
189.881474
 11
18.813570
 21
189.881474
  0
LINE
  8
0
  6
CONTINUOUS
 62
1
 10
22.771524
 20
174.862724
 11
18.813570
 21
174.862724
  0
LINE
  8
0
  6
CONTINUOUS
 62
1
 10
13.152774
 20
184.692412
 11
13.152774
 21
180.051787
  0
LINE
  8
0
  6
CONTINUOUS
 62
1
 10
14.165274
 20
179.123662
 11
14.165274
 21
181.865849
  0
LINE
  8
0
  6
CONTINUOUS
 62
1
 10
14.165274
 20
182.878349
 11
14.165274
 21
185.620537
  0
LINE
  8
0
  6
CONTINUOUS
 62
1
 10
13.152774
 20
180.051787
 11
10.621524
 21
182.372099
  0
LINE
  8
0
  6
CONTINUOUS
 62
1
 10
22.771524
 20
171.234599
 11
18.813570
 21
174.862724
  0
LINE
  8
0
  6
CONTINUOUS
 62
1
 10
16.696524
 20
176.803349
 11
14.165274
 21
179.123662
  0
LINE
  8
0
  6
CONTINUOUS
 62
1
 10
18.813570
 20
189.881474
 11
22.771524
 21
193.509599
  0
LINE
  8
0
  6
CONTINUOUS
 62
1
 10
10.621524
 20
182.372099
 11
13.152774
 21
184.692412
  0
LINE
  8
0
  6
CONTINUOUS
 62
1
 10
14.165274
 20
185.620537
 11
16.696524
 21
187.940849
  0
LINE
  8
0
  6
CONTINUOUS
 62
1
 10
22.771524
 20
174.862724
 11
22.771524
 21
171.234599
  0
LINE
  8
0
  6
CONTINUOUS
 62
1
 10
22.771524
 20
181.865849
 11
22.771524
 21
175.875224
  0
LINE
  8
0
  6
CONTINUOUS
 62
1
 10
22.771524
 20
193.509599
 11
22.771524
 21
189.881474
  0
LINE
  8
0
  6
CONTINUOUS
 62
1
 10
22.771524
 20
188.868974
 11
22.771524
 21
182.878349
  0
LINE
  8
0
  6
CONTINUOUS
 62
1
 10
22.771524
 20
181.865849
 11
17.709024
 21
181.865849
  0
LINE
  8
0
  6
CONTINUOUS
 62
1
 10
16.696524
 20
181.865849
 11
14.165274
 21
181.865849
  0
LINE
  8
0
  6
CONTINUOUS
 62
1
 10
22.771524
 20
182.878349
 11
17.709024
 21
182.878349
  0
LINE
  8
0
  6
CONTINUOUS
 62
1
 10
16.696524
 20
182.878349
 11
14.165274
 21
182.878349
  0
LINE
  8
0
  6
CONTINUOUS
 62
1
 10
16.696524
 20
187.940849
 11
16.696524
 21
182.878349
  0
LINE
  8
0
  6
CONTINUOUS
 62
1
 10
16.696524
 20
181.865849
 11
16.696524
 21
176.803349
  0
LINE
  8
0
  6
CONTINUOUS
 62
1
 10
17.709024
 20
175.875224
 11
17.709024
 21
181.865849
  0
LINE
  8
0
  6
CONTINUOUS
 62
1
 10
17.709024
 20
182.878349
 11
17.709024
 21
188.868974
  0
LINE
  8
0
  6
CONTINUOUS
 62
1
 10
12.950274
 20
180.237412
 11
12.950274
 21
184.506787
  0
LINE
  8
0
  6
CONTINUOUS
 62
1
 10
12.747774
 20
184.321162
 11
12.747774
 21
180.423037
  0
LINE
  8
0
  6
CONTINUOUS
 62
1
 10
12.545274
 20
180.608662
 11
12.545274
 21
184.135537
  0
LINE
  8
0
  6
CONTINUOUS
 62
1
 10
12.342774
 20
183.949912
 11
12.342774
 21
180.794287
  0
LINE
  8
0
  6
CONTINUOUS
 62
1
 10
12.140274
 20
180.979912
 11
12.140274
 21
183.764287
  0
LINE
  8
0
  6
CONTINUOUS
 62
1
 10
11.937774
 20
183.578662
 11
11.937774
 21
181.165537
  0
LINE
  8
0
  6
CONTINUOUS
 62
1
 10
11.735274
 20
181.351162
 11
11.735274
 21
183.393037
  0
LINE
  8
0
  6
CONTINUOUS
 62
1
 10
11.532774
 20
183.207412
 11
11.532774
 21
181.536787
  0
LINE
  8
0
  6
CONTINUOUS
 62
1
 10
11.330274
 20
181.722412
 11
11.330274
 21
183.021787
  0
LINE
  8
0
  6
CONTINUOUS
 62
1
 10
11.127774
 20
182.836162
 11
11.127774
 21
181.908037
  0
LINE
  8
0
  6
CONTINUOUS
 62
1
 10
10.925274
 20
182.093662
 11
10.925274
 21
182.650537
  0
LINE
  8
0
  6
CONTINUOUS
 62
1
 10
10.722774
 20
182.464912
 11
10.722774
 21
182.279287
  0
LINE
  8
0
  6
CONTINUOUS
 62
1
 10
22.366524
 20
175.875224
 11
22.366524
 21
181.865849
  0
LINE
  8
0
  6
CONTINUOUS
 62
1
 10
21.961524
 20
181.865849
 11
21.961524
 21
175.875224
  0
LINE
  8
0
  6
CONTINUOUS
 62
1
 10
21.556524
 20
175.875224
 11
21.556524
 21
181.865849
  0
LINE
  8
0
  6
CONTINUOUS
 62
1
 10
21.151524
 20
181.865849
 11
21.151524
 21
175.875224
  0
LINE
  8
0
  6
CONTINUOUS
 62
1
 10
20.746524
 20
175.875224
 11
20.746524
 21
181.865849
  0
LINE
  8
0
  6
CONTINUOUS
 62
1
 10
20.341524
 20
181.865849
 11
20.341524
 21
175.875224
  0
LINE
  8
0
  6
CONTINUOUS
 62
1
 10
19.936524
 20
175.875224
 11
19.936524
 21
181.865849
  0
LINE
  8
0
  6
CONTINUOUS
 62
1
 10
19.531524
 20
181.865849
 11
19.531524
 21
175.875224
  0
LINE
  8
0
  6
CONTINUOUS
 62
1
 10
19.126524
 20
175.875224
 11
19.126524
 21
181.865849
  0
LINE
  8
0
  6
CONTINUOUS
 62
1
 10
18.721524
 20
181.865849
 11
18.721524
 21
175.875224
  0
LINE
  8
0
  6
CONTINUOUS
 62
1
 10
18.316524
 20
175.875224
 11
18.316524
 21
181.865849
  0
LINE
  8
0
  6
CONTINUOUS
 62
1
 10
17.911524
 20
181.865849
 11
17.911524
 21
175.875224
  0
LINE
  8
0
  6
CONTINUOUS
 62
1
 10
22.366524
 20
182.878349
 11
22.366524
 21
188.868974
  0
LINE
  8
0
  6
CONTINUOUS
 62
1
 10
21.961524
 20
188.868974
 11
21.961524
 21
182.878349
  0
LINE
  8
0
  6
CONTINUOUS
 62
1
 10
21.556524
 20
182.878349
 11
21.556524
 21
188.868974
  0
LINE
  8
0
  6
CONTINUOUS
 62
1
 10
21.151524
 20
188.868974
 11
21.151524
 21
182.878349
  0
LINE
  8
0
  6
CONTINUOUS
 62
1
 10
21.151524
 20
188.868974
 11
21.151524
 21
182.878349
  0
LINE
  8
0
  6
CONTINUOUS
 62
1
 10
20.746524
 20
182.878349
 11
20.746524
 21
188.868974
  0
LINE
  8
0
  6
CONTINUOUS
 62
1
 10
20.341524
 20
188.868974
 11
20.341524
 21
182.878349
  0
LINE
  8
0
  6
CONTINUOUS
 62
1
 10
19.936524
 20
182.878349
 11
19.936524
 21
188.868974
  0
LINE
  8
0
  6
CONTINUOUS
 62
1
 10
19.531524
 20
188.868974
 11
19.531524
 21
182.878349
  0
LINE
  8
0
  6
CONTINUOUS
 62
1
 10
19.126524
 20
182.878349
 11
19.126524
 21
188.868974
  0
LINE
  8
0
  6
CONTINUOUS
 62
1
 10
18.721524
 20
188.868974
 11
18.721524
 21
182.878349
  0
LINE
  8
0
  6
CONTINUOUS
 62
1
 10
18.316524
 20
182.878349
 11
18.316524
 21
188.868974
  0
LINE
  8
0
  6
CONTINUOUS
 62
1
 10
17.911524
 20
188.868974
 11
17.911524
 21
182.878349
  0
LINE
  8
0
  6
CONTINUOUS
 62
1
 10
16.291524
 20
182.878349
 11
16.291524
 21
187.569599
  0
LINE
  8
0
  6
CONTINUOUS
 62
1
 10
15.886524
 20
187.198349
 11
15.886524
 21
182.878349
  0
LINE
  8
0
  6
CONTINUOUS
 62
1
 10
15.481524
 20
182.878349
 11
15.481524
 21
186.827099
  0
LINE
  8
0
  6
CONTINUOUS
 62
1
 10
15.076524
 20
186.455849
 11
15.076524
 21
182.878349
  0
LINE
  8
0
  6
CONTINUOUS
 62
1
 10
14.671524
 20
182.878349
 11
14.671524
 21
186.084599
  0
LINE
  8
0
  6
CONTINUOUS
 62
1
 10
14.266524
 20
185.713349
 11
14.266524
 21
182.878349
  0
LINE
  8
0
  6
CONTINUOUS
 62
1
 10
16.291524
 20
177.174599
 11
16.291524
 21
181.865849
  0
LINE
  8
0
  6
CONTINUOUS
 62
1
 10
15.886524
 20
181.865849
 11
15.886524
 21
177.545849
  0
LINE
  8
0
  6
CONTINUOUS
 62
1
 10
15.481524
 20
177.917099
 11
15.481524
 21
181.865849
  0
LINE
  8
0
  6
CONTINUOUS
 62
1
 10
15.076524
 20
181.865849
 11
15.076524
 21
178.288349
  0
LINE
  8
0
  6
CONTINUOUS
 62
1
 10
14.671524
 20
178.659599
 11
14.671524
 21
181.865849
  0
LINE
  8
0
  6
CONTINUOUS
 62
1
 10
14.266524
 20
181.865849
 11
14.266524
 21
179.030849
  0
LINE
  8
0
  6
CONTINUOUS
 62
1
 10
22.366524
 20
171.605849
 11
22.366524
 21
174.862724
  0
LINE
  8
0
  6
CONTINUOUS
 62
1
 10
21.961524
 20
174.862724
 11
21.961524
 21
171.977099
  0
LINE
  8
0
  6
CONTINUOUS
 62
1
 10
21.556524
 20
172.348349
 11
21.556524
 21
174.862724
  0
LINE
  8
0
  6
CONTINUOUS
 62
1
 10
21.151524
 20
174.862724
 11
21.151524
 21
172.719599
  0
LINE
  8
0
  6
CONTINUOUS
 62
1
 10
20.746524
 20
173.090849
 11
20.746524
 21
174.862724
  0
LINE
  8
0
  6
CONTINUOUS
 62
1
 10
20.341524
 20
174.862724
 11
20.341524
 21
173.462099
  0
LINE
  8
0
  6
CONTINUOUS
 62
1
 10
19.936524
 20
173.833349
 11
19.936524
 21
174.862724
  0
LINE
  8
0
  6
CONTINUOUS
 62
1
 10
19.531524
 20
174.862724
 11
19.531524
 21
174.204599
  0
LINE
  8
0
  6
CONTINUOUS
 62
1
 10
19.126524
 20
174.575849
 11
19.126524
 21
174.862724
  0
LINE
  8
0
  6
CONTINUOUS
 62
1
 10
22.366524
 20
189.881474
 11
22.366524
 21
193.138349
  0
LINE
  8
0
  6
CONTINUOUS
 62
1
 10
21.961524
 20
192.767099
 11
21.961524
 21
189.881474
  0
LINE
  8
0
  6
CONTINUOUS
 62
1
 10
21.556524
 20
189.881474
 11
21.556524
 21
192.395849
  0
LINE
  8
0
  6
CONTINUOUS
 62
1
 10
21.151524
 20
192.024599
 11
21.151524
 21
189.881474
  0
LINE
  8
0
  6
CONTINUOUS
 62
1
 10
20.746524
 20
189.881474
 11
20.746524
 21
191.653349
  0
LINE
  8
0
  6
CONTINUOUS
 62
1
 10
20.341524
 20
191.282099
 11
20.341524
 21
189.881474
  0
LINE
  8
0
  6
CONTINUOUS
 62
1
 10
19.936524
 20
189.881474
 11
19.936524
 21
190.910849
  0
LINE
  8
0
  6
CONTINUOUS
 62
1
 10
19.531524
 20
190.539599
 11
19.531524
 21
189.881474
  0
LINE
  8
0
  6
CONTINUOUS
 62
1
 10
19.126524
 20
189.881474
 11
19.126524
 21
190.168349
  0
LINE
  8
0
  6
CONTINUOUS
 62
1
 10
22.569024
 20
175.875224
 11
22.569024
 21
181.865849
  0
LINE
  8
0
  6
CONTINUOUS
 62
1
 10
22.164024
 20
181.865849
 11
22.164024
 21
175.875224
  0
LINE
  8
0
  6
CONTINUOUS
 62
1
 10
21.759024
 20
181.865849
 11
21.759024
 21
175.875224
  0
LINE
  8
0
  6
CONTINUOUS
 62
1
 10
21.354024
 20
175.875224
 11
21.354024
 21
181.865849
  0
LINE
  8
0
  6
CONTINUOUS
 62
1
 10
19.329024
 20
175.875224
 11
19.329024
 21
181.865849
  0
LINE
  8
0
  6
CONTINUOUS
 62
1
 10
18.924024
 20
181.865849
 11
18.924024
 21
175.875224
  0
LINE
  8
0
  6
CONTINUOUS
 62
1
 10
18.519024
 20
175.875224
 11
18.519024
 21
181.865849
  0
LINE
  8
0
  6
CONTINUOUS
 62
1
 10
18.114024
 20
181.865849
 11
18.114024
 21
175.875224
  0
LINE
  8
0
  6
CONTINUOUS
 62
1
 10
19.734024
 20
181.865849
 11
19.734024
 21
175.875224
  0
LINE
  8
0
  6
CONTINUOUS
 62
1
 10
20.139024
 20
175.875224
 11
20.139024
 21
181.865849
  0
LINE
  8
0
  6
CONTINUOUS
 62
1
 10
20.544024
 20
181.865849
 11
20.544024
 21
175.875224
  0
LINE
  8
0
  6
CONTINUOUS
 62
1
 10
20.949024
 20
175.875224
 11
20.949024
 21
181.865849
  0
LINE
  8
0
  6
CONTINUOUS
 62
1
 10
22.569024
 20
182.878349
 11
22.569024
 21
188.868974
  0
LINE
  8
0
  6
CONTINUOUS
 62
1
 10
22.164024
 20
188.868974
 11
22.164024
 21
182.878349
  0
LINE
  8
0
  6
CONTINUOUS
 62
1
 10
18.114024
 20
182.878349
 11
18.114024
 21
188.868974
  0
LINE
  8
0
  6
CONTINUOUS
 62
1
 10
18.519024
 20
188.868974
 11
18.519024
 21
182.878349
  0
LINE
  8
0
  6
CONTINUOUS
 62
1
 10
18.924024
 20
188.868974
 11
18.924024
 21
182.878349
  0
LINE
  8
0
  6
CONTINUOUS
 62
1
 10
19.329024
 20
182.878349
 11
19.329024
 21
188.868974
  0
LINE
  8
0
  6
CONTINUOUS
 62
1
 10
19.734024
 20
182.878349
 11
19.734024
 21
188.868974
  0
LINE
  8
0
  6
CONTINUOUS
 62
1
 10
20.139024
 20
182.878349
 11
20.139024
 21
188.868974
  0
LINE
  8
0
  6
CONTINUOUS
 62
1
 10
20.544024
 20
182.878349
 11
20.544024
 21
188.868974
  0
LINE
  8
0
  6
CONTINUOUS
 62
1
 10
20.949024
 20
188.868974
 11
20.949024
 21
182.878349
  0
LINE
  8
0
  6
CONTINUOUS
 62
1
 10
21.354024
 20
188.868974
 11
21.354024
 21
182.878349
  0
LINE
  8
0
  6
CONTINUOUS
 62
1
 10
21.759024
 20
182.878349
 11
21.759024
 21
188.868974
  0
LINE
  8
0
  6
CONTINUOUS
 62
1
 10
22.569024
 20
189.881474
 11
22.569024
 21
193.323974
  0
LINE
  8
0
  6
CONTINUOUS
 62
1
 10
22.164024
 20
192.952724
 11
22.164024
 21
189.881474
  0
LINE
  8
0
  6
CONTINUOUS
 62
1
 10
21.759024
 20
189.881474
 11
21.759024
 21
192.581474
  0
LINE
  8
0
  6
CONTINUOUS
 62
1
 10
21.354024
 20
192.210224
 11
21.354024
 21
189.881474
  0
LINE
  8
0
  6
CONTINUOUS
 62
1
 10
20.949024
 20
189.881474
 11
20.949024
 21
191.838974
  0
LINE
  8
0
  6
CONTINUOUS
 62
1
 10
20.544024
 20
191.467724
 11
20.544024
 21
189.881474
  0
LINE
  8
0
  6
CONTINUOUS
 62
1
 10
20.139024
 20
191.096474
 11
20.139024
 21
189.881474
  0
LINE
  8
0
  6
CONTINUOUS
 62
1
 10
19.734024
 20
190.725224
 11
19.734024
 21
189.881474
  0
LINE
  8
0
  6
CONTINUOUS
 62
1
 10
19.329024
 20
189.881474
 11
19.329024
 21
190.353974
  0
LINE
  8
0
  6
CONTINUOUS
 62
1
 10
18.924024
 20
189.982724
 11
18.924024
 21
189.881474
  0
LINE
  8
0
  6
CONTINUOUS
 62
1
 10
22.569024
 20
171.420224
 11
22.569024
 21
174.862724
  0
LINE
  8
0
  6
CONTINUOUS
 62
1
 10
22.164024
 20
174.862724
 11
22.164024
 21
171.791474
  0
LINE
  8
0
  6
CONTINUOUS
 62
1
 10
21.759024
 20
172.162724
 11
21.759024
 21
174.862724
  0
LINE
  8
0
  6
CONTINUOUS
 62
1
 10
21.354024
 20
174.862724
 11
21.354024
 21
172.533974
  0
LINE
  8
0
  6
CONTINUOUS
 62
1
 10
20.949024
 20
172.905224
 11
20.949024
 21
174.862724
  0
LINE
  8
0
  6
CONTINUOUS
 62
1
 10
20.544024
 20
174.862724
 11
20.544024
 21
173.276474
  0
LINE
  8
0
  6
CONTINUOUS
 62
1
 10
20.139024
 20
173.647724
 11
20.139024
 21
174.862724
  0
LINE
  8
0
  6
CONTINUOUS
 62
1
 10
19.734024
 20
174.862724
 11
19.734024
 21
174.018974
  0
LINE
  8
0
  6
CONTINUOUS
 62
1
 10
19.329024
 20
174.390224
 11
19.329024
 21
174.862724
  0
LINE
  8
0
  6
CONTINUOUS
 62
1
 10
18.924024
 20
174.862724
 11
18.924024
 21
174.761474
  0
LINE
  8
0
  6
CONTINUOUS
 62
1
 10
16.494024
 20
182.878349
 11
16.494024
 21
187.755224
  0
LINE
  8
0
  6
CONTINUOUS
 62
1
 10
16.089024
 20
187.383974
 11
16.089024
 21
182.878349
  0
LINE
  8
0
  6
CONTINUOUS
 62
1
 10
15.684024
 20
182.878349
 11
15.684024
 21
187.012724
  0
LINE
  8
0
  6
CONTINUOUS
 62
1
 10
15.279024
 20
186.641474
 11
15.279024
 21
182.878349
  0
LINE
  8
0
  6
CONTINUOUS
 62
1
 10
14.874024
 20
182.878349
 11
14.874024
 21
186.270224
  0
LINE
  8
0
  6
CONTINUOUS
 62
1
 10
14.469024
 20
185.898974
 11
14.469024
 21
182.878349
  0
LINE
  8
0
  6
CONTINUOUS
 62
1
 10
14.469024
 20
181.865849
 11
14.469024
 21
178.845224
  0
LINE
  8
0
  6
CONTINUOUS
 62
1
 10
14.874024
 20
178.473974
 11
14.874024
 21
181.865849
  0
LINE
  8
0
  6
CONTINUOUS
 62
1
 10
15.279024
 20
181.865849
 11
15.279024
 21
178.102724
  0
LINE
  8
0
  6
CONTINUOUS
 62
1
 10
15.684024
 20
177.731474
 11
15.684024
 21
181.865849
  0
LINE
  8
0
  6
CONTINUOUS
 62
1
 10
16.089024
 20
181.865849
 11
16.089024
 21
177.360224
  0
LINE
  8
0
  6
CONTINUOUS
 62
1
 10
16.494024
 20
176.988974
 11
16.494024
 21
181.865849
  0
LINE
  8
0
  6
CONTINUOUS
 62
1
 10
33.571524
 20
198.957126
 11
33.571524
 21
165.787045
  0
LINE
  8
0
  6
CONTINUOUS
 62
1
 10
24.796524
 20
165.787045
 11
24.796524
 21
198.957126
  0
ARC
  8
0
  6
CONTINUOUS
 62
1
 10
27.461923
 20
168.074104
 40
1.075798
 50
101.065051
 51
132.065051
  0
ARC
  8
0
  6
CONTINUOUS
 62
1
 10
27.572266
 20
168.135782
 40
1.110793
 50
138.434949
 51
168.434949
  0
ARC
  8
0
  6
CONTINUOUS
 62
1
 10
28.788962
 20
167.972760
 40
2.336988
 50
170.500000
 51
189.499999
  0
ARC
  8
0
  6
CONTINUOUS
 62
1
 10
28.208722
 20
167.511743
 40
1.726341
 50
177.500000
 51
272.499999
  0
LINE
  8
0
  6
CONTINUOUS
 62
1
 10
28.284024
 20
165.787045
 11
29.826881
 21
165.787045
  0
ARC
  8
0
  6
CONTINUOUS
 62
1
 10
29.701546
 20
168.734479
 40
2.950098
 50
272.434949
 51
304.434949
  0
ARC
  8
0
  6
CONTINUOUS
 62
1
 10
30.617539
 20
167.320288
 40
1.266522
 50
306.434949
 51
0.434948
  0
LINE
  8
0
  6
CONTINUOUS
 62
1
 10
31.884024
 20
167.329902
 11
31.884024
 21
167.844188
  0
ARC
  8
0
  6
CONTINUOUS
 62
1
 10
30.643121
 20
167.905751
 40
1.242430
 50
357.159808
 51
80.159810
  0
LINE
  8
0
  6
CONTINUOUS
 62
1
 10
31.884024
 20
170.415617
 11
26.484024
 21
170.415617
  0
LINE
  8
0
  6
CONTINUOUS
 62
1
 10
26.484024
 20
170.415617
 11
26.484024
 21
172.729902
  0
ARC
  8
0
  6
CONTINUOUS
 62
1
 10
27.512596
 20
172.729902
 40
1.028571
 50
90.000000
 51
180.000000
  0
ARC
  8
0
  6
CONTINUOUS
 62
1
 10
27.512596
 20
172.472760
 40
1.285714
 50
0.000001
 51
90.000000
  0
LINE
  8
0
  6
CONTINUOUS
 62
1
 10
28.798310
 20
172.472760
 11
28.798310
 21
170.158474
  0
LINE
  8
0
  6
CONTINUOUS
 62
1
 10
28.798310
 20
171.958474
 11
31.884024
 21
173.758474
  0
LINE
  8
0
  6
CONTINUOUS
 62
1
 10
31.884024
 20
175.044188
 11
26.484024
 21
175.044188
  0
LINE
  8
0
  6
CONTINUOUS
 62
1
 10
26.484024
 20
178.129902
 11
31.884024
 21
178.129902
  0
LINE
  8
0
  6
CONTINUOUS
 62
1
 10
26.484024
 20
176.329902
 11
26.484024
 21
179.929902
  0
LINE
  8
0
  6
CONTINUOUS
 62
1
 10
26.484024
 20
183.015617
 11
31.884024
 21
183.015617
  0
LINE
  8
0
  6
CONTINUOUS
 62
1
 10
26.484024
 20
181.215617
 11
26.484024
 21
184.815617
  0
LINE
  8
0
  6
CONTINUOUS
 62
1
 10
31.884024
 20
186.101331
 11
26.484024
 21
188.158474
  0
LINE
  8
0
  6
CONTINUOUS
 62
1
 10
26.484024
 20
188.158474
 11
31.884024
 21
190.215617
  0
LINE
  8
0
  6
CONTINUOUS
 62
1
 10
30.084024
 20
186.872760
 11
30.084024
 21
189.701331
  0
LINE
  8
0
  6
CONTINUOUS
 62
1
 10
31.884024
 20
191.501331
 11
26.484024
 21
191.501331
  0
LINE
  8
0
  6
CONTINUOUS
 62
1
 10
31.884024
 20
191.501331
 11
31.884024
 21
194.587045
  0
LINE
  8
0
  6
CONTINUOUS
 62
1
 10
31.884024
 20
195.872760
 11
26.484024
 21
195.872760
  0
LINE
  8
0
  6
CONTINUOUS
 62
1
 10
31.884024
 20
195.872760
 11
31.884024
 21
198.958474
  0
LINE
  8
0
  6
CONTINUOUS
 62
1
 10
260.875000
 20
194.750000
 11
259.000000
 21
194.750000
  0
ARC
  8
0
  6
CONTINUOUS
 62
1
 10
254.625723
 20
194.428881
 40
4.386048
 50
4.198591
 51
42.198592
  0
ARC
  8
0
  6
CONTINUOUS
 62
1
 10
254.692799
 20
193.436889
 40
5.063114
 50
51.059965
 51
90.059967
  0
ARC
  8
0
  6
CONTINUOUS
 62
1
 10
254.579736
 20
194.224870
 40
4.276488
 50
88.556045
 51
132.556044
  0
ARC
  8
0
  6
CONTINUOUS
 62
1
 10
253.273673
 20
195.942506
 40
2.137285
 50
137.914383
 51
213.914386
  0
ARC
  8
0
  6
CONTINUOUS
 62
1
 10
254.168697
 20
197.072828
 40
3.538004
 50
221.036243
 51
257.036244
  0
LINE
  8
0
  6
CONTINUOUS
 62
1
 10
253.375000
 20
193.625000
 11
256.750000
 21
192.687500
  0
ARC
  8
0
  6
CONTINUOUS
 62
1
 10
255.816959
 20
187.982879
 40
4.796251
 50
30.782407
 51
78.782407
  0
ARC
  8
0
  6
CONTINUOUS
 62
1
 10
256.367410
 20
188.900759
 40
3.886787
 50
325.289408
 51
23.289407
  0
ARC
  8
0
  6
CONTINUOUS
 62
1
 10
255.630344
 20
189.864312
 40
5.055095
 50
272.065052
 51
321.065051
  0
ARC
  8
0
  6
CONTINUOUS
 62
1
 10
254.979959
 20
191.370312
 40
6.610448
 50
238.235225
 51
277.235226
  0
ARC
  8
0
  6
CONTINUOUS
 62
1
 10
253.984249
 20
189.332171
 40
4.359294
 50
180.258542
 51
235.258541
  0
LINE
  8
0
  6
CONTINUOUS
 62
1
 10
249.625000
 20
189.312500
 11
251.500000
 21
189.312500
  0
ARC
  8
0
  6
CONTINUOUS
 62
1
 10
254.743573
 20
189.696772
 40
3.266256
 50
186.756437
 51
233.756439
  0
ARC
  8
0
  6
CONTINUOUS
 62
1
 10
255.189611
 20
192.048557
 40
5.523714
 50
244.510447
 51
290.510447
  0
ARC
  8
0
  6
CONTINUOUS
 62
1
 10
256.167150
 20
188.760175
 40
2.114560
 50
296.934949
 51
9.934947
  0
ARC
  8
0
  6
CONTINUOUS
 62
1
 10
256.345101
 20
188.720101
 40
1.947455
 50
12.000000
 51
78.000002
  0
LINE
  8
0
  6
CONTINUOUS
 62
1
 10
256.750000
 20
190.625000
 11
251.687500
 21
192.125000
  0
ARC
  8
0
  6
CONTINUOUS
 62
1
 10
253.113522
 20
195.823385
 40
3.963785
 50
192.914382
 51
248.914383
  0
ARC
  8
0
  6
CONTINUOUS
 62
1
 10
253.532236
 20
195.697588
 40
4.349170
 50
133.065052
 51
190.065051
  0
ARC
  8
0
  6
CONTINUOUS
 62
1
 10
254.380220
 20
194.014843
 40
6.180300
 50
87.150123
 51
128.150124
  0
ARC
  8
0
  6
CONTINUOUS
 62
1
 10
255.018733
 20
192.924917
 40
7.270132
 50
63.611341
 51
92.611342
  0
ARC
  8
0
  6
CONTINUOUS
 62
1
 10
255.661845
 20
194.909383
 40
5.215591
 50
358.248827
 51
60.248826
  0
LINE
  8
0
  6
CONTINUOUS
 62
1
 10
240.062500
 20
200.000000
 11
242.125000
 21
200.000000
  0
LINE
  8
0
  6
CONTINUOUS
 62
1
 10
242.125000
 20
200.000000
 11
242.125000
 21
193.250000
  0
LINE
  8
0
  6
CONTINUOUS
 62
1
 10
242.125000
 20
193.250000
 11
242.125000
 21
186.687500
  0
LINE
  8
0
  6
CONTINUOUS
 62
1
 10
242.125000
 20
186.687500
 11
247.187500
 21
186.687500
  0
LINE
  8
0
  6
CONTINUOUS
 62
1
 10
247.187500
 20
186.687500
 11
247.187500
 21
185.000000
  0
LINE
  8
0
  6
CONTINUOUS
 62
1
 10
247.187500
 20
185.000000
 11
241.000000
 21
185.000000
  0
LINE
  8
0
  6
CONTINUOUS
 62
1
 10
241.000000
 20
185.000000
 11
235.187500
 21
185.000000
  0
LINE
  8
0
  6
CONTINUOUS
 62
1
 10
235.187500
 20
185.000000
 11
235.187500
 21
186.687500
  0
LINE
  8
0
  6
CONTINUOUS
 62
1
 10
235.187500
 20
186.687500
 11
240.062500
 21
186.687500
  0
LINE
  8
0
  6
CONTINUOUS
 62
1
 10
240.062500
 20
186.687500
 11
240.062500
 21
193.625000
  0
LINE
  8
0
  6
CONTINUOUS
 62
1
 10
240.062500
 20
193.625000
 11
240.062500
 21
200.000000
  0
LINE
  8
0
  6
CONTINUOUS
 62
1
 10
232.562500
 20
191.937500
 11
232.562500
 21
185.000000
  0
LINE
  8
0
  6
CONTINUOUS
 62
1
 10
232.562500
 20
185.000000
 11
221.875000
 21
185.000000
  0
LINE
  8
0
  6
CONTINUOUS
 62
1
 10
221.875000
 20
185.000000
 11
221.875000
 21
186.687500
  0
LINE
  8
0
  6
CONTINUOUS
 62
1
 10
221.875000
 20
186.687500
 11
230.500000
 21
186.687500
  0
LINE
  8
0
  6
CONTINUOUS
 62
1
 10
230.500000
 20
186.687500
 11
230.500000
 21
191.375000
  0
LINE
  8
0
  6
CONTINUOUS
 62
1
 10
230.500000
 20
191.375000
 11
222.437500
 21
191.375000
  0
LINE
  8
0
  6
CONTINUOUS
 62
1
 10
222.437500
 20
191.375000
 11
222.437500
 21
193.062500
  0
LINE
  8
0
  6
CONTINUOUS
 62
1
 10
222.437500
 20
193.062500
 11
230.500000
 21
193.062500
  0
LINE
  8
0
  6
CONTINUOUS
 62
1
 10
230.500000
 20
193.062500
 11
230.500000
 21
198.312500
  0
LINE
  8
0
  6
CONTINUOUS
 62
1
 10
230.500000
 20
198.312500
 11
221.312500
 21
198.312500
  0
LINE
  8
0
  6
CONTINUOUS
 62
1
 10
221.312500
 20
198.312500
 11
221.312500
 21
200.000000
  0
LINE
  8
0
  6
CONTINUOUS
 62
1
 10
221.312500
 20
200.000000
 11
232.562500
 21
200.000000
  0
LINE
  8
0
  6
CONTINUOUS
 62
1
 10
232.562500
 20
200.000000
 11
232.562500
 21
191.937500
  0
LINE
  8
0
  6
CONTINUOUS
 62
1
 10
218.125000
 20
191.937500
 11
218.125000
 21
185.000000
  0
LINE
  8
0
  6
CONTINUOUS
 62
1
 10
218.125000
 20
185.000000
 11
207.437500
 21
185.000000
  0
LINE
  8
0
  6
CONTINUOUS
 62
1
 10
207.437500
 20
185.000000
 11
207.437500
 21
186.687500
  0
LINE
  8
0
  6
CONTINUOUS
 62
1
 10
207.437500
 20
186.687500
 11
216.062500
 21
186.687500
  0
LINE
  8
0
  6
CONTINUOUS
 62
1
 10
216.062500
 20
186.687500
 11
216.062500
 21
191.375000
  0
LINE
  8
0
  6
CONTINUOUS
 62
1
 10
216.062500
 20
191.375000
 11
208.000000
 21
191.375000
  0
LINE
  8
0
  6
CONTINUOUS
 62
1
 10
208.000000
 20
191.375000
 11
208.000000
 21
193.062500
  0
LINE
  8
0
  6
CONTINUOUS
 62
1
 10
208.000000
 20
193.062500
 11
216.062500
 21
193.062500
  0
LINE
  8
0
  6
CONTINUOUS
 62
1
 10
216.062500
 20
193.062500
 11
216.062500
 21
198.312500
  0
LINE
  8
0
  6
CONTINUOUS
 62
1
 10
216.062500
 20
198.312500
 11
206.875000
 21
198.312500
  0
LINE
  8
0
  6
CONTINUOUS
 62
1
 10
206.875000
 20
198.312500
 11
206.875000
 21
200.000000
  0
LINE
  8
0
  6
CONTINUOUS
 62
1
 10
206.875000
 20
200.000000
 11
218.125000
 21
200.000000
  0
LINE
  8
0
  6
CONTINUOUS
 62
1
 10
218.125000
 20
200.000000
 11
218.125000
 21
191.937500
  0
LINE
  8
0
  6
CONTINUOUS
 62
1
 10
203.687500
 20
192.125000
 11
203.687500
 21
185.000000
  0
LINE
  8
0
  6
CONTINUOUS
 62
1
 10
203.687500
 20
185.000000
 11
201.625000
 21
185.000000
  0
LINE
  8
0
  6
CONTINUOUS
 62
1
 10
201.625000
 20
185.000000
 11
201.625000
 21
191.562500
  0
LINE
  8
0
  6
CONTINUOUS
 62
1
 10
201.625000
 20
191.562500
 11
201.625000
 21
198.312500
  0
LINE
  8
0
  6
CONTINUOUS
 62
1
 10
201.625000
 20
198.312500
 11
194.500000
 21
198.312500
  0
LINE
  8
0
  6
CONTINUOUS
 62
1
 10
194.500000
 20
198.312500
 11
194.500000
 21
200.000000
  0
LINE
  8
0
  6
CONTINUOUS
 62
1
 10
194.500000
 20
200.000000
 11
203.687500
 21
200.000000
  0
LINE
  8
0
  6
CONTINUOUS
 62
1
 10
203.687500
 20
200.000000
 11
203.687500
 21
192.125000
  0
TEXT
  8
0
  6
CONTINUOUS
 62
1
 10
20.000000
 20
20.843750
 40
6.000000
  1
Corporate 2000 Doors
 50
90.000000
 41
1.000000
 51
0.000000
  7
STANDARD
  0
TEXT
  8
0
  6
CONTINUOUS
 62
1
 10
277.476378
 20
19.947503
 40
2.000000
  1
This drawing is the property of Crittall Windows Ltd and is a
 50
90.000000
 41
1.000000
 51
0.000000
  7
STANDARD
  0
TEXT
  8
0
  6
CONTINUOUS
 62
1
 10
281.476378
 20
19.947503
 40
2.000000
  1
confidential document and must not be copied or its contents
 50
90.000000
 41
1.000000
 51
0.000000
  7
STANDARD
  0
TEXT
  8
0
  6
CONTINUOUS
 62
1
 10
285.476378
 20
19.947503
 40
2.000000
  1
divulged without prior consent.
 50
90.000000
 41
1.000000
 51
0.000000
  7
STANDARD
  0
LINE
  8
0
  6
CONTINUOUS
 62
1
 10
284.747785
 20
187.705955
 11
286.997785
 21
186.862205
  0
LINE
  8
0
  6
CONTINUOUS
 62
1
 10
286.997785
 20
186.862205
 11
286.997785
 21
185.830955
  0
LINE
  8
0
  6
CONTINUOUS
 62
1
 10
286.997785
 20
185.830955
 11
282.872785
 21
187.518455
  0
LINE
  8
0
  6
CONTINUOUS
 62
1
 10
282.872785
 20
187.518455
 11
279.497785
 21
188.830955
  0
LINE
  8
0
  6
CONTINUOUS
 62
1
 10
279.497785
 20
188.830955
 11
279.497785
 21
189.862205
  0
LINE
  8
0
  6
CONTINUOUS
 62
1
 10
279.497785
 20
189.862205
 11
283.341535
 21
191.362205
  0
LINE
  8
0
  6
CONTINUOUS
 62
1
 10
283.341535
 20
191.362205
 11
286.997785
 21
192.862205
  0
LINE
  8
0
  6
CONTINUOUS
 62
1
 10
286.997785
 20
192.862205
 11
286.997785
 21
191.830955
  0
LINE
  8
0
  6
CONTINUOUS
 62
1
 10
286.997785
 20
191.830955
 11
284.747785
 21
190.987205
  0
LINE
  8
0
  6
CONTINUOUS
 62
1
 10
284.747785
 20
190.987205
 11
284.747785
 21
187.705955
  0
LINE
  8
0
  6
CONTINUOUS
 62
1
 10
283.810285
 20
190.612205
 11
280.341535
 21
189.299705
  0
LINE
  8
0
  6
CONTINUOUS
 62
1
 10
280.341535
 20
189.299705
 11
283.810285
 21
188.080955
  0
LINE
  8
0
  6
CONTINUOUS
 62
1
 10
283.810285
 20
188.080955
 11
283.810285
 21
190.612205
  0
LINE
  8
0
  6
CONTINUOUS
 62
1
 10
282.216535
 20
194.268455
 11
281.372785
 21
194.268455
  0
ARC
  8
0
  6
CONTINUOUS
 62
1
 10
276.953843
 20
192.134758
 40
4.907108
 50
25.773689
 51
58.773690
  0
LINE
  8
0
  6
CONTINUOUS
 62
1
 10
279.497785
 20
196.330955
 11
279.497785
 21
196.987205
  0
LINE
  8
0
  6
CONTINUOUS
 62
1
 10
279.497785
 20
196.987205
 11
283.247785
 21
196.987205
  0
LINE
  8
0
  6
CONTINUOUS
 62
1
 10
283.247785
 20
196.987205
 11
286.997785
 21
196.987205
  0
LINE
  8
0
  6
CONTINUOUS
 62
1
 10
286.997785
 20
196.987205
 11
286.997785
 21
195.955955
  0
LINE
  8
0
  6
CONTINUOUS
 62
1
 10
286.997785
 20
195.955955
 11
281.185285
 21
195.955955
  0
ARC
  8
0
  6
CONTINUOUS
 62
1
 10
278.316813
 20
193.044146
 40
4.087390
 50
17.429565
 51
45.429566
  0
TEXT
  8
0
  6
CONTINUOUS
 62
1
 10
91.214444
 20
53.721872
 40
2.000000
  1
40.0mm
 50
90.000000
 41
1.000000
 51
0.000000
  7
STANDARD
  0
TEXT
  8
0
  6
CONTINUOUS
 62
1
 10
95.214444
 20
52.221356
 40
2.000000
  1
(1 9/16 )
 50
90.000000
 41
1.000000
 51
0.000000
  7
STANDARD
  0
LINE
  8
0
  6
CONTINUOUS
 62
1
 10
93.204632
 20
63.512724
 11
93.968543
 21
63.512724
  0
LINE
  8
0
  6
CONTINUOUS
 62
1
 10
93.968543
 20
64.012724
 11
93.204632
 21
64.012724
  0
TEXT
  8
0
  6
CONTINUOUS
 62
1
 10
76.740376
 20
135.780830
 40
2.000000
  1
40.0mm
 50
90.000000
 41
1.000000
 51
0.000000
  7
STANDARD
  0
TEXT
  8
0
  6
CONTINUOUS
 62
1
 10
80.740376
 20
134.280314
 40
2.000000
  1
(1 9/16 )
 50
90.000000
 41
1.000000
 51
0.000000
  7
STANDARD
  0
LINE
  8
0
  6
CONTINUOUS
 62
1
 10
78.730563
 20
145.571682
 11
79.494475
 21
145.571682
  0
LINE
  8
0
  6
CONTINUOUS
 62
1
 10
79.494475
 20
146.071682
 11
78.730563
 21
146.071682
  0
TEXT
  8
0
  6
CONTINUOUS
 62
1
 10
166.761613
 20
99.250329
 40
2.000000
  1
40.0mm
 50
90.000000
 41
1.000000
 51
0.000000
  7
STANDARD
  0
TEXT
  8
0
  6
CONTINUOUS
 62
1
 10
170.761613
 20
97.749813
 40
2.000000
  1
(1 9/16 )
 50
90.000000
 41
1.000000
 51
0.000000
  7
STANDARD
  0
LINE
  8
0
  6
CONTINUOUS
 62
1
 10
168.751801
 20
109.041181
 11
169.515713
 21
109.041181
  0
LINE
  8
0
  6
CONTINUOUS
 62
1
 10
169.515713
 20
109.541181
 11
168.751801
 21
109.541181
  0
TEXT
  8
0
  6
CONTINUOUS
 62
1
 10
103.262119
 20
163.815816
 40
2.000000
  1
37.0mm
 50
90.000000
 41
1.000000
 51
0.000000
  7
STANDARD
  0
TEXT
  8
0
  6
CONTINUOUS
 62
1
 10
107.262119
 20
162.315300
 40
2.000000
  1
(1 7/16 )
 50
90.000000
 41
1.000000
 51
0.000000
  7
STANDARD
  0
LINE
  8
0
  6
CONTINUOUS
 62
1
 10
105.252306
 20
173.606668
 11
106.016218
 21
173.606668
  0
LINE
  8
0
  6
CONTINUOUS
 62
1
 10
106.016218
 20
174.106668
 11
105.252306
 21
174.106668
  0
TEXT
  8
0
  6
CONTINUOUS
 62
1
 10
120.262119
 20
80.756859
 40
2.000000
  1
37.0mm
 50
90.000000
 41
1.000000
 51
0.000000
  7
STANDARD
  0
TEXT
  8
0
  6
CONTINUOUS
 62
1
 10
124.262119
 20
79.256342
 40
2.000000
  1
(1 7/16 )
 50
90.000000
 41
1.000000
 51
0.000000
  7
STANDARD
  0
LINE
  8
0
  6
CONTINUOUS
 62
1
 10
122.252306
 20
90.547711
 11
123.016218
 21
90.547711
  0
LINE
  8
0
  6
CONTINUOUS
 62
1
 10
123.016218
 20
91.047711
 11
122.252306
 21
91.047711
  0
TEXT
  8
0
  6
CONTINUOUS
 62
1
 10
111.762119
 20
25.721872
 40
2.000000
  1
20.0mm
 50
90.000000
 41
1.000000
 51
0.000000
  7
STANDARD
  0
TEXT
  8
0
  6
CONTINUOUS
 62
1
 10
115.762119
 20
24.221356
 40
2.000000
  1
(25/32 )
 50
90.000000
 41
1.000000
 51
0.000000
  7
STANDARD
  0
LINE
  8
0
  6
CONTINUOUS
 62
1
 10
113.752306
 20
34.593212
 11
114.516218
 21
34.593212
  0
LINE
  8
0
  6
CONTINUOUS
 62
1
 10
114.516218
 20
35.093212
 11
113.752306
 21
35.093212
  0
TEXT
  8
0
  6
CONTINUOUS
 62
1
 10
120.262119
 20
106.850846
 40
2.000000
  1
37.0mm
 50
90.000000
 41
1.000000
 51
0.000000
  7
STANDARD
  0
TEXT
  8
0
  6
CONTINUOUS
 62
1
 10
124.262119
 20
105.350329
 40
2.000000
  1
(1 7/16 )
 50
90.000000
 41
1.000000
 51
0.000000
  7
STANDARD
  0
LINE
  8
0
  6
CONTINUOUS
 62
1
 10
122.252306
 20
116.641698
 11
123.016218
 21
116.641698
  0
LINE
  8
0
  6
CONTINUOUS
 62
1
 10
123.016218
 20
117.141698
 11
122.252306
 21
117.141698
  0
TEXT
  8
0
  6
CONTINUOUS
 62
1
 10
203.253180
 20
71.233093
 40
2.000000
  1
54.0mm
 50
90.000000
 41
1.000000
 51
0.000000
  7
STANDARD
  0
TEXT
  8
0
  6
CONTINUOUS
 62
1
 10
207.253180
 20
69.732577
 40
2.000000
  1
(2 1/8 )
 50
90.000000
 41
1.000000
 51
0.000000
  7
STANDARD
  0
LINE
  8
0
  6
CONTINUOUS
 62
1
 10
205.243367
 20
80.183228
 11
206.007279
 21
80.183228
  0
LINE
  8
0
  6
CONTINUOUS
 62
1
 10
206.007279
 20
80.683228
 11
205.243367
 21
80.683228
  0
TEXT
  8
0
  6
CONTINUOUS
 62
1
 10
203.253180
 20
126.232578
 40
2.000000
  1
20.0mm
 50
90.000000
 41
1.000000
 51
0.000000
  7
STANDARD
  0
TEXT
  8
0
  6
CONTINUOUS
 62
1
 10
207.253180
 20
124.732062
 40
2.000000
  1
(25/32 )
 50
90.000000
 41
1.000000
 51
0.000000
  7
STANDARD
  0
LINE
  8
0
  6
CONTINUOUS
 62
1
 10
205.243367
 20
135.103919
 11
206.007279
 21
135.103919
  0
LINE
  8
0
  6
CONTINUOUS
 62
1
 10
206.007279
 20
135.603919
 11
205.243367
 21
135.603919
  0
LINE
  8
0
  6
CONTINUOUS
 62
1
 10
108.664194
 20
168.195355
 11
122.762119
 21
168.195355
  0
LINE
  8
0
  6
CONTINUOUS
 62
1
 10
121.512119
 20
169.445355
 11
124.012119
 21
166.945355
  0
LINE
  8
0
  6
CONTINUOUS
 62
1
 10
125.653525
 20
111.230385
 11
139.762119
 21
111.230385
  0
LINE
  8
0
  6
CONTINUOUS
 62
1
 10
138.512119
 20
112.480385
 11
141.012119
 21
109.980385
  0
LINE
  8
0
  6
CONTINUOUS
 62
1
 10
125.543134
 20
85.136398
 11
139.762119
 21
85.136398
  0
LINE
  8
0
  6
CONTINUOUS
 62
1
 10
138.512119
 20
86.386398
 11
141.012119
 21
83.886398
  0
LINE
  8
0
  6
CONTINUOUS
 62
1
 10
117.066304
 20
30.101411
 11
122.762119
 21
30.101411
  0
LINE
  8
0
  6
CONTINUOUS
 62
1
 10
121.512119
 20
31.351411
 11
124.012119
 21
28.851411
  0
LINE
  8
0
  6
CONTINUOUS
 62
1
 10
200.286008
 20
130.612117
 11
194.253180
 21
130.612117
  0
LINE
  8
0
  6
CONTINUOUS
 62
1
 10
195.503180
 20
129.362117
 11
193.003180
 21
131.862117
  0
LINE
  8
0
  6
CONTINUOUS
 62
1
 10
200.145365
 20
75.612633
 11
177.253180
 21
75.612633
  0
LINE
  8
0
  6
CONTINUOUS
 62
1
 10
178.503180
 20
74.362633
 11
176.003180
 21
76.862633
  0
ENDSEC
  0
EOF
