  0
SECTION
  2
HEADER
  9
$LIMMIN
 10
0.000000
 20
0.000000
  9
$LIMMAX
 10
297.301779
 20
210.224104
  9
$EXTMIN
 10
0.000000
 20
0.000000
  9
$EXTMAX
 10
297.301779
 20
210.224104
  9
$ANGBASE
 50
0.0
  9
$ANGDIR
 70
0
  9
$DIMRND
 40
0.100000
  9
$DIMSE1
 70
0
  9
$DIMSE2
 70
0
  9
$DIMTXT
 40
3.000000
  9
$LTSCALE
 40
1.000000
  9
$LUPREC
 70
3
  9
$AUPREC
 70
3
  9
$PDMODE
 70
2
  9
$PDSIZE
 40
1.486509
  0
ENDSEC
  0
SECTION
  2
TABLES
  0
TABLE
  2
VPORT
  70
1
  0
VPORT
  2
*ACTIVE
 70
0
  10
0.0
 20
0.0
 11
1.0
 21
1.0
 12
594.0
 22
420.0
 13
0.0
 23
0.0
 14
10.0
 24
10.0
 15
10.0
 25
10.0
 16
0.0
 26
0.0
 36
1.0
 17
594.0
 27
420.0
 37
100.0
 40
1000.0
 41
1.0
 42
50.0
 43
0.0
 44
0.0
 50
0.0
 51
0.0
 71
0
 72
2000
 73
1
 74
3
 75
0
 76
0
 77
0
 78
1
  0
ENDTAB
  0
TABLE
  2
LTYPE
 70
4
  0
LTYPE
  2
CONTINUOUS
 70
0
  3
Solid line
 72
65
 73
0
 40
0.0
  0
LTYPE
  2
DASHED
 70
0
  3
Dashed line
 72
65
 73
2
 40
6.000000
 49
3.000000
 49
-3.000000
  0
LTYPE
  2
CENTER
 70
0
  3
Chain line
 72
65
 73
4
 40
24.000000
 49
15.000000
 49
-3.000000
 49
3.000000
 49
-3.000000
  0
LTYPE
  2
RANDOM
 70
0
  3
Random line
 72
65
 73
4
 40
22.500000
 49
6.000000
 49
-3.000000
 49
4.500000
 49
-9.000000
  0
ENDTAB
  0
TABLE
  2
STYLE
 70
9
  0
STYLE
  2
STANDARD
 40
0
 41
1.0
 50
0.0
 71
0
 42
0
  3
simplex
  4

 70
0
  0
ENDTAB
  0
TABLE
  2
LAYER
 70
2
  0
LAYER
  2
0
 70
0
 62
7
  6
CONTINUOUS
  0
LAYER
  2
0
 62
1
  6
CONTINUOUS
 70
0
  0
ENDTAB
  0
ENDSEC
  0
SECTION
  2
BLOCKS
  0
ENDSEC
  0
SECTION
  2
ENTITIES
  0
LINE
  8
0
  6
CONTINUOUS
 62
1
 10
87.862896
 20
45.377524
 11
101.380024
 21
45.377524
  0
LINE
  8
0
  6
CONTINUOUS
 62
1
 10
101.163435
 20
39.820216
 11
128.399984
 21
39.820216
  0
LINE
  8
0
  6
CONTINUOUS
 62
1
 10
89.175454
 20
45.416606
 11
128.399984
 21
45.416606
  0
LINE
  8
0
  6
CONTINUOUS
 62
1
 10
128.399984
 20
46.416606
 11
89.175454
 21
46.416606
  0
LINE
  8
0
  6
CONTINUOUS
 62
1
 10
89.175454
 20
47.416606
 11
128.399984
 21
47.416606
  0
LINE
  8
0
  6
CONTINUOUS
 62
1
 10
128.399984
 20
48.416606
 11
89.175454
 21
48.416606
  0
LINE
  8
0
  6
CONTINUOUS
 62
1
 10
89.175454
 20
49.416606
 11
128.399984
 21
49.416606
  0
LINE
  8
0
  6
CONTINUOUS
 62
1
 10
89.175454
 20
51.416606
 11
89.175454
 21
45.416606
  0
LINE
  8
0
  6
CENTER
 62
1
 10
82.572375
 20
59.820197
 11
69.937858
 21
59.820197
  0
LINE
  8
0
  6
CONTINUOUS
 62
1
 10
128.399984
 20
50.416606
 11
89.175454
 21
50.416606
  0
LINE
  8
0
  6
CONTINUOUS
 62
1
 10
89.175454
 20
51.416606
 11
128.399984
 21
51.416606
  0
LINE
  8
0
  6
CONTINUOUS
 62
1
 10
75.763435
 20
57.820197
 11
77.075454
 21
57.820197
  0
LINE
  8
0
  6
CONTINUOUS
 62
1
 10
77.075454
 20
61.820197
 11
75.763435
 21
61.820197
  0
LINE
  8
0
  6
CONTINUOUS
 62
1
 10
82.572375
 20
57.820197
 11
82.572375
 21
61.820197
  0
ARC
  8
0
  6
CONTINUOUS
 62
1
 10
80.572375
 20
57.820197
 40
1.000000
 50
180.000000
 51
0.000000
  0
ARC
  8
0
  6
CONTINUOUS
 62
1
 10
80.572375
 20
61.820197
 40
1.000000
 50
0.000000
 51
180.000000
  0
LINE
  8
0
  6
CONTINUOUS
 62
1
 10
81.572375
 20
57.820197
 11
82.572375
 21
57.820197
  0
LINE
  8
0
  6
CONTINUOUS
 62
1
 10
81.572375
 20
61.820197
 11
82.572375
 21
61.820197
  0
LINE
  8
0
  6
CONTINUOUS
 62
1
 10
72.563435
 20
55.820197
 11
71.925454
 21
55.820197
  0
LINE
  8
0
  6
CONTINUOUS
 62
1
 10
72.563435
 20
63.820197
 11
71.925454
 21
63.820197
  0
ARC
  8
0
  6
CONTINUOUS
 62
1
 10
79.425454
 20
59.820197
 40
8.500000
 50
151.927513
 51
208.072487
  0
LINE
  8
0
  6
CONTINUOUS
 62
1
 10
83.825454
 20
45.613837
 11
83.825454
 21
51.416606
  0
LINE
  8
0
  6
CONTINUOUS
 62
1
 10
88.825454
 20
51.416606
 11
88.825454
 21
45.613837
  0
LINE
  8
0
  6
CONTINUOUS
 62
1
 10
88.825454
 20
45.613837
 11
83.825454
 21
45.613837
  0
LINE
  8
0
  6
CONTINUOUS
 62
1
 10
81.575454
 20
44.868835
 11
81.575454
 21
49.820197
  0
LINE
  8
0
  6
CONTINUOUS
 62
1
 10
81.575454
 20
53.320197
 11
81.575454
 21
55.070197
  0
LINE
  8
0
  6
CONTINUOUS
 62
1
 10
83.075454
 20
55.070197
 11
83.075454
 21
44.868835
  0
LINE
  8
0
  6
CONTINUOUS
 62
1
 10
83.075454
 20
70.326223
 11
83.075454
 21
64.570197
  0
LINE
  8
0
  6
CONTINUOUS
 62
1
 10
81.575454
 20
64.570197
 11
81.575454
 21
65.570197
  0
LINE
  8
0
  6
CONTINUOUS
 62
1
 10
80.575454
 20
50.820197
 11
77.075454
 21
50.820197
  0
LINE
  8
0
  6
CONTINUOUS
 62
1
 10
76.075454
 20
51.820197
 11
76.075454
 21
55.820197
  0
ARC
  8
0
  6
CONTINUOUS
 62
1
 10
77.075454
 20
51.820197
 40
1.000000
 50
180.000000
 51
270.000000
  0
LINE
  8
0
  6
CONTINUOUS
 62
1
 10
76.075454
 20
55.820197
 11
77.075454
 21
55.820197
  0
LINE
  8
0
  6
CONTINUOUS
 62
1
 10
77.075454
 20
55.820197
 11
77.075454
 21
63.820197
  0
LINE
  8
0
  6
CONTINUOUS
 62
1
 10
77.075454
 20
63.820197
 11
76.075454
 21
63.820197
  0
LINE
  8
0
  6
CONTINUOUS
 62
1
 10
79.575454
 20
65.070197
 11
79.575454
 21
60.220197
  0
LINE
  8
0
  6
CONTINUOUS
 62
1
 10
79.175454
 20
59.820197
 11
79.575454
 21
60.220197
  0
LINE
  8
0
  6
CONTINUOUS
 62
1
 10
79.175454
 20
59.820197
 11
79.575454
 21
59.420197
  0
ARC
  8
0
  6
CONTINUOUS
 62
1
 10
82.325454
 20
44.868835
 40
0.750000
 50
180.000000
 51
270.000000
  0
ARC
  8
0
  6
CONTINUOUS
 62
1
 10
82.325454
 20
44.868835
 40
0.750000
 50
270.000000
 51
0.000000
  0
ARC
  8
0
  6
CONTINUOUS
 62
1
 10
82.325454
 20
64.570197
 40
0.750000
 50
180.000000
 51
270.000000
  0
ARC
  8
0
  6
CONTINUOUS
 62
1
 10
82.325454
 20
64.570197
 40
0.750000
 50
270.000000
 51
0.000000
  0
ARC
  8
0
  6
CONTINUOUS
 62
1
 10
82.325454
 20
55.070197
 40
0.750000
 50
90.000000
 51
180.000000
  0
ARC
  8
0
  6
CONTINUOUS
 62
1
 10
82.325454
 20
55.070197
 40
0.750000
 50
0.000000
 51
90.000000
  0
LINE
  8
0
  6
CONTINUOUS
 62
1
 10
79.575454
 20
59.420197
 11
79.575454
 21
53.820197
  0
LINE
  8
0
  6
CONTINUOUS
 62
1
 10
80.575454
 20
52.320197
 11
79.075454
 21
52.320197
  0
LINE
  8
0
  6
CONTINUOUS
 62
1
 10
80.575454
 20
66.570197
 11
79.075454
 21
66.570197
  0
LINE
  8
0
  6
CONTINUOUS
 62
1
 10
78.575454
 20
52.820197
 11
78.575454
 21
53.320197
  0
LINE
  8
0
  6
CONTINUOUS
 62
1
 10
79.075454
 20
53.820197
 11
79.575454
 21
53.820197
  0
LINE
  8
0
  6
CONTINUOUS
 62
1
 10
78.575454
 20
66.070197
 11
78.575454
 21
65.570197
  0
LINE
  8
0
  6
CONTINUOUS
 62
1
 10
79.075454
 20
65.070197
 11
79.575454
 21
65.070197
  0
ARC
  8
0
  6
CONTINUOUS
 62
1
 10
79.075454
 20
65.570197
 40
0.500000
 50
180.000000
 51
270.000000
  0
ARC
  8
0
  6
CONTINUOUS
 62
1
 10
79.075454
 20
66.070197
 40
0.500000
 50
90.000000
 51
180.000000
  0
ARC
  8
0
  6
CONTINUOUS
 62
1
 10
79.075454
 20
53.320197
 40
0.500000
 50
90.000000
 51
180.000000
  0
ARC
  8
0
  6
CONTINUOUS
 62
1
 10
79.075454
 20
52.820197
 40
0.500000
 50
180.000000
 51
270.000000
  0
ARC
  8
0
  6
CONTINUOUS
 62
1
 10
80.575454
 20
49.820197
 40
1.000000
 50
0.000000
 51
90.000000
  0
ARC
  8
0
  6
CONTINUOUS
 62
1
 10
80.575454
 20
53.320197
 40
1.000000
 50
270.000000
 51
0.000000
  0
ARC
  8
0
  6
CONTINUOUS
 62
1
 10
80.575454
 20
65.570197
 40
1.000000
 50
0.000000
 51
90.000000
  0
LINE
  8
0
  6
CONTINUOUS
 62
1
 10
81.796601
 20
73.290422
 11
84.380756
 21
74.230977
  0
LINE
  8
0
  6
CONTINUOUS
 62
1
 10
84.525855
 20
74.709460
 11
84.560057
 21
74.615491
  0
ARC
  8
0
  6
CONTINUOUS
 62
1
 10
84.243948
 20
74.606854
 40
0.300000
 50
20.000000
 51
110.000000
  0
ARC
  8
0
  6
CONTINUOUS
 62
1
 10
84.278150
 20
74.512885
 40
0.300000
 50
290.000000
 51
20.000000
  0
LINE
  8
0
  6
CONTINUOUS
 62
1
 10
81.377885
 20
73.563693
 11
81.412087
 21
73.469724
  0
ARC
  8
0
  6
CONTINUOUS
 62
1
 10
81.659793
 20
73.666299
 40
0.300000
 50
110.000000
 51
200.000000
  0
ARC
  8
0
  6
CONTINUOUS
 62
1
 10
81.693995
 20
73.572330
 40
0.300000
 50
200.000000
 51
290.000000
  0
LINE
  8
0
  6
CONTINUOUS
 62
1
 10
79.525454
 20
68.070197
 11
81.375454
 21
68.070197
  0
LINE
  8
0
  6
CONTINUOUS
 62
1
 10
81.575454
 20
68.270197
 11
81.575454
 21
70.326223
  0
LINE
  8
0
  6
CONTINUOUS
 62
1
 10
79.325454
 20
68.270197
 11
79.325454
 21
74.820197
  0
LINE
  8
0
  6
CONTINUOUS
 62
1
 10
77.825454
 20
74.820197
 11
77.825454
 21
70.020197
  0
LINE
  8
0
  6
CONTINUOUS
 62
1
 10
77.075454
 20
69.820197
 11
77.625454
 21
69.820197
  0
ARC
  8
0
  6
CONTINUOUS
 62
1
 10
77.075454
 20
68.820197
 40
1.000000
 50
90.000000
 51
180.000000
  0
ARC
  8
0
  6
CONTINUOUS
 62
1
 10
78.575454
 20
74.820197
 40
0.750000
 50
90.000000
 51
180.000000
  0
ARC
  8
0
  6
CONTINUOUS
 62
1
 10
78.575454
 20
74.820197
 40
0.750000
 50
0.000000
 51
90.000000
  0
ARC
  8
0
  6
CONTINUOUS
 62
1
 10
77.625454
 20
70.020197
 40
0.200000
 50
270.000000
 51
0.000000
  0
ARC
  8
0
  6
CONTINUOUS
 62
1
 10
81.375454
 20
68.270197
 40
0.200000
 50
270.000000
 51
0.000000
  0
ARC
  8
0
  6
CONTINUOUS
 62
1
 10
79.525454
 20
68.270197
 40
0.200000
 50
180.000000
 51
270.000000
  0
LINE
  8
0
  6
CONTINUOUS
 62
1
 10
83.075454
 20
70.326223
 11
81.575454
 21
70.326223
  0
LINE
  8
0
  6
CONTINUOUS
 62
1
 10
76.075454
 20
63.820197
 11
76.075454
 21
68.820197
  0
ARC
  8
0
  6
CONTINUOUS
 62
1
 10
81.681761
 20
70.836182
 40
1.000000
 50
110.000000
 51
180.000000
  0
ARC
  8
0
  6
CONTINUOUS
 62
1
 10
84.675454
 20
78.820197
 40
0.500000
 50
180.000000
 51
270.000000
  0
ARC
  8
0
  6
CONTINUOUS
 62
1
 10
84.675454
 20
78.820197
 40
0.500000
 50
90.000000
 51
180.000000
  0
LINE
  8
0
  6
CONTINUOUS
 62
1
 10
87.742441
 20
79.320197
 11
84.675454
 21
79.320197
  0
LINE
  8
0
  6
CONTINUOUS
 62
1
 10
79.431761
 20
72.411649
 11
79.431761
 21
69.302098
  0
ARC
  8
0
  6
CONTINUOUS
 62
1
 10
80.431761
 20
69.302098
 40
1.000000
 50
180.000000
 51
270.000000
  0
ARC
  8
0
  6
CONTINUOUS
 62
1
 10
80.431761
 20
69.302098
 40
1.000000
 50
270.000000
 51
0.000000
  0
ARC
  8
0
  6
CONTINUOUS
 62
1
 10
80.431761
 20
69.302098
 40
1.000000
 50
0.000000
 51
75.522488
  0
LINE
  8
0
  6
CONTINUOUS
 62
1
 10
84.720685
 20
74.336660
 11
81.243822
 21
73.071185
  0
LINE
  8
0
  6
CONTINUOUS
 62
1
 10
85.925454
 20
74.145145
 11
85.925454
 21
77.320197
  0
LINE
  8
0
  6
CONTINUOUS
 62
1
 10
81.339740
 20
71.775875
 11
85.267474
 21
73.205453
  0
LINE
  8
0
  6
CONTINUOUS
 62
1
 10
80.681761
 20
70.270344
 11
80.681761
 21
70.836182
  0
LINE
  8
0
  6
CONTINUOUS
 62
1
 10
80.970206
 20
73.822939
 11
81.440052
 21
73.993950
  0
LINE
  8
0
  6
CONTINUOUS
 62
1
 10
83.742299
 20
74.831899
 11
84.447069
 21
75.088414
  0
LINE
  8
0
  6
CONTINUOUS
 62
1
 10
81.269042
 20
74.463796
 11
81.028044
 21
74.376080
  0
LINE
  8
0
  6
CONTINUOUS
 62
1
 10
79.431761
 20
72.411649
 11
80.550913
 21
74.009964
  0
ARC
  8
0
  6
CONTINUOUS
 62
1
 10
81.370065
 20
73.436387
 40
1.000000
 50
110.000000
 51
145.000000
  0
ARC
  8
0
  6
CONTINUOUS
 62
1
 10
82.175454
 20
78.320197
 40
2.500000
 50
320.778048
 51
0.000000
  0
LINE
  8
0
  6
CONTINUOUS
 62
1
 10
81.243822
 20
73.071185
 11
80.970206
 21
73.822939
  0
LINE
  8
0
  6
CONTINUOUS
 62
1
 10
84.447069
 20
75.088414
 11
84.720685
 21
74.336660
  0
LINE
  8
0
  6
CONTINUOUS
 62
1
 10
83.742299
 20
74.831899
 11
83.287594
 21
76.081192
  0
ARC
  8
0
  6
CONTINUOUS
 62
1
 10
81.354547
 20
74.228873
 40
0.250000
 50
290.000000
 51
20.000000
  0
ARC
  8
0
  6
CONTINUOUS
 62
1
 10
81.354547
 20
74.228873
 40
0.250000
 50
20.000000
 51
110.000000
  0
ARC
  8
0
  6
CONTINUOUS
 62
1
 10
84.925454
 20
74.145145
 40
1.000000
 50
290.000000
 51
0.000000
  0
ARC
  8
0
  6
CONTINUOUS
 62
1
 10
83.903376
 20
76.155463
 40
0.620139
 50
70.320835
 51
186.919676
  0
LINE
  8
0
  6
RANDOM
 62
1
 10
128.399984
 20
39.820216
 11
128.399984
 21
79.820216
  0
ARC
  8
0
  6
CONTINUOUS
 62
1
 10
81.568961
 20
74.057861
 40
0.100000
 50
281.950087
 51
21.322156
  0
LINE
  8
0
  6
CONTINUOUS
 62
1
 10
81.662116
 20
74.094223
 11
81.653871
 21
74.210256
  0
LINE
  8
0
  6
CONTINUOUS
 62
1
 10
81.653871
 20
74.210256
 11
81.644955
 21
74.305359
  0
LINE
  8
0
  6
CONTINUOUS
 62
1
 10
81.644955
 20
74.305359
 11
81.546880
 21
74.400462
  0
LINE
  8
0
  6
CONTINUOUS
 62
1
 10
81.557187
 20
73.948207
 11
81.589667
 21
73.960029
  0
LINE
  8
0
  6
CONTINUOUS
 62
1
 10
81.546880
 20
74.400462
 11
81.042845
 21
74.792411
  0
LINE
  8
0
  6
CONTINUOUS
 62
1
 10
81.042845
 20
74.792411
 11
80.764848
 21
75.296924
  0
LINE
  8
0
  6
CONTINUOUS
 62
1
 10
81.259065
 20
76.216348
 11
82.041576
 21
76.319310
  0
LINE
  8
0
  6
CONTINUOUS
 62
1
 10
82.041576
 20
76.319310
 11
82.907582
 21
76.341516
  0
LINE
  8
0
  6
CONTINUOUS
 62
1
 10
82.907582
 20
76.341516
 11
83.277118
 21
75.945584
  0
LINE
  8
0
  6
CONTINUOUS
 62
1
 10
83.277118
 20
75.945584
 11
83.369784
 21
75.595514
  0
LINE
  8
0
  6
CONTINUOUS
 62
1
 10
80.768452
 20
75.290384
 11
80.795737
 21
75.763316
  0
LINE
  8
0
  6
CONTINUOUS
 62
1
 10
80.795737
 20
75.763316
 11
80.960476
 21
76.000128
  0
LINE
  8
0
  6
CONTINUOUS
 62
1
 10
80.960476
 20
76.000128
 11
81.259065
 21
76.216348
  0
LINE
  8
0
  6
CONTINUOUS
 62
1
 10
82.317237
 20
74.224842
 11
84.141342
 21
74.888762
  0
LINE
  8
0
  6
CONTINUOUS
 62
1
 10
82.317237
 20
74.224842
 11
82.237203
 21
74.452637
  0
LINE
  8
0
  6
CONTINUOUS
 62
1
 10
82.237203
 20
74.452637
 11
82.123945
 21
74.627672
  0
LINE
  8
0
  6
CONTINUOUS
 62
1
 10
82.123945
 20
74.627672
 11
81.835652
 21
74.957150
  0
LINE
  8
0
  6
CONTINUOUS
 62
1
 10
81.835652
 20
74.957150
 11
81.578247
 21
75.060112
  0
LINE
  8
0
  6
CONTINUOUS
 62
1
 10
81.578247
 20
75.060112
 11
81.464989
 21
75.266036
  0
LINE
  8
0
  6
CONTINUOUS
 62
1
 10
81.464989
 20
75.266036
 11
81.403212
 21
75.461663
  0
LINE
  8
0
  6
CONTINUOUS
 62
1
 10
81.403212
 20
75.461663
 11
81.434100
 21
75.677883
  0
LINE
  8
0
  6
CONTINUOUS
 62
1
 10
81.434100
 20
75.677883
 11
81.650320
 21
75.873511
  0
LINE
  8
0
  6
CONTINUOUS
 62
1
 10
81.650320
 20
75.873511
 11
82.134241
 21
75.914696
  0
LINE
  8
0
  6
CONTINUOUS
 62
1
 10
82.134241
 20
75.914696
 11
82.618162
 21
75.842622
  0
LINE
  8
0
  6
CONTINUOUS
 62
1
 10
82.618162
 20
75.842622
 11
82.844678
 21
75.657291
  0
LINE
  8
0
  6
CONTINUOUS
 62
1
 10
82.844678
 20
75.657291
 11
82.968233
 21
75.420479
  0
LINE
  8
0
  6
CONTINUOUS
 62
1
 10
82.968233
 20
75.420479
 11
83.308007
 21
75.307220
  0
LINE
  8
0
  6
CONTINUOUS
 62
1
 10
83.308007
 20
75.307220
 11
83.369784
 21
75.595514
  0
LINE
  8
0
  6
CONTINUOUS
 62
1
 10
83.825454
 20
51.416606
 11
88.825454
 21
51.416606
  0
LINE
  8
0
  6
CONTINUOUS
 62
1
 10
88.825454
 20
45.613837
 11
83.825454
 21
51.416606
  0
LINE
  8
0
  6
CONTINUOUS
 62
1
 10
88.825454
 20
51.416606
 11
83.825454
 21
45.613837
  0
LINE
  8
0
  6
CONTINUOUS
 62
1
 10
88.391961
 20
78.945197
 11
101.175454
 21
56.803537
  0
LINE
  8
0
  6
CONTINUOUS
 62
1
 10
86.675454
 20
78.070197
 11
87.020754
 21
78.070197
  0
ARC
  8
0
  6
CONTINUOUS
 62
1
 10
86.675454
 20
77.320197
 40
0.750000
 50
90.000000
 51
180.000000
  0
ARC
  8
0
  6
CONTINUOUS
 62
1
 10
87.020754
 20
77.320197
 40
0.750000
 50
30.000000
 51
90.000000
  0
ARC
  8
0
  6
CONTINUOUS
 62
1
 10
87.742441
 20
78.570197
 40
0.750000
 50
30.000000
 51
90.000000
  0
LINE
  8
0
  6
CONTINUOUS
 62
1
 10
96.175454
 20
57.320197
 11
99.433784
 21
57.320197
  0
LINE
  8
0
  6
CONTINUOUS
 62
1
 10
98.497251
 20
58.942321
 11
87.670273
 21
77.695197
  0
ARC
  8
0
  6
CONTINUOUS
 62
1
 10
100.453766
 20
57.037506
 40
0.758667
 50
222.037430
 51
342.037430
  0
LINE
  8
0
  6
CONTINUOUS
 62
1
 10
96.175454
 20
58.320197
 11
96.175454
 21
57.320197
  0
LINE
  8
0
  6
CONTINUOUS
 62
1
 10
96.175454
 20
58.320197
 11
98.497251
 21
58.942321
  0
LINE
  8
0
  6
CONTINUOUS
 62
1
 10
99.433784
 20
57.320197
 11
99.890299
 21
56.529491
  0
LINE
  8
0
  6
CONTINUOUS
 62
1
 10
87.862896
 20
43.020216
 11
87.862896
 21
45.377524
  0
CIRCLE
  8
0
  6
CONTINUOUS
 62
1
 10
96.695070
 20
44.020280
 40
0.100000
  0
CIRCLE
  8
0
  6
CONTINUOUS
 62
1
 10
95.640803
 20
42.823545
 40
0.250000
  0
CIRCLE
  8
0
  6
CONTINUOUS
 62
1
 10
94.899967
 20
44.621886
 40
0.100000
  0
CIRCLE
  8
0
  6
CONTINUOUS
 62
1
 10
93.418294
 20
44.162749
 40
0.100000
  0
CIRCLE
  8
0
  6
CONTINUOUS
 62
1
 10
92.734445
 20
43.222456
 40
0.200000
  0
CIRCLE
  8
0
  6
CONTINUOUS
 62
1
 10
91.480722
 20
44.064899
 40
0.200000
  0
CIRCLE
  8
0
  6
CONTINUOUS
 62
1
 10
90.540429
 20
44.678873
 40
0.100000
  0
CIRCLE
  8
0
  6
CONTINUOUS
 62
1
 10
88.460388
 20
44.321342
 40
0.250000
  0
CIRCLE
  8
0
  6
CONTINUOUS
 62
1
 10
96.068209
 20
44.178873
 40
0.250000
  0
LINE
  8
0
  6
CONTINUOUS
 62
1
 10
100.747045
 20
43.020216
 11
101.380024
 21
45.377524
  0
CIRCLE
  8
0
  6
CONTINUOUS
 62
1
 10
99.276609
 20
44.405109
 40
0.100000
  0
LINE
  8
0
  6
CONTINUOUS
 62
1
 10
87.848617
 20
118.679052
 11
87.848617
 21
121.083982
  0
LINE
  8
0
  6
CONTINUOUS
 62
1
 10
100.682433
 20
118.533827
 11
101.365745
 21
121.083982
  0
LINE
  8
0
  6
CONTINUOUS
 62
1
 10
87.848617
 20
121.083982
 11
101.365745
 21
121.083982
  0
LINE
  8
0
  6
CONTINUOUS
 62
1
 10
101.163435
 20
115.479052
 11
128.385705
 21
115.479052
  0
LINE
  8
0
  6
CONTINUOUS
 62
1
 10
102.405483
 20
153.661374
 11
103.257534
 21
151.198415
  0
LINE
  8
0
  6
CONTINUOUS
 62
1
 10
94.301882
 20
150.278250
 11
97.996372
 21
150.640595
  0
LINE
  8
0
  6
CONTINUOUS
 62
1
 10
93.376705
 20
151.303079
 11
93.294340
 21
150.990092
  0
LINE
  8
0
  6
CONTINUOUS
 62
1
 10
94.174982
 20
150.281999
 11
93.540476
 21
150.382335
  0
LINE
  8
0
  6
CONTINUOUS
 62
1
 10
93.540476
 20
150.382335
 11
93.409835
 21
150.524401
  0
ARC
  8
0
  6
CONTINUOUS
 62
1
 10
95.310855
 20
150.794092
 40
2.000000
 50
138.468229
 51
165.256437
  0
ARC
  8
0
  6
CONTINUOUS
 62
1
 10
93.777878
 20
150.862845
 40
0.500000
 50
165.256437
 51
222.600979
  0
ARC
  8
0
  6
CONTINUOUS
 62
1
 10
94.253078
 20
150.775862
 40
0.500000
 50
261.014065
 51
275.601489
  0
ARC
  8
0
  6
CONTINUOUS
 62
1
 10
98.386807
 20
146.659695
 40
4.000000
 50
84.003242
 51
95.601489
  0
LINE
  8
0
  6
CONTINUOUS
 62
1
 10
103.041229
 20
150.605585
 11
102.767955
 21
150.442511
  0
LINE
  8
0
  6
CONTINUOUS
 62
1
 10
102.157050
 20
150.306096
 11
98.804695
 21
150.637806
  0
ARC
  8
0
  6
CONTINUOUS
 62
1
 10
102.255518
 20
151.301236
 40
1.000000
 50
264.349063
 51
300.826301
  0
ARC
  8
0
  6
CONTINUOUS
 62
1
 10
102.785010
 20
151.034948
 40
0.500000
 50
300.826301
 51
19.082854
  0
LINE
  8
0
  6
CONTINUOUS
 62
1
 10
93.813678
 20
152.120163
 11
94.895508
 21
152.678769
  0
ARC
  8
0
  6
CONTINUOUS
 62
1
 10
96.271908
 20
150.013151
 40
3.000000
 50
102.425268
 51
117.309718
  0
LINE
  8
0
  6
CONTINUOUS
 62
1
 10
102.405483
 20
153.661374
 11
103.257534
 21
151.198415
  0
LINE
  8
0
  6
CONTINUOUS
 62
1
 10
94.301882
 20
150.278250
 11
97.996372
 21
150.640595
  0
LINE
  8
0
  6
CONTINUOUS
 62
1
 10
93.376705
 20
151.303079
 11
93.294340
 21
150.990092
  0
LINE
  8
0
  6
CONTINUOUS
 62
1
 10
94.174982
 20
150.281999
 11
93.540476
 21
150.382335
  0
LINE
  8
0
  6
CONTINUOUS
 62
1
 10
93.540476
 20
150.382335
 11
93.409835
 21
150.524401
  0
ARC
  8
0
  6
CONTINUOUS
 62
1
 10
95.310855
 20
150.794092
 40
2.000000
 50
138.468229
 51
165.256437
  0
ARC
  8
0
  6
CONTINUOUS
 62
1
 10
93.777878
 20
150.862845
 40
0.500000
 50
165.256437
 51
222.600979
  0
ARC
  8
0
  6
CONTINUOUS
 62
1
 10
94.253078
 20
150.775862
 40
0.500000
 50
261.014065
 51
275.601489
  0
ARC
  8
0
  6
CONTINUOUS
 62
1
 10
98.386807
 20
146.659695
 40
4.000000
 50
84.003242
 51
95.601489
  0
LINE
  8
0
  6
CONTINUOUS
 62
1
 10
103.041229
 20
150.605585
 11
102.767955
 21
150.442511
  0
LINE
  8
0
  6
CONTINUOUS
 62
1
 10
102.157050
 20
150.306096
 11
98.804695
 21
150.637806
  0
ARC
  8
0
  6
CONTINUOUS
 62
1
 10
102.255518
 20
151.301236
 40
1.000000
 50
264.349063
 51
300.826301
  0
ARC
  8
0
  6
CONTINUOUS
 62
1
 10
102.785010
 20
151.034948
 40
0.500000
 50
300.826301
 51
19.082854
  0
LINE
  8
0
  6
CONTINUOUS
 62
1
 10
93.813678
 20
152.120163
 11
94.895508
 21
152.678769
  0
ARC
  8
0
  6
CONTINUOUS
 62
1
 10
96.271908
 20
150.013151
 40
3.000000
 50
102.425268
 51
117.309718
  0
LINE
  8
0
  6
CONTINUOUS
 62
1
 10
102.405483
 20
153.661374
 11
103.257534
 21
151.198415
  0
LINE
  8
0
  6
CONTINUOUS
 62
1
 10
94.301882
 20
150.278250
 11
97.996372
 21
150.640595
  0
LINE
  8
0
  6
CONTINUOUS
 62
1
 10
93.376705
 20
151.303079
 11
93.294340
 21
150.990092
  0
LINE
  8
0
  6
CONTINUOUS
 62
1
 10
94.174982
 20
150.281999
 11
93.540476
 21
150.382335
  0
LINE
  8
0
  6
CONTINUOUS
 62
1
 10
93.540476
 20
150.382335
 11
93.409835
 21
150.524401
  0
ARC
  8
0
  6
CONTINUOUS
 62
1
 10
95.310855
 20
150.794092
 40
2.000000
 50
138.468229
 51
165.256437
  0
ARC
  8
0
  6
CONTINUOUS
 62
1
 10
93.777878
 20
150.862845
 40
0.500000
 50
165.256437
 51
222.600979
  0
ARC
  8
0
  6
CONTINUOUS
 62
1
 10
94.253078
 20
150.775862
 40
0.500000
 50
261.014065
 51
275.601489
  0
ARC
  8
0
  6
CONTINUOUS
 62
1
 10
98.386807
 20
146.659695
 40
4.000000
 50
84.003242
 51
95.601489
  0
LINE
  8
0
  6
CONTINUOUS
 62
1
 10
103.041229
 20
150.605585
 11
102.767955
 21
150.442511
  0
LINE
  8
0
  6
CONTINUOUS
 62
1
 10
102.157050
 20
150.306096
 11
98.804695
 21
150.637806
  0
ARC
  8
0
  6
CONTINUOUS
 62
1
 10
102.255518
 20
151.301236
 40
1.000000
 50
264.349063
 51
300.826301
  0
ARC
  8
0
  6
CONTINUOUS
 62
1
 10
102.785010
 20
151.034948
 40
0.500000
 50
300.826301
 51
19.082854
  0
LINE
  8
0
  6
CONTINUOUS
 62
1
 10
93.813678
 20
152.120163
 11
94.895508
 21
152.678769
  0
ARC
  8
0
  6
CONTINUOUS
 62
1
 10
96.271908
 20
150.013151
 40
3.000000
 50
102.425268
 51
117.309718
  0
LINE
  8
0
  6
CONTINUOUS
 62
1
 10
102.405483
 20
153.661374
 11
103.257534
 21
151.198415
  0
LINE
  8
0
  6
CONTINUOUS
 62
1
 10
94.301882
 20
150.278250
 11
97.996372
 21
150.640595
  0
LINE
  8
0
  6
CONTINUOUS
 62
1
 10
93.376705
 20
151.303079
 11
93.294340
 21
150.990092
  0
LINE
  8
0
  6
CONTINUOUS
 62
1
 10
94.174982
 20
150.281999
 11
93.540476
 21
150.382335
  0
LINE
  8
0
  6
CONTINUOUS
 62
1
 10
93.540476
 20
150.382335
 11
93.409835
 21
150.524401
  0
ARC
  8
0
  6
CONTINUOUS
 62
1
 10
95.310855
 20
150.794092
 40
2.000000
 50
138.468229
 51
165.256437
  0
ARC
  8
0
  6
CONTINUOUS
 62
1
 10
93.777878
 20
150.862845
 40
0.500000
 50
165.256437
 51
222.600979
  0
ARC
  8
0
  6
CONTINUOUS
 62
1
 10
94.253078
 20
150.775862
 40
0.500000
 50
261.014065
 51
275.601489
  0
ARC
  8
0
  6
CONTINUOUS
 62
1
 10
98.386807
 20
146.659695
 40
4.000000
 50
84.003242
 51
95.601489
  0
LINE
  8
0
  6
CONTINUOUS
 62
1
 10
103.041229
 20
150.605585
 11
102.767955
 21
150.442511
  0
LINE
  8
0
  6
CONTINUOUS
 62
1
 10
102.157050
 20
150.306096
 11
98.804695
 21
150.637806
  0
ARC
  8
0
  6
CONTINUOUS
 62
1
 10
102.255518
 20
151.301236
 40
1.000000
 50
264.349063
 51
300.826301
  0
ARC
  8
0
  6
CONTINUOUS
 62
1
 10
102.785010
 20
151.034948
 40
0.500000
 50
300.826301
 51
19.082854
  0
LINE
  8
0
  6
CONTINUOUS
 62
1
 10
93.813678
 20
152.120163
 11
94.895508
 21
152.678769
  0
ARC
  8
0
  6
CONTINUOUS
 62
1
 10
96.271908
 20
150.013151
 40
3.000000
 50
102.425268
 51
117.309718
  0
LINE
  8
0
  6
CONTINUOUS
 62
1
 10
102.405483
 20
153.661374
 11
103.257534
 21
151.198415
  0
LINE
  8
0
  6
CONTINUOUS
 62
1
 10
94.301882
 20
150.278250
 11
97.996372
 21
150.640595
  0
LINE
  8
0
  6
CONTINUOUS
 62
1
 10
93.376705
 20
151.303079
 11
93.294340
 21
150.990092
  0
LINE
  8
0
  6
CONTINUOUS
 62
1
 10
94.174982
 20
150.281999
 11
93.540476
 21
150.382335
  0
LINE
  8
0
  6
CONTINUOUS
 62
1
 10
93.540476
 20
150.382335
 11
93.409835
 21
150.524401
  0
ARC
  8
0
  6
CONTINUOUS
 62
1
 10
95.310855
 20
150.794092
 40
2.000000
 50
138.468229
 51
165.256437
  0
ARC
  8
0
  6
CONTINUOUS
 62
1
 10
93.777878
 20
150.862845
 40
0.500000
 50
165.256437
 51
222.600979
  0
ARC
  8
0
  6
CONTINUOUS
 62
1
 10
94.253078
 20
150.775862
 40
0.500000
 50
261.014065
 51
275.601489
  0
ARC
  8
0
  6
CONTINUOUS
 62
1
 10
98.386807
 20
146.659695
 40
4.000000
 50
84.003242
 51
95.601489
  0
LINE
  8
0
  6
CONTINUOUS
 62
1
 10
103.041229
 20
150.605585
 11
102.767955
 21
150.442511
  0
LINE
  8
0
  6
CONTINUOUS
 62
1
 10
102.157050
 20
150.306096
 11
98.804695
 21
150.637806
  0
ARC
  8
0
  6
CONTINUOUS
 62
1
 10
102.255518
 20
151.301236
 40
1.000000
 50
264.349063
 51
300.826301
  0
ARC
  8
0
  6
CONTINUOUS
 62
1
 10
102.785010
 20
151.034948
 40
0.500000
 50
300.826301
 51
19.082854
  0
LINE
  8
0
  6
CONTINUOUS
 62
1
 10
93.813678
 20
152.120163
 11
94.895508
 21
152.678769
  0
ARC
  8
0
  6
CONTINUOUS
 62
1
 10
96.271908
 20
150.013151
 40
3.000000
 50
102.425268
 51
117.309718
  0
LINE
  8
0
  6
CONTINUOUS
 62
1
 10
102.405483
 20
153.661374
 11
103.257534
 21
151.198415
  0
LINE
  8
0
  6
CONTINUOUS
 62
1
 10
94.301882
 20
150.278250
 11
97.996372
 21
150.640595
  0
LINE
  8
0
  6
CONTINUOUS
 62
1
 10
93.376705
 20
151.303079
 11
93.294340
 21
150.990092
  0
LINE
  8
0
  6
CONTINUOUS
 62
1
 10
94.174982
 20
150.281999
 11
93.540476
 21
150.382335
  0
LINE
  8
0
  6
CONTINUOUS
 62
1
 10
93.540476
 20
150.382335
 11
93.409835
 21
150.524401
  0
ARC
  8
0
  6
CONTINUOUS
 62
1
 10
95.310855
 20
150.794092
 40
2.000000
 50
138.468229
 51
165.256437
  0
ARC
  8
0
  6
CONTINUOUS
 62
1
 10
93.777878
 20
150.862845
 40
0.500000
 50
165.256437
 51
222.600979
  0
ARC
  8
0
  6
CONTINUOUS
 62
1
 10
94.253078
 20
150.775862
 40
0.500000
 50
261.014065
 51
275.601489
  0
ARC
  8
0
  6
CONTINUOUS
 62
1
 10
98.386807
 20
146.659695
 40
4.000000
 50
84.003242
 51
95.601489
  0
LINE
  8
0
  6
CONTINUOUS
 62
1
 10
103.041229
 20
150.605585
 11
102.767955
 21
150.442511
  0
LINE
  8
0
  6
CONTINUOUS
 62
1
 10
102.157050
 20
150.306096
 11
98.804695
 21
150.637806
  0
ARC
  8
0
  6
CONTINUOUS
 62
1
 10
102.255518
 20
151.301236
 40
1.000000
 50
264.349063
 51
300.826301
  0
ARC
  8
0
  6
CONTINUOUS
 62
1
 10
102.785010
 20
151.034948
 40
0.500000
 50
300.826301
 51
19.082854
  0
LINE
  8
0
  6
CONTINUOUS
 62
1
 10
93.813678
 20
152.120163
 11
94.895508
 21
152.678769
  0
LINE
  8
0
  6
CONTINUOUS
 62
1
 10
101.324050
 20
154.086503
 11
102.405483
 21
153.661374
  0
LINE
  8
0
  6
CONTINUOUS
 62
1
 10
102.405483
 20
153.661374
 11
103.257534
 21
151.198415
  0
LINE
  8
0
  6
CONTINUOUS
 62
1
 10
94.301882
 20
150.278250
 11
97.996372
 21
150.640595
  0
LINE
  8
0
  6
CONTINUOUS
 62
1
 10
93.376705
 20
151.303079
 11
93.294340
 21
150.990092
  0
LINE
  8
0
  6
CONTINUOUS
 62
1
 10
94.174982
 20
150.281999
 11
93.540476
 21
150.382335
  0
LINE
  8
0
  6
CONTINUOUS
 62
1
 10
93.540476
 20
150.382335
 11
93.409835
 21
150.524401
  0
ARC
  8
0
  6
CONTINUOUS
 62
1
 10
95.310855
 20
150.794092
 40
2.000000
 50
138.468229
 51
165.256437
  0
ARC
  8
0
  6
CONTINUOUS
 62
1
 10
93.777878
 20
150.862845
 40
0.500000
 50
165.256437
 51
222.600979
  0
ARC
  8
0
  6
CONTINUOUS
 62
1
 10
94.253078
 20
150.775862
 40
0.500000
 50
261.014065
 51
275.601489
  0
ARC
  8
0
  6
CONTINUOUS
 62
1
 10
98.386807
 20
146.659695
 40
4.000000
 50
84.003242
 51
95.601489
  0
LINE
  8
0
  6
CONTINUOUS
 62
1
 10
103.041229
 20
150.605585
 11
102.767955
 21
150.442511
  0
LINE
  8
0
  6
CONTINUOUS
 62
1
 10
102.157050
 20
150.306096
 11
98.804695
 21
150.637806
  0
ARC
  8
0
  6
CONTINUOUS
 62
1
 10
102.255518
 20
151.301236
 40
1.000000
 50
264.349063
 51
300.826301
  0
ARC
  8
0
  6
CONTINUOUS
 62
1
 10
102.785010
 20
151.034948
 40
0.500000
 50
300.826301
 51
19.082854
  0
LINE
  8
0
  6
CONTINUOUS
 62
1
 10
89.161175
 20
121.123064
 11
128.385705
 21
121.123064
  0
LINE
  8
0
  6
CONTINUOUS
 62
1
 10
128.385705
 20
122.123064
 11
89.161175
 21
122.123064
  0
LINE
  8
0
  6
CONTINUOUS
 62
1
 10
89.161175
 20
123.123064
 11
128.385705
 21
123.123064
  0
LINE
  8
0
  6
CONTINUOUS
 62
1
 10
128.385705
 20
124.123064
 11
89.161175
 21
124.123064
  0
LINE
  8
0
  6
CONTINUOUS
 62
1
 10
89.161175
 20
125.123064
 11
128.385705
 21
125.123064
  0
LINE
  8
0
  6
CONTINUOUS
 62
1
 10
128.385705
 20
146.123064
 11
89.161175
 21
146.123064
  0
LINE
  8
0
  6
CONTINUOUS
 62
1
 10
89.161175
 20
147.123064
 11
128.385705
 21
147.123064
  0
LINE
  8
0
  6
CONTINUOUS
 62
1
 10
128.385705
 20
148.123064
 11
89.161175
 21
148.123064
  0
LINE
  8
0
  6
CONTINUOUS
 62
1
 10
89.161175
 20
149.123064
 11
128.385705
 21
149.123064
  0
LINE
  8
0
  6
CONTINUOUS
 62
1
 10
128.385705
 20
150.123064
 11
89.161175
 21
150.123064
  0
LINE
  8
0
  6
CONTINUOUS
 62
1
 10
89.161175
 20
150.123064
 11
89.161175
 21
121.123064
  0
LINE
  8
0
  6
CONTINUOUS
 62
1
 10
104.161175
 20
127.123064
 11
104.161175
 21
144.123064
  0
LINE
  8
0
  6
CENTER
 62
1
 10
82.558096
 20
135.526655
 11
69.923579
 21
135.526655
  0
LINE
  8
0
  6
CONTINUOUS
 62
1
 10
128.385705
 20
126.123064
 11
89.161175
 21
126.123064
  0
LINE
  8
0
  6
CONTINUOUS
 62
1
 10
89.161175
 20
127.123064
 11
128.385705
 21
127.123064
  0
LINE
  8
0
  6
CONTINUOUS
 62
1
 10
89.161175
 20
145.123064
 11
128.385705
 21
145.123064
  0
LINE
  8
0
  6
CONTINUOUS
 62
1
 10
128.385705
 20
144.123064
 11
89.161175
 21
144.123064
  0
LINE
  8
0
  6
CONTINUOUS
 62
1
 10
104.161175
 20
144.123064
 11
89.161175
 21
127.123064
  0
LINE
  8
0
  6
CONTINUOUS
 62
1
 10
104.161175
 20
127.123064
 11
89.161175
 21
144.123064
  0
ARC
  8
0
  6
CONTINUOUS
 62
1
 10
101.030747
 20
153.814523
 40
0.400000
 50
42.839744
 51
163.967214
  0
LINE
  8
0
  6
CONTINUOUS
 62
1
 10
75.763435
 20
133.526655
 11
77.061175
 21
133.526655
  0
LINE
  8
0
  6
CONTINUOUS
 62
1
 10
77.061175
 20
137.526655
 11
75.763435
 21
137.526655
  0
LINE
  8
0
  6
CONTINUOUS
 62
1
 10
82.558096
 20
133.526655
 11
82.558096
 21
137.526655
  0
ARC
  8
0
  6
CONTINUOUS
 62
1
 10
80.558096
 20
133.526655
 40
1.000000
 50
180.000000
 51
0.000000
  0
ARC
  8
0
  6
CONTINUOUS
 62
1
 10
80.558096
 20
137.526655
 40
1.000000
 50
0.000000
 51
180.000000
  0
LINE
  8
0
  6
CONTINUOUS
 62
1
 10
81.558096
 20
133.526655
 11
82.558096
 21
133.526655
  0
LINE
  8
0
  6
CONTINUOUS
 62
1
 10
81.558096
 20
137.526655
 11
82.558096
 21
137.526655
  0
LINE
  8
0
  6
CONTINUOUS
 62
1
 10
72.563435
 20
131.526655
 11
71.911175
 21
131.526655
  0
LINE
  8
0
  6
CONTINUOUS
 62
1
 10
72.563435
 20
139.526655
 11
71.911175
 21
139.526655
  0
ARC
  8
0
  6
CONTINUOUS
 62
1
 10
79.411175
 20
135.526655
 40
8.500000
 50
151.927513
 51
208.072487
  0
LINE
  8
0
  6
CONTINUOUS
 62
1
 10
83.811175
 20
121.320295
 11
83.811175
 21
146.320295
  0
LINE
  8
0
  6
CONTINUOUS
 62
1
 10
88.811175
 20
146.320295
 11
88.811175
 21
121.320295
  0
LINE
  8
0
  6
CONTINUOUS
 62
1
 10
88.811175
 20
121.320295
 11
83.811175
 21
121.320295
  0
LINE
  8
0
  6
CONTINUOUS
 62
1
 10
83.811175
 20
146.320295
 11
88.811175
 21
146.320295
  0
LINE
  8
0
  6
CONTINUOUS
 62
1
 10
88.811175
 20
146.320295
 11
83.811175
 21
121.320295
  0
LINE
  8
0
  6
CONTINUOUS
 62
1
 10
88.811175
 20
121.320295
 11
83.811175
 21
146.320295
  0
LINE
  8
0
  6
CONTINUOUS
 62
1
 10
81.561175
 20
120.827733
 11
81.561175
 21
125.526655
  0
LINE
  8
0
  6
CONTINUOUS
 62
1
 10
81.561175
 20
129.026655
 11
81.561175
 21
130.776655
  0
LINE
  8
0
  6
CONTINUOUS
 62
1
 10
83.061175
 20
130.776655
 11
83.061175
 21
120.827733
  0
LINE
  8
0
  6
CONTINUOUS
 62
1
 10
83.061175
 20
146.032681
 11
83.061175
 21
140.276655
  0
LINE
  8
0
  6
CONTINUOUS
 62
1
 10
81.561175
 20
140.276655
 11
81.561175
 21
141.276655
  0
LINE
  8
0
  6
CONTINUOUS
 62
1
 10
80.561175
 20
126.526655
 11
77.061175
 21
126.526655
  0
LINE
  8
0
  6
CONTINUOUS
 62
1
 10
76.061175
 20
127.526655
 11
76.061175
 21
131.526655
  0
ARC
  8
0
  6
CONTINUOUS
 62
1
 10
77.061175
 20
127.526655
 40
1.000000
 50
180.000000
 51
270.000000
  0
LINE
  8
0
  6
CONTINUOUS
 62
1
 10
76.061175
 20
131.526655
 11
77.061175
 21
131.526655
  0
LINE
  8
0
  6
CONTINUOUS
 62
1
 10
77.061175
 20
131.526655
 11
77.061175
 21
139.526655
  0
LINE
  8
0
  6
CONTINUOUS
 62
1
 10
77.061175
 20
139.526655
 11
76.061175
 21
139.526655
  0
LINE
  8
0
  6
CONTINUOUS
 62
1
 10
95.626410
 20
152.942883
 11
96.919436
 21
153.491154
  0
LINE
  8
0
  6
CONTINUOUS
 62
1
 10
79.561175
 20
140.776655
 11
79.561175
 21
135.926655
  0
LINE
  8
0
  6
CONTINUOUS
 62
1
 10
96.919436
 20
153.491154
 11
97.516240
 21
153.776655
  0
LINE
  8
0
  6
CONTINUOUS
 62
1
 10
79.161175
 20
135.526655
 11
79.561175
 21
135.926655
  0
LINE
  8
0
  6
CONTINUOUS
 62
1
 10
79.161175
 20
135.526655
 11
79.561175
 21
135.126655
  0
ARC
  8
0
  6
CONTINUOUS
 62
1
 10
82.311175
 20
120.827733
 40
0.750000
 50
180.000000
 51
270.000000
  0
ARC
  8
0
  6
CONTINUOUS
 62
1
 10
82.311175
 20
120.827733
 40
0.750000
 50
270.000000
 51
0.000000
  0
ARC
  8
0
  6
CONTINUOUS
 62
1
 10
82.311175
 20
140.276655
 40
0.750000
 50
180.000000
 51
270.000000
  0
ARC
  8
0
  6
CONTINUOUS
 62
1
 10
82.311175
 20
140.276655
 40
0.750000
 50
270.000000
 51
0.000000
  0
ARC
  8
0
  6
CONTINUOUS
 62
1
 10
82.311175
 20
130.776655
 40
0.750000
 50
90.000000
 51
180.000000
  0
ARC
  8
0
  6
CONTINUOUS
 62
1
 10
82.311175
 20
130.776655
 40
0.750000
 50
0.000000
 51
90.000000
  0
LINE
  8
0
  6
CONTINUOUS
 62
1
 10
79.561175
 20
135.126655
 11
79.561175
 21
129.526655
  0
LINE
  8
0
  6
CONTINUOUS
 62
1
 10
80.561175
 20
128.026655
 11
79.061175
 21
128.026655
  0
LINE
  8
0
  6
CONTINUOUS
 62
1
 10
80.561175
 20
142.276655
 11
79.061175
 21
142.276655
  0
LINE
  8
0
  6
CONTINUOUS
 62
1
 10
78.561175
 20
128.526655
 11
78.561175
 21
129.026655
  0
LINE
  8
0
  6
CONTINUOUS
 62
1
 10
79.061175
 20
129.526655
 11
79.561175
 21
129.526655
  0
LINE
  8
0
  6
CONTINUOUS
 62
1
 10
78.561175
 20
141.776655
 11
78.561175
 21
141.276655
  0
LINE
  8
0
  6
CONTINUOUS
 62
1
 10
79.061175
 20
140.776655
 11
79.561175
 21
140.776655
  0
ARC
  8
0
  6
CONTINUOUS
 62
1
 10
79.061175
 20
141.276655
 40
0.500000
 50
180.000000
 51
270.000000
  0
ARC
  8
0
  6
CONTINUOUS
 62
1
 10
79.061175
 20
141.776655
 40
0.500000
 50
90.000000
 51
180.000000
  0
ARC
  8
0
  6
CONTINUOUS
 62
1
 10
79.061175
 20
129.026655
 40
0.500000
 50
90.000000
 51
180.000000
  0
ARC
  8
0
  6
CONTINUOUS
 62
1
 10
79.061175
 20
128.526655
 40
0.500000
 50
180.000000
 51
270.000000
  0
ARC
  8
0
  6
CONTINUOUS
 62
1
 10
80.561175
 20
125.526655
 40
1.000000
 50
0.000000
 51
90.000000
  0
ARC
  8
0
  6
CONTINUOUS
 62
1
 10
80.561175
 20
129.026655
 40
1.000000
 50
270.000000
 51
0.000000
  0
ARC
  8
0
  6
CONTINUOUS
 62
1
 10
80.561175
 20
141.276655
 40
1.000000
 50
0.000000
 51
90.000000
  0
LINE
  8
0
  6
CONTINUOUS
 62
1
 10
81.782322
 20
148.996880
 11
84.366477
 21
149.937435
  0
LINE
  8
0
  6
CONTINUOUS
 62
1
 10
84.511576
 20
150.415918
 11
84.545778
 21
150.321949
  0
ARC
  8
0
  6
CONTINUOUS
 62
1
 10
84.229669
 20
150.313312
 40
0.300000
 50
20.000000
 51
110.000000
  0
ARC
  8
0
  6
CONTINUOUS
 62
1
 10
84.263871
 20
150.219343
 40
0.300000
 50
290.000000
 51
20.000000
  0
LINE
  8
0
  6
CONTINUOUS
 62
1
 10
81.363606
 20
149.270151
 11
81.397808
 21
149.176181
  0
ARC
  8
0
  6
CONTINUOUS
 62
1
 10
81.645514
 20
149.372757
 40
0.300000
 50
110.000000
 51
200.000000
  0
ARC
  8
0
  6
CONTINUOUS
 62
1
 10
81.679716
 20
149.278787
 40
0.300000
 50
200.000000
 51
290.000000
  0
LINE
  8
0
  6
CONTINUOUS
 62
1
 10
79.511175
 20
143.776655
 11
81.361175
 21
143.776655
  0
LINE
  8
0
  6
CONTINUOUS
 62
1
 10
81.561175
 20
143.976655
 11
81.561175
 21
146.032681
  0
LINE
  8
0
  6
CONTINUOUS
 62
1
 10
79.311175
 20
143.976655
 11
79.311175
 21
150.526655
  0
LINE
  8
0
  6
CONTINUOUS
 62
1
 10
77.811175
 20
150.526655
 11
77.811175
 21
145.726655
  0
LINE
  8
0
  6
CONTINUOUS
 62
1
 10
77.061175
 20
145.526655
 11
77.611175
 21
145.526655
  0
ARC
  8
0
  6
CONTINUOUS
 62
1
 10
77.061175
 20
144.526655
 40
1.000000
 50
90.000000
 51
180.000000
  0
ARC
  8
0
  6
CONTINUOUS
 62
1
 10
78.561175
 20
150.526655
 40
0.750000
 50
90.000000
 51
180.000000
  0
ARC
  8
0
  6
CONTINUOUS
 62
1
 10
78.561175
 20
150.526655
 40
0.750000
 50
0.000000
 51
90.000000
  0
ARC
  8
0
  6
CONTINUOUS
 62
1
 10
77.611175
 20
145.726655
 40
0.200000
 50
270.000000
 51
0.000000
  0
ARC
  8
0
  6
CONTINUOUS
 62
1
 10
81.361175
 20
143.976655
 40
0.200000
 50
270.000000
 51
0.000000
  0
ARC
  8
0
  6
CONTINUOUS
 62
1
 10
79.511175
 20
143.976655
 40
0.200000
 50
180.000000
 51
270.000000
  0
LINE
  8
0
  6
CONTINUOUS
 62
1
 10
83.061175
 20
146.032681
 11
81.561175
 21
146.032681
  0
LINE
  8
0
  6
CONTINUOUS
 62
1
 10
76.061175
 20
139.526655
 11
76.061175
 21
144.526655
  0
ARC
  8
0
  6
CONTINUOUS
 62
1
 10
81.667481
 20
146.542640
 40
1.000000
 50
110.000000
 51
180.000000
  0
LINE
  8
0
  6
CONTINUOUS
 62
1
 10
100.764471
 20
153.600341
 11
100.245335
 21
155.026655
  0
ARC
  8
0
  6
CONTINUOUS
 62
1
 10
84.661175
 20
154.526655
 40
0.500000
 50
180.000000
 51
270.000000
  0
ARC
  8
0
  6
CONTINUOUS
 62
1
 10
84.661175
 20
154.526655
 40
0.500000
 50
90.000000
 51
180.000000
  0
LINE
  8
0
  6
CONTINUOUS
 62
1
 10
100.245335
 20
155.026655
 11
84.661175
 21
155.026655
  0
LINE
  8
0
  6
CONTINUOUS
 62
1
 10
79.417481
 20
148.118107
 11
79.417481
 21
145.008556
  0
ARC
  8
0
  6
CONTINUOUS
 62
1
 10
80.417481
 20
145.008556
 40
1.000000
 50
180.000000
 51
270.000000
  0
ARC
  8
0
  6
CONTINUOUS
 62
1
 10
80.417481
 20
145.008556
 40
1.000000
 50
270.000000
 51
0.000000
  0
ARC
  8
0
  6
CONTINUOUS
 62
1
 10
80.417481
 20
145.008556
 40
1.000000
 50
0.000000
 51
75.522488
  0
LINE
  8
0
  6
CONTINUOUS
 62
1
 10
84.706406
 20
150.043118
 11
81.229543
 21
148.777643
  0
LINE
  8
0
  6
CONTINUOUS
 62
1
 10
88.911175
 20
153.776655
 11
99.370075
 21
153.776655
  0
LINE
  8
0
  6
CONTINUOUS
 62
1
 10
85.911175
 20
149.851603
 11
85.911175
 21
150.776655
  0
LINE
  8
0
  6
CONTINUOUS
 62
1
 10
81.325461
 20
147.482332
 11
85.253195
 21
148.911911
  0
LINE
  8
0
  6
CONTINUOUS
 62
1
 10
80.667481
 20
145.976802
 11
80.667481
 21
146.542640
  0
LINE
  8
0
  6
CONTINUOUS
 62
1
 10
80.955927
 20
149.529397
 11
81.425773
 21
149.700407
  0
LINE
  8
0
  6
CONTINUOUS
 62
1
 10
83.728020
 20
150.538357
 11
84.432790
 21
150.794872
  0
LINE
  8
0
  6
CONTINUOUS
 62
1
 10
81.254763
 20
150.170254
 11
81.013765
 21
150.082538
  0
ARC
  8
0
  6
CONTINUOUS
 62
1
 10
100.177163
 20
153.386578
 40
0.625000
 50
270.000000
 51
20.000000
  0
ARC
  8
0
  6
CONTINUOUS
 62
1
 10
100.177163
 20
153.386578
 40
0.625000
 50
200.000000
 51
270.000000
  0
ARC
  8
0
  6
CONTINUOUS
 62
1
 10
88.911175
 20
150.776655
 40
3.000000
 50
90.000000
 51
180.000000
  0
LINE
  8
0
  6
CONTINUOUS
 62
1
 10
79.417481
 20
148.118107
 11
80.536634
 21
149.716422
  0
ARC
  8
0
  6
CONTINUOUS
 62
1
 10
81.355786
 20
149.142845
 40
1.000000
 50
110.000000
 51
145.000000
  0
LINE
  8
0
  6
CONTINUOUS
 62
1
 10
99.370075
 20
153.776655
 11
99.589855
 21
153.172816
  0
ARC
  8
0
  6
CONTINUOUS
 62
1
 10
82.161175
 20
154.026655
 40
2.500000
 50
320.778048
 51
0.000000
  0
LINE
  8
0
  6
CONTINUOUS
 62
1
 10
81.229543
 20
148.777643
 11
80.955927
 21
149.529397
  0
LINE
  8
0
  6
CONTINUOUS
 62
1
 10
84.432790
 20
150.794872
 11
84.706406
 21
150.043118
  0
LINE
  8
0
  6
CONTINUOUS
 62
1
 10
83.728020
 20
150.538357
 11
83.273315
 21
151.787650
  0
ARC
  8
0
  6
CONTINUOUS
 62
1
 10
81.340268
 20
149.935331
 40
0.250000
 50
290.000000
 51
20.000000
  0
ARC
  8
0
  6
CONTINUOUS
 62
1
 10
81.340268
 20
149.935331
 40
0.250000
 50
20.000000
 51
110.000000
  0
ARC
  8
0
  6
CONTINUOUS
 62
1
 10
84.911175
 20
149.851603
 40
1.000000
 50
290.000000
 51
0.000000
  0
ARC
  8
0
  6
CONTINUOUS
 62
1
 10
83.889097
 20
151.861921
 40
0.620139
 50
70.320835
 51
186.919676
  0
LINE
  8
0
  6
RANDOM
 62
1
 10
128.385705
 20
115.479052
 11
128.385705
 21
155.479052
  0
ARC
  8
0
  6
CONTINUOUS
 62
1
 10
81.554682
 20
149.764319
 40
0.100000
 50
281.950087
 51
21.322156
  0
LINE
  8
0
  6
CONTINUOUS
 62
1
 10
81.647837
 20
149.800680
 11
81.639592
 21
149.916714
  0
LINE
  8
0
  6
CONTINUOUS
 62
1
 10
81.639592
 20
149.916714
 11
81.630676
 21
150.011817
  0
LINE
  8
0
  6
CONTINUOUS
 62
1
 10
81.630676
 20
150.011817
 11
81.532601
 21
150.106920
  0
LINE
  8
0
  6
CONTINUOUS
 62
1
 10
81.542908
 20
149.654665
 11
81.575388
 21
149.666486
  0
LINE
  8
0
  6
CONTINUOUS
 62
1
 10
81.532601
 20
150.106920
 11
81.028566
 21
150.498869
  0
LINE
  8
0
  6
CONTINUOUS
 62
1
 10
81.028566
 20
150.498869
 11
80.750569
 21
151.003382
  0
LINE
  8
0
  6
CONTINUOUS
 62
1
 10
81.244786
 20
151.991816
 11
82.027297
 21
152.094778
  0
LINE
  8
0
  6
CONTINUOUS
 62
1
 10
82.027297
 20
152.094778
 11
82.830399
 21
152.115371
  0
LINE
  8
0
  6
CONTINUOUS
 62
1
 10
82.830399
 20
152.115371
 11
83.262839
 21
151.652042
  0
LINE
  8
0
  6
CONTINUOUS
 62
1
 10
83.262839
 20
151.652042
 11
83.355505
 21
151.301972
  0
LINE
  8
0
  6
CONTINUOUS
 62
1
 10
80.750569
 20
151.003382
 11
80.781458
 21
151.538784
  0
LINE
  8
0
  6
CONTINUOUS
 62
1
 10
80.781458
 20
151.538784
 11
80.946197
 21
151.775596
  0
LINE
  8
0
  6
CONTINUOUS
 62
1
 10
80.946197
 20
151.775596
 11
81.244786
 21
151.991816
  0
LINE
  8
0
  6
CONTINUOUS
 62
1
 10
82.302958
 20
149.931300
 11
84.127063
 21
150.595220
  0
LINE
  8
0
  6
CONTINUOUS
 62
1
 10
82.302958
 20
149.931300
 11
82.222924
 21
150.159095
  0
LINE
  8
0
  6
CONTINUOUS
 62
1
 10
82.222924
 20
150.159095
 11
82.109666
 21
150.334130
  0
LINE
  8
0
  6
CONTINUOUS
 62
1
 10
82.109666
 20
150.334130
 11
81.821373
 21
150.663608
  0
LINE
  8
0
  6
CONTINUOUS
 62
1
 10
81.821373
 20
150.663608
 11
81.563968
 21
150.766570
  0
LINE
  8
0
  6
CONTINUOUS
 62
1
 10
81.563968
 20
150.766570
 11
81.450710
 21
150.972494
  0
LINE
  8
0
  6
CONTINUOUS
 62
1
 10
81.450710
 20
150.972494
 11
81.388933
 21
151.168121
  0
LINE
  8
0
  6
CONTINUOUS
 62
1
 10
81.388933
 20
151.168121
 11
81.419821
 21
151.384341
  0
LINE
  8
0
  6
CONTINUOUS
 62
1
 10
81.419821
 20
151.384341
 11
81.636041
 21
151.579969
  0
LINE
  8
0
  6
CONTINUOUS
 62
1
 10
81.636041
 20
151.579969
 11
82.119962
 21
151.621153
  0
LINE
  8
0
  6
CONTINUOUS
 62
1
 10
82.119962
 20
151.621153
 11
82.603883
 21
151.549080
  0
LINE
  8
0
  6
CONTINUOUS
 62
1
 10
82.603883
 20
151.549080
 11
82.830399
 21
151.363749
  0
LINE
  8
0
  6
CONTINUOUS
 62
1
 10
82.830399
 20
151.363749
 11
82.953954
 21
151.126936
  0
LINE
  8
0
  6
CONTINUOUS
 62
1
 10
82.953954
 20
151.126936
 11
83.293728
 21
151.013678
  0
LINE
  8
0
  6
CONTINUOUS
 62
1
 10
83.293728
 20
151.013678
 11
83.355505
 21
151.301972
  0
CIRCLE
  8
0
  6
CONTINUOUS
 62
1
 10
96.680791
 20
119.400938
 40
0.100000
  0
CIRCLE
  8
0
  6
CONTINUOUS
 62
1
 10
94.885688
 20
120.328344
 40
0.100000
  0
CIRCLE
  8
0
  6
CONTINUOUS
 62
1
 10
93.404015
 20
119.543407
 40
0.100000
  0
CIRCLE
  8
0
  6
CONTINUOUS
 62
1
 10
93.660458
 20
118.375165
 40
0.100000
  0
CIRCLE
  8
0
  6
CONTINUOUS
 62
1
 10
92.720166
 20
118.603114
 40
0.200000
  0
CIRCLE
  8
0
  6
CONTINUOUS
 62
1
 10
91.466443
 20
119.771356
 40
0.200000
  0
CIRCLE
  8
0
  6
CONTINUOUS
 62
1
 10
90.526150
 20
120.385331
 40
0.100000
  0
CIRCLE
  8
0
  6
CONTINUOUS
 62
1
 10
96.053930
 20
119.885331
 40
0.250000
  0
CIRCLE
  8
0
  6
CONTINUOUS
 62
1
 10
100.281396
 20
120.146951
 40
0.250000
  0
CIRCLE
  8
0
  6
CONTINUOUS
 62
1
 10
99.262330
 20
120.111567
 40
0.100000
  0
LINE
  8
0
  6
CONTINUOUS
 62
1
 10
102.210156
 20
56.798041
 11
103.286328
 21
53.687231
  0
LINE
  8
0
  6
CONTINUOUS
 62
1
 10
103.286328
 20
53.687231
 11
103.313771
 21
52.891390
  0
LINE
  8
0
  6
CONTINUOUS
 62
1
 10
103.313771
 20
52.891390
 11
103.247969
 21
52.573345
  0
LINE
  8
0
  6
CONTINUOUS
 62
1
 10
103.247969
 20
52.573345
 11
103.006693
 21
52.200465
  0
LINE
  8
0
  6
CONTINUOUS
 62
1
 10
103.006693
 20
52.200465
 11
102.699616
 21
51.904355
  0
LINE
  8
0
  6
CONTINUOUS
 62
1
 10
102.699616
 20
51.904355
 11
102.370604
 21
51.695981
  0
LINE
  8
0
  6
CONTINUOUS
 62
1
 10
102.370604
 20
51.695981
 11
102.030626
 21
51.586310
  0
LINE
  8
0
  6
CONTINUOUS
 62
1
 10
102.030626
 20
51.586310
 11
101.184891
 21
51.496692
  0
LINE
  8
0
  6
CONTINUOUS
 62
1
 10
101.184891
 20
51.496692
 11
98.728233
 21
51.739775
  0
LINE
  8
0
  6
CONTINUOUS
 62
1
 10
93.857674
 20
51.416606
 11
97.159622
 21
51.740452
  0
ARC
  8
0
  6
CONTINUOUS
 62
1
 10
97.940492
 20
43.778653
 40
8.000000
 50
84.349063
 51
95.601489
  0
LINE
  8
0
  6
CONTINUOUS
 62
1
 10
93.857674
 20
51.416606
 11
93.355688
 21
51.454706
  0
LINE
  8
0
  6
CONTINUOUS
 62
1
 10
93.355688
 20
51.454706
 11
92.866019
 21
51.682540
  0
LINE
  8
0
  6
CONTINUOUS
 62
1
 10
92.866019
 20
51.682540
 11
92.634067
 21
52.030468
  0
LINE
  8
0
  6
CONTINUOUS
 62
1
 10
92.634067
 20
52.030468
 11
92.605073
 21
52.349402
  0
LINE
  8
0
  6
CONTINUOUS
 62
1
 10
92.605073
 20
52.349402
 11
92.721049
 21
52.755318
  0
LINE
  8
0
  6
CONTINUOUS
 62
1
 10
92.721049
 20
52.755318
 11
92.924007
 21
53.161234
  0
LINE
  8
0
  6
CONTINUOUS
 62
1
 10
92.924007
 20
53.161234
 11
93.329923
 21
53.596144
  0
LINE
  8
0
  6
CONTINUOUS
 62
1
 10
93.329923
 20
53.596144
 11
93.909802
 21
54.118036
  0
LINE
  8
0
  6
CONTINUOUS
 62
1
 10
93.909802
 20
54.118036
 11
94.663646
 21
54.668922
  0
LINE
  8
0
  6
CONTINUOUS
 62
1
 10
94.663646
 20
54.668922
 11
95.823406
 21
55.306790
  0
LINE
  8
0
  6
CONTINUOUS
 62
1
 10
95.823406
 20
55.306790
 11
97.128136
 21
55.886670
  0
LINE
  8
0
  6
CONTINUOUS
 62
1
 10
97.128136
 20
55.886670
 11
98.142926
 21
56.321580
  0
LINE
  8
0
  6
CONTINUOUS
 62
1
 10
98.142926
 20
56.321580
 11
98.722806
 21
56.640514
  0
LINE
  8
0
  6
CONTINUOUS
 62
1
 10
98.722806
 20
56.640514
 11
99.639421
 21
56.964025
  0
LINE
  8
0
  6
CONTINUOUS
 62
1
 10
102.210156
 20
56.798041
 11
101.448242
 21
57.133412
  0
LINE
  8
0
  6
CONTINUOUS
 62
1
 10
101.448242
 20
57.133412
 11
101.029692
 21
57.056004
  0
LINE
  8
0
  6
CONTINUOUS
 62
1
 10
64.163435
 20
116.479052
 11
64.163435
 21
117.679052
  0
LINE
  8
0
  6
CONTINUOUS
 62
1
 10
65.163435
 20
155.479052
 11
83.163435
 21
155.479052
  0
LINE
  8
0
  6
CONTINUOUS
 62
1
 10
101.163435
 20
117.679052
 11
101.163435
 21
116.479052
  0
LINE
  8
0
  6
CONTINUOUS
 62
1
 10
100.163435
 20
115.479052
 11
65.163435
 21
115.479052
  0
LINE
  8
0
  6
CONTINUOUS
 62
1
 10
65.163435
 20
118.679052
 11
67.563435
 21
118.679052
  0
LINE
  8
0
  6
CONTINUOUS
 62
1
 10
83.163435
 20
152.279052
 11
80.763435
 21
152.279052
  0
LINE
  8
0
  6
CONTINUOUS
 62
1
 10
84.163435
 20
154.479052
 11
84.163435
 21
153.279052
  0
LINE
  8
0
  6
CONTINUOUS
 62
1
 10
72.563435
 20
147.279052
 11
72.563435
 21
123.679052
  0
LINE
  8
0
  6
CONTINUOUS
 62
1
 10
75.763435
 20
123.679052
 11
75.763435
 21
147.279052
  0
LINE
  8
0
  6
CONTINUOUS
 62
1
 10
64.163435
 20
153.279052
 11
64.163435
 21
154.479052
  0
LINE
  8
0
  6
CONTINUOUS
 62
1
 10
80.763435
 20
118.679052
 11
88.463435
 21
118.679052
  0
LINE
  8
0
  6
CONTINUOUS
 62
1
 10
67.563435
 20
152.279052
 11
65.163435
 21
152.279052
  0
ARC
  8
0
  6
CONTINUOUS
 62
1
 10
80.763435
 20
123.679052
 40
5.000000
 50
180.000000
 51
270.000000
  0
ARC
  8
0
  6
CONTINUOUS
 62
1
 10
67.563435
 20
123.679052
 40
5.000000
 50
270.000000
 51
0.000000
  0
ARC
  8
0
  6
CONTINUOUS
 62
1
 10
80.763435
 20
147.279052
 40
5.000000
 50
90.000000
 51
180.000000
  0
ARC
  8
0
  6
CONTINUOUS
 62
1
 10
67.563435
 20
147.279052
 40
5.000000
 50
0.000000
 51
90.000000
  0
ARC
  8
0
  6
CONTINUOUS
 62
1
 10
100.163435
 20
116.479052
 40
1.000000
 50
270.000000
 51
0.000000
  0
ARC
  8
0
  6
CONTINUOUS
 62
1
 10
100.163435
 20
117.679052
 40
1.000000
 50
0.000000
 51
90.000000
  0
ARC
  8
0
  6
CONTINUOUS
 62
1
 10
65.163435
 20
116.479052
 40
1.000000
 50
180.000000
 51
270.000000
  0
ARC
  8
0
  6
CONTINUOUS
 62
1
 10
65.163435
 20
117.679052
 40
1.000000
 50
90.000000
 51
180.000000
  0
ARC
  8
0
  6
CONTINUOUS
 62
1
 10
65.163435
 20
153.279052
 40
1.000000
 50
180.000000
 51
270.000000
  0
ARC
  8
0
  6
CONTINUOUS
 62
1
 10
65.163435
 20
154.479052
 40
1.000000
 50
90.000000
 51
180.000000
  0
ARC
  8
0
  6
CONTINUOUS
 62
1
 10
83.163435
 20
154.479052
 40
1.000000
 50
0.000000
 51
90.000000
  0
ARC
  8
0
  6
CONTINUOUS
 62
1
 10
83.163435
 20
153.279052
 40
1.000000
 50
270.000000
 51
0.000000
  0
LINE
  8
0
  6
CONTINUOUS
 62
1
 10
97.663435
 20
117.479052
 11
89.663435
 21
117.479052
  0
LINE
  8
0
  6
CONTINUOUS
 62
1
 10
97.663435
 20
117.479052
 11
98.863435
 21
118.679052
  0
LINE
  8
0
  6
CONTINUOUS
 62
1
 10
89.663435
 20
117.479052
 11
88.463435
 21
118.679052
  0
LINE
  8
0
  6
CONTINUOUS
 62
1
 10
98.863435
 20
118.679052
 11
100.163435
 21
118.679052
  0
LINE
  8
0
  6
CONTINUOUS
 62
1
 10
128.385705
 20
155.479052
 11
84.163435
 21
155.479052
  0
LINE
  8
0
  6
CONTINUOUS
 62
1
 10
64.163435
 20
40.820216
 11
64.163435
 21
42.020216
  0
LINE
  8
0
  6
CONTINUOUS
 62
1
 10
65.163435
 20
79.820216
 11
83.163435
 21
79.820216
  0
LINE
  8
0
  6
CONTINUOUS
 62
1
 10
101.163435
 20
42.020216
 11
101.163435
 21
40.820216
  0
LINE
  8
0
  6
CONTINUOUS
 62
1
 10
100.163435
 20
39.820216
 11
65.163435
 21
39.820216
  0
LINE
  8
0
  6
CONTINUOUS
 62
1
 10
65.163435
 20
43.020216
 11
67.563435
 21
43.020216
  0
LINE
  8
0
  6
CONTINUOUS
 62
1
 10
83.163435
 20
76.620216
 11
80.763435
 21
76.620216
  0
LINE
  8
0
  6
CONTINUOUS
 62
1
 10
84.163435
 20
78.820216
 11
84.163435
 21
77.620216
  0
LINE
  8
0
  6
CONTINUOUS
 62
1
 10
72.563435
 20
71.620216
 11
72.563435
 21
48.020216
  0
LINE
  8
0
  6
CONTINUOUS
 62
1
 10
75.763435
 20
48.020216
 11
75.763435
 21
71.620216
  0
LINE
  8
0
  6
CONTINUOUS
 62
1
 10
64.163435
 20
77.620216
 11
64.163435
 21
78.820216
  0
LINE
  8
0
  6
CONTINUOUS
 62
1
 10
80.763435
 20
43.020216
 11
88.463435
 21
43.020216
  0
LINE
  8
0
  6
CONTINUOUS
 62
1
 10
67.563435
 20
76.620216
 11
65.163435
 21
76.620216
  0
ARC
  8
0
  6
CONTINUOUS
 62
1
 10
80.763435
 20
48.020216
 40
5.000000
 50
180.000000
 51
270.000000
  0
ARC
  8
0
  6
CONTINUOUS
 62
1
 10
67.563435
 20
48.020216
 40
5.000000
 50
270.000000
 51
0.000000
  0
ARC
  8
0
  6
CONTINUOUS
 62
1
 10
80.763435
 20
71.620216
 40
5.000000
 50
90.000000
 51
180.000000
  0
ARC
  8
0
  6
CONTINUOUS
 62
1
 10
67.563435
 20
71.620216
 40
5.000000
 50
0.000000
 51
90.000000
  0
ARC
  8
0
  6
CONTINUOUS
 62
1
 10
100.163435
 20
40.820216
 40
1.000000
 50
270.000000
 51
0.000000
  0
ARC
  8
0
  6
CONTINUOUS
 62
1
 10
100.163435
 20
42.020216
 40
1.000000
 50
0.000000
 51
90.000000
  0
ARC
  8
0
  6
CONTINUOUS
 62
1
 10
65.163435
 20
40.820216
 40
1.000000
 50
180.000000
 51
270.000000
  0
ARC
  8
0
  6
CONTINUOUS
 62
1
 10
65.163435
 20
42.020216
 40
1.000000
 50
90.000000
 51
180.000000
  0
ARC
  8
0
  6
CONTINUOUS
 62
1
 10
65.163435
 20
77.620216
 40
1.000000
 50
180.000000
 51
270.000000
  0
ARC
  8
0
  6
CONTINUOUS
 62
1
 10
65.163435
 20
78.820216
 40
1.000000
 50
90.000000
 51
180.000000
  0
ARC
  8
0
  6
CONTINUOUS
 62
1
 10
83.163435
 20
78.820216
 40
1.000000
 50
0.000000
 51
90.000000
  0
ARC
  8
0
  6
CONTINUOUS
 62
1
 10
83.163435
 20
77.620216
 40
1.000000
 50
270.000000
 51
0.000000
  0
LINE
  8
0
  6
CONTINUOUS
 62
1
 10
97.663435
 20
41.820216
 11
89.663435
 21
41.820216
  0
LINE
  8
0
  6
CONTINUOUS
 62
1
 10
97.663435
 20
41.820216
 11
98.863435
 21
43.020216
  0
LINE
  8
0
  6
CONTINUOUS
 62
1
 10
89.663435
 20
41.820216
 11
88.463435
 21
43.020216
  0
LINE
  8
0
  6
CONTINUOUS
 62
1
 10
98.863435
 20
43.020216
 11
100.163435
 21
43.020216
  0
LINE
  8
0
  6
CONTINUOUS
 62
1
 10
128.399984
 20
79.820143
 11
84.163435
 21
79.820143
  0
LINE
  8
0
  6
CONTINUOUS
 62
1
 10
81.767721
 20
162.047141
 11
86.038824
 21
153.922415
  0
LINE
  8
0
  6
CONTINUOUS
 62
1
 10
86.038824
 20
153.922415
 11
85.361041
 21
155.825808
  0
LINE
  8
0
  6
CONTINUOUS
 62
1
 10
85.361041
 20
155.825808
 11
84.981662
 21
155.626372
  0
LINE
  8
0
  6
CONTINUOUS
 62
1
 10
84.981662
 20
155.626372
 11
85.639951
 21
154.681173
  0
LINE
  8
0
  6
CONTINUOUS
 62
1
 10
85.639951
 20
154.681173
 11
85.234581
 21
155.759330
  0
LINE
  8
0
  6
CONTINUOUS
 62
1
 10
85.234581
 20
155.759330
 11
84.855202
 21
155.559893
  0
LINE
  8
0
  6
CONTINUOUS
 62
1
 10
84.855202
 20
155.559893
 11
86.038824
 21
153.922415
  0
LINE
  8
0
  6
CONTINUOUS
 62
1
 10
94.557978
 20
161.904796
 11
97.561022
 21
152.908370
  0
LINE
  8
0
  6
CONTINUOUS
 62
1
 10
97.561022
 20
152.908370
 11
97.198765
 21
154.895998
  0
LINE
  8
0
  6
CONTINUOUS
 62
1
 10
97.198765
 20
154.895998
 11
96.792231
 21
154.760295
  0
LINE
  8
0
  6
CONTINUOUS
 62
1
 10
96.792231
 20
154.760295
 11
97.289616
 21
153.721438
  0
LINE
  8
0
  6
CONTINUOUS
 62
1
 10
97.289616
 20
153.721438
 11
97.063254
 21
154.850764
  0
LINE
  8
0
  6
CONTINUOUS
 62
1
 10
97.063254
 20
154.850764
 11
96.656720
 21
154.715061
  0
LINE
  8
0
  6
CONTINUOUS
 62
1
 10
96.656720
 20
154.715061
 11
97.561022
 21
152.908370
  0
LINE
  8
0
  6
CONTINUOUS
 62
1
 10
72.213014
 20
108.071634
 11
85.860991
 21
123.084409
  0
LINE
  8
0
  6
CONTINUOUS
 62
1
 10
85.860991
 20
123.084409
 11
84.304108
 21
121.796619
  0
LINE
  8
0
  6
CONTINUOUS
 62
1
 10
84.304108
 20
121.796619
 11
84.621251
 21
121.508307
  0
LINE
  8
0
  6
CONTINUOUS
 62
1
 10
84.621251
 20
121.508307
 11
85.284368
 21
122.450124
  0
LINE
  8
0
  6
CONTINUOUS
 62
1
 10
85.284368
 20
122.450124
 11
84.409822
 21
121.700515
  0
LINE
  8
0
  6
CONTINUOUS
 62
1
 10
84.409822
 20
121.700515
 11
84.726965
 21
121.412203
  0
LINE
  8
0
  6
CONTINUOUS
 62
1
 10
84.726965
 20
121.412203
 11
85.860991
 21
123.084409
  0
LINE
  8
0
  6
CONTINUOUS
 62
1
 10
101.978603
 20
111.256162
 11
95.479566
 21
117.479052
  0
LINE
  8
0
  6
CONTINUOUS
 62
1
 10
95.479566
 20
117.479052
 11
96.726549
 21
115.889480
  0
LINE
  8
0
  6
CONTINUOUS
 62
1
 10
96.726549
 20
115.889480
 11
97.022950
 21
116.199034
  0
LINE
  8
0
  6
CONTINUOUS
 62
1
 10
97.022950
 20
116.199034
 11
96.098673
 21
116.886251
  0
LINE
  8
0
  6
CONTINUOUS
 62
1
 10
96.098673
 20
116.886251
 11
96.825349
 21
115.992665
  0
LINE
  8
0
  6
CONTINUOUS
 62
1
 10
96.825349
 20
115.992665
 11
97.121750
 21
116.302218
  0
LINE
  8
0
  6
CONTINUOUS
 62
1
 10
97.121750
 20
116.302218
 11
95.479566
 21
117.479052
  0
LINE
  8
0
  6
CONTINUOUS
 62
1
 10
17.709024
 20
175.875224
 11
22.771524
 21
175.875224
  0
LINE
  8
0
  6
CONTINUOUS
 62
1
 10
17.709024
 20
188.868974
 11
22.771524
 21
188.868974
  0
LINE
  8
0
  6
CONTINUOUS
 62
1
 10
22.771524
 20
189.881474
 11
18.813570
 21
189.881474
  0
LINE
  8
0
  6
CONTINUOUS
 62
1
 10
22.771524
 20
174.862724
 11
18.813570
 21
174.862724
  0
LINE
  8
0
  6
CONTINUOUS
 62
1
 10
13.152774
 20
184.692412
 11
13.152774
 21
180.051787
  0
LINE
  8
0
  6
CONTINUOUS
 62
1
 10
14.165274
 20
179.123662
 11
14.165274
 21
181.865849
  0
LINE
  8
0
  6
CONTINUOUS
 62
1
 10
14.165274
 20
182.878349
 11
14.165274
 21
185.620537
  0
LINE
  8
0
  6
CONTINUOUS
 62
1
 10
13.152774
 20
180.051787
 11
10.621524
 21
182.372099
  0
LINE
  8
0
  6
CONTINUOUS
 62
1
 10
22.771524
 20
171.234599
 11
18.813570
 21
174.862724
  0
LINE
  8
0
  6
CONTINUOUS
 62
1
 10
16.696524
 20
176.803349
 11
14.165274
 21
179.123662
  0
LINE
  8
0
  6
CONTINUOUS
 62
1
 10
18.813570
 20
189.881474
 11
22.771524
 21
193.509599
  0
LINE
  8
0
  6
CONTINUOUS
 62
1
 10
10.621524
 20
182.372099
 11
13.152774
 21
184.692412
  0
LINE
  8
0
  6
CONTINUOUS
 62
1
 10
14.165274
 20
185.620537
 11
16.696524
 21
187.940849
  0
LINE
  8
0
  6
CONTINUOUS
 62
1
 10
22.771524
 20
174.862724
 11
22.771524
 21
171.234599
  0
LINE
  8
0
  6
CONTINUOUS
 62
1
 10
22.771524
 20
181.865849
 11
22.771524
 21
175.875224
  0
LINE
  8
0
  6
CONTINUOUS
 62
1
 10
22.771524
 20
193.509599
 11
22.771524
 21
189.881474
  0
LINE
  8
0
  6
CONTINUOUS
 62
1
 10
22.771524
 20
188.868974
 11
22.771524
 21
182.878349
  0
LINE
  8
0
  6
CONTINUOUS
 62
1
 10
22.771524
 20
181.865849
 11
17.709024
 21
181.865849
  0
LINE
  8
0
  6
CONTINUOUS
 62
1
 10
16.696524
 20
181.865849
 11
14.165274
 21
181.865849
  0
LINE
  8
0
  6
CONTINUOUS
 62
1
 10
22.771524
 20
182.878349
 11
17.709024
 21
182.878349
  0
LINE
  8
0
  6
CONTINUOUS
 62
1
 10
16.696524
 20
182.878349
 11
14.165274
 21
182.878349
  0
LINE
  8
0
  6
CONTINUOUS
 62
1
 10
16.696524
 20
187.940849
 11
16.696524
 21
182.878349
  0
LINE
  8
0
  6
CONTINUOUS
 62
1
 10
16.696524
 20
181.865849
 11
16.696524
 21
176.803349
  0
LINE
  8
0
  6
CONTINUOUS
 62
1
 10
17.709024
 20
175.875224
 11
17.709024
 21
181.865849
  0
LINE
  8
0
  6
CONTINUOUS
 62
1
 10
17.709024
 20
182.878349
 11
17.709024
 21
188.868974
  0
LINE
  8
0
  6
CONTINUOUS
 62
1
 10
12.950274
 20
180.237412
 11
12.950274
 21
184.506787
  0
LINE
  8
0
  6
CONTINUOUS
 62
1
 10
12.747774
 20
184.321162
 11
12.747774
 21
180.423037
  0
LINE
  8
0
  6
CONTINUOUS
 62
1
 10
12.545274
 20
180.608662
 11
12.545274
 21
184.135537
  0
LINE
  8
0
  6
CONTINUOUS
 62
1
 10
12.342774
 20
183.949912
 11
12.342774
 21
180.794287
  0
LINE
  8
0
  6
CONTINUOUS
 62
1
 10
12.140274
 20
180.979912
 11
12.140274
 21
183.764287
  0
LINE
  8
0
  6
CONTINUOUS
 62
1
 10
11.937774
 20
183.578662
 11
11.937774
 21
181.165537
  0
LINE
  8
0
  6
CONTINUOUS
 62
1
 10
11.735274
 20
181.351162
 11
11.735274
 21
183.393037
  0
LINE
  8
0
  6
CONTINUOUS
 62
1
 10
11.532774
 20
183.207412
 11
11.532774
 21
181.536787
  0
LINE
  8
0
  6
CONTINUOUS
 62
1
 10
11.330274
 20
181.722412
 11
11.330274
 21
183.021787
  0
LINE
  8
0
  6
CONTINUOUS
 62
1
 10
11.127774
 20
182.836162
 11
11.127774
 21
181.908037
  0
LINE
  8
0
  6
CONTINUOUS
 62
1
 10
10.925274
 20
182.093662
 11
10.925274
 21
182.650537
  0
LINE
  8
0
  6
CONTINUOUS
 62
1
 10
10.722774
 20
182.464912
 11
10.722774
 21
182.279287
  0
LINE
  8
0
  6
CONTINUOUS
 62
1
 10
22.366524
 20
175.875224
 11
22.366524
 21
181.865849
  0
LINE
  8
0
  6
CONTINUOUS
 62
1
 10
21.961524
 20
181.865849
 11
21.961524
 21
175.875224
  0
LINE
  8
0
  6
CONTINUOUS
 62
1
 10
21.556524
 20
175.875224
 11
21.556524
 21
181.865849
  0
LINE
  8
0
  6
CONTINUOUS
 62
1
 10
21.151524
 20
181.865849
 11
21.151524
 21
175.875224
  0
LINE
  8
0
  6
CONTINUOUS
 62
1
 10
20.746524
 20
175.875224
 11
20.746524
 21
181.865849
  0
LINE
  8
0
  6
CONTINUOUS
 62
1
 10
20.341524
 20
181.865849
 11
20.341524
 21
175.875224
  0
LINE
  8
0
  6
CONTINUOUS
 62
1
 10
19.936524
 20
175.875224
 11
19.936524
 21
181.865849
  0
LINE
  8
0
  6
CONTINUOUS
 62
1
 10
19.531524
 20
181.865849
 11
19.531524
 21
175.875224
  0
LINE
  8
0
  6
CONTINUOUS
 62
1
 10
19.126524
 20
175.875224
 11
19.126524
 21
181.865849
  0
LINE
  8
0
  6
CONTINUOUS
 62
1
 10
18.721524
 20
181.865849
 11
18.721524
 21
175.875224
  0
LINE
  8
0
  6
CONTINUOUS
 62
1
 10
18.316524
 20
175.875224
 11
18.316524
 21
181.865849
  0
LINE
  8
0
  6
CONTINUOUS
 62
1
 10
17.911524
 20
181.865849
 11
17.911524
 21
175.875224
  0
LINE
  8
0
  6
CONTINUOUS
 62
1
 10
22.366524
 20
182.878349
 11
22.366524
 21
188.868974
  0
LINE
  8
0
  6
CONTINUOUS
 62
1
 10
21.961524
 20
188.868974
 11
21.961524
 21
182.878349
  0
LINE
  8
0
  6
CONTINUOUS
 62
1
 10
21.556524
 20
182.878349
 11
21.556524
 21
188.868974
  0
LINE
  8
0
  6
CONTINUOUS
 62
1
 10
21.151524
 20
188.868974
 11
21.151524
 21
182.878349
  0
LINE
  8
0
  6
CONTINUOUS
 62
1
 10
21.151524
 20
188.868974
 11
21.151524
 21
182.878349
  0
LINE
  8
0
  6
CONTINUOUS
 62
1
 10
20.746524
 20
182.878349
 11
20.746524
 21
188.868974
  0
LINE
  8
0
  6
CONTINUOUS
 62
1
 10
20.341524
 20
188.868974
 11
20.341524
 21
182.878349
  0
LINE
  8
0
  6
CONTINUOUS
 62
1
 10
19.936524
 20
182.878349
 11
19.936524
 21
188.868974
  0
LINE
  8
0
  6
CONTINUOUS
 62
1
 10
19.531524
 20
188.868974
 11
19.531524
 21
182.878349
  0
LINE
  8
0
  6
CONTINUOUS
 62
1
 10
19.126524
 20
182.878349
 11
19.126524
 21
188.868974
  0
LINE
  8
0
  6
CONTINUOUS
 62
1
 10
18.721524
 20
188.868974
 11
18.721524
 21
182.878349
  0
LINE
  8
0
  6
CONTINUOUS
 62
1
 10
18.316524
 20
182.878349
 11
18.316524
 21
188.868974
  0
LINE
  8
0
  6
CONTINUOUS
 62
1
 10
17.911524
 20
188.868974
 11
17.911524
 21
182.878349
  0
LINE
  8
0
  6
CONTINUOUS
 62
1
 10
16.291524
 20
182.878349
 11
16.291524
 21
187.569599
  0
LINE
  8
0
  6
CONTINUOUS
 62
1
 10
15.886524
 20
187.198349
 11
15.886524
 21
182.878349
  0
LINE
  8
0
  6
CONTINUOUS
 62
1
 10
15.481524
 20
182.878349
 11
15.481524
 21
186.827099
  0
LINE
  8
0
  6
CONTINUOUS
 62
1
 10
15.076524
 20
186.455849
 11
15.076524
 21
182.878349
  0
LINE
  8
0
  6
CONTINUOUS
 62
1
 10
14.671524
 20
182.878349
 11
14.671524
 21
186.084599
  0
LINE
  8
0
  6
CONTINUOUS
 62
1
 10
14.266524
 20
185.713349
 11
14.266524
 21
182.878349
  0
LINE
  8
0
  6
CONTINUOUS
 62
1
 10
16.291524
 20
177.174599
 11
16.291524
 21
181.865849
  0
LINE
  8
0
  6
CONTINUOUS
 62
1
 10
15.886524
 20
181.865849
 11
15.886524
 21
177.545849
  0
LINE
  8
0
  6
CONTINUOUS
 62
1
 10
15.481524
 20
177.917099
 11
15.481524
 21
181.865849
  0
LINE
  8
0
  6
CONTINUOUS
 62
1
 10
15.076524
 20
181.865849
 11
15.076524
 21
178.288349
  0
LINE
  8
0
  6
CONTINUOUS
 62
1
 10
14.671524
 20
178.659599
 11
14.671524
 21
181.865849
  0
LINE
  8
0
  6
CONTINUOUS
 62
1
 10
14.266524
 20
181.865849
 11
14.266524
 21
179.030849
  0
LINE
  8
0
  6
CONTINUOUS
 62
1
 10
22.366524
 20
171.605849
 11
22.366524
 21
174.862724
  0
LINE
  8
0
  6
CONTINUOUS
 62
1
 10
21.961524
 20
174.862724
 11
21.961524
 21
171.977099
  0
LINE
  8
0
  6
CONTINUOUS
 62
1
 10
21.556524
 20
172.348349
 11
21.556524
 21
174.862724
  0
LINE
  8
0
  6
CONTINUOUS
 62
1
 10
21.151524
 20
174.862724
 11
21.151524
 21
172.719599
  0
LINE
  8
0
  6
CONTINUOUS
 62
1
 10
20.746524
 20
173.090849
 11
20.746524
 21
174.862724
  0
LINE
  8
0
  6
CONTINUOUS
 62
1
 10
20.341524
 20
174.862724
 11
20.341524
 21
173.462099
  0
LINE
  8
0
  6
CONTINUOUS
 62
1
 10
19.936524
 20
173.833349
 11
19.936524
 21
174.862724
  0
LINE
  8
0
  6
CONTINUOUS
 62
1
 10
19.531524
 20
174.862724
 11
19.531524
 21
174.204599
  0
LINE
  8
0
  6
CONTINUOUS
 62
1
 10
19.126524
 20
174.575849
 11
19.126524
 21
174.862724
  0
LINE
  8
0
  6
CONTINUOUS
 62
1
 10
22.366524
 20
189.881474
 11
22.366524
 21
193.138349
  0
LINE
  8
0
  6
CONTINUOUS
 62
1
 10
21.961524
 20
192.767099
 11
21.961524
 21
189.881474
  0
LINE
  8
0
  6
CONTINUOUS
 62
1
 10
21.556524
 20
189.881474
 11
21.556524
 21
192.395849
  0
LINE
  8
0
  6
CONTINUOUS
 62
1
 10
21.151524
 20
192.024599
 11
21.151524
 21
189.881474
  0
LINE
  8
0
  6
CONTINUOUS
 62
1
 10
20.746524
 20
189.881474
 11
20.746524
 21
191.653349
  0
LINE
  8
0
  6
CONTINUOUS
 62
1
 10
20.341524
 20
191.282099
 11
20.341524
 21
189.881474
  0
LINE
  8
0
  6
CONTINUOUS
 62
1
 10
19.936524
 20
189.881474
 11
19.936524
 21
190.910849
  0
LINE
  8
0
  6
CONTINUOUS
 62
1
 10
19.531524
 20
190.539599
 11
19.531524
 21
189.881474
  0
LINE
  8
0
  6
CONTINUOUS
 62
1
 10
19.126524
 20
189.881474
 11
19.126524
 21
190.168349
  0
LINE
  8
0
  6
CONTINUOUS
 62
1
 10
22.569024
 20
175.875224
 11
22.569024
 21
181.865849
  0
LINE
  8
0
  6
CONTINUOUS
 62
1
 10
22.164024
 20
181.865849
 11
22.164024
 21
175.875224
  0
LINE
  8
0
  6
CONTINUOUS
 62
1
 10
21.759024
 20
181.865849
 11
21.759024
 21
175.875224
  0
LINE
  8
0
  6
CONTINUOUS
 62
1
 10
21.354024
 20
175.875224
 11
21.354024
 21
181.865849
  0
LINE
  8
0
  6
CONTINUOUS
 62
1
 10
19.329024
 20
175.875224
 11
19.329024
 21
181.865849
  0
LINE
  8
0
  6
CONTINUOUS
 62
1
 10
18.924024
 20
181.865849
 11
18.924024
 21
175.875224
  0
LINE
  8
0
  6
CONTINUOUS
 62
1
 10
18.519024
 20
175.875224
 11
18.519024
 21
181.865849
  0
LINE
  8
0
  6
CONTINUOUS
 62
1
 10
18.114024
 20
181.865849
 11
18.114024
 21
175.875224
  0
LINE
  8
0
  6
CONTINUOUS
 62
1
 10
19.734024
 20
181.865849
 11
19.734024
 21
175.875224
  0
LINE
  8
0
  6
CONTINUOUS
 62
1
 10
20.139024
 20
175.875224
 11
20.139024
 21
181.865849
  0
LINE
  8
0
  6
CONTINUOUS
 62
1
 10
20.544024
 20
181.865849
 11
20.544024
 21
175.875224
  0
LINE
  8
0
  6
CONTINUOUS
 62
1
 10
20.949024
 20
175.875224
 11
20.949024
 21
181.865849
  0
LINE
  8
0
  6
CONTINUOUS
 62
1
 10
22.569024
 20
182.878349
 11
22.569024
 21
188.868974
  0
LINE
  8
0
  6
CONTINUOUS
 62
1
 10
22.164024
 20
188.868974
 11
22.164024
 21
182.878349
  0
LINE
  8
0
  6
CONTINUOUS
 62
1
 10
18.114024
 20
182.878349
 11
18.114024
 21
188.868974
  0
LINE
  8
0
  6
CONTINUOUS
 62
1
 10
18.519024
 20
188.868974
 11
18.519024
 21
182.878349
  0
LINE
  8
0
  6
CONTINUOUS
 62
1
 10
18.924024
 20
188.868974
 11
18.924024
 21
182.878349
  0
LINE
  8
0
  6
CONTINUOUS
 62
1
 10
19.329024
 20
182.878349
 11
19.329024
 21
188.868974
  0
LINE
  8
0
  6
CONTINUOUS
 62
1
 10
19.734024
 20
182.878349
 11
19.734024
 21
188.868974
  0
LINE
  8
0
  6
CONTINUOUS
 62
1
 10
20.139024
 20
182.878349
 11
20.139024
 21
188.868974
  0
LINE
  8
0
  6
CONTINUOUS
 62
1
 10
20.544024
 20
182.878349
 11
20.544024
 21
188.868974
  0
LINE
  8
0
  6
CONTINUOUS
 62
1
 10
20.949024
 20
188.868974
 11
20.949024
 21
182.878349
  0
LINE
  8
0
  6
CONTINUOUS
 62
1
 10
21.354024
 20
188.868974
 11
21.354024
 21
182.878349
  0
LINE
  8
0
  6
CONTINUOUS
 62
1
 10
21.759024
 20
182.878349
 11
21.759024
 21
188.868974
  0
LINE
  8
0
  6
CONTINUOUS
 62
1
 10
22.569024
 20
189.881474
 11
22.569024
 21
193.323974
  0
LINE
  8
0
  6
CONTINUOUS
 62
1
 10
22.164024
 20
192.952724
 11
22.164024
 21
189.881474
  0
LINE
  8
0
  6
CONTINUOUS
 62
1
 10
21.759024
 20
189.881474
 11
21.759024
 21
192.581474
  0
LINE
  8
0
  6
CONTINUOUS
 62
1
 10
21.354024
 20
192.210224
 11
21.354024
 21
189.881474
  0
LINE
  8
0
  6
CONTINUOUS
 62
1
 10
20.949024
 20
189.881474
 11
20.949024
 21
191.838974
  0
LINE
  8
0
  6
CONTINUOUS
 62
1
 10
20.544024
 20
191.467724
 11
20.544024
 21
189.881474
  0
LINE
  8
0
  6
CONTINUOUS
 62
1
 10
20.139024
 20
191.096474
 11
20.139024
 21
189.881474
  0
LINE
  8
0
  6
CONTINUOUS
 62
1
 10
19.734024
 20
190.725224
 11
19.734024
 21
189.881474
  0
LINE
  8
0
  6
CONTINUOUS
 62
1
 10
19.329024
 20
189.881474
 11
19.329024
 21
190.353974
  0
LINE
  8
0
  6
CONTINUOUS
 62
1
 10
18.924024
 20
189.982724
 11
18.924024
 21
189.881474
  0
LINE
  8
0
  6
CONTINUOUS
 62
1
 10
22.569024
 20
171.420224
 11
22.569024
 21
174.862724
  0
LINE
  8
0
  6
CONTINUOUS
 62
1
 10
22.164024
 20
174.862724
 11
22.164024
 21
171.791474
  0
LINE
  8
0
  6
CONTINUOUS
 62
1
 10
21.759024
 20
172.162724
 11
21.759024
 21
174.862724
  0
LINE
  8
0
  6
CONTINUOUS
 62
1
 10
21.354024
 20
174.862724
 11
21.354024
 21
172.533974
  0
LINE
  8
0
  6
CONTINUOUS
 62
1
 10
20.949024
 20
172.905224
 11
20.949024
 21
174.862724
  0
LINE
  8
0
  6
CONTINUOUS
 62
1
 10
20.544024
 20
174.862724
 11
20.544024
 21
173.276474
  0
LINE
  8
0
  6
CONTINUOUS
 62
1
 10
20.139024
 20
173.647724
 11
20.139024
 21
174.862724
  0
LINE
  8
0
  6
CONTINUOUS
 62
1
 10
19.734024
 20
174.862724
 11
19.734024
 21
174.018974
  0
LINE
  8
0
  6
CONTINUOUS
 62
1
 10
19.329024
 20
174.390224
 11
19.329024
 21
174.862724
  0
LINE
  8
0
  6
CONTINUOUS
 62
1
 10
18.924024
 20
174.862724
 11
18.924024
 21
174.761474
  0
LINE
  8
0
  6
CONTINUOUS
 62
1
 10
16.494024
 20
182.878349
 11
16.494024
 21
187.755224
  0
LINE
  8
0
  6
CONTINUOUS
 62
1
 10
16.089024
 20
187.383974
 11
16.089024
 21
182.878349
  0
LINE
  8
0
  6
CONTINUOUS
 62
1
 10
15.684024
 20
182.878349
 11
15.684024
 21
187.012724
  0
LINE
  8
0
  6
CONTINUOUS
 62
1
 10
15.279024
 20
186.641474
 11
15.279024
 21
182.878349
  0
LINE
  8
0
  6
CONTINUOUS
 62
1
 10
14.874024
 20
182.878349
 11
14.874024
 21
186.270224
  0
LINE
  8
0
  6
CONTINUOUS
 62
1
 10
14.469024
 20
185.898974
 11
14.469024
 21
182.878349
  0
LINE
  8
0
  6
CONTINUOUS
 62
1
 10
14.469024
 20
181.865849
 11
14.469024
 21
178.845224
  0
LINE
  8
0
  6
CONTINUOUS
 62
1
 10
14.874024
 20
178.473974
 11
14.874024
 21
181.865849
  0
LINE
  8
0
  6
CONTINUOUS
 62
1
 10
15.279024
 20
181.865849
 11
15.279024
 21
178.102724
  0
LINE
  8
0
  6
CONTINUOUS
 62
1
 10
15.684024
 20
177.731474
 11
15.684024
 21
181.865849
  0
LINE
  8
0
  6
CONTINUOUS
 62
1
 10
16.089024
 20
181.865849
 11
16.089024
 21
177.360224
  0
LINE
  8
0
  6
CONTINUOUS
 62
1
 10
16.494024
 20
176.988974
 11
16.494024
 21
181.865849
  0
LINE
  8
0
  6
CONTINUOUS
 62
1
 10
33.571524
 20
198.957126
 11
33.571524
 21
165.787045
  0
LINE
  8
0
  6
CONTINUOUS
 62
1
 10
24.796524
 20
165.787045
 11
24.796524
 21
198.957126
  0
ARC
  8
0
  6
CONTINUOUS
 62
1
 10
27.461923
 20
168.074104
 40
1.075798
 50
101.065051
 51
132.065051
  0
ARC
  8
0
  6
CONTINUOUS
 62
1
 10
27.572266
 20
168.135782
 40
1.110793
 50
138.434949
 51
168.434949
  0
ARC
  8
0
  6
CONTINUOUS
 62
1
 10
28.788962
 20
167.972760
 40
2.336988
 50
170.500000
 51
189.499999
  0
ARC
  8
0
  6
CONTINUOUS
 62
1
 10
28.208722
 20
167.511743
 40
1.726341
 50
177.500000
 51
272.499999
  0
LINE
  8
0
  6
CONTINUOUS
 62
1
 10
28.284024
 20
165.787045
 11
29.826881
 21
165.787045
  0
ARC
  8
0
  6
CONTINUOUS
 62
1
 10
29.701546
 20
168.734479
 40
2.950098
 50
272.434949
 51
304.434949
  0
ARC
  8
0
  6
CONTINUOUS
 62
1
 10
30.617539
 20
167.320288
 40
1.266522
 50
306.434949
 51
0.434948
  0
LINE
  8
0
  6
CONTINUOUS
 62
1
 10
31.884024
 20
167.329902
 11
31.884024
 21
167.844188
  0
ARC
  8
0
  6
CONTINUOUS
 62
1
 10
30.643121
 20
167.905751
 40
1.242430
 50
357.159808
 51
80.159810
  0
LINE
  8
0
  6
CONTINUOUS
 62
1
 10
31.884024
 20
170.415617
 11
26.484024
 21
170.415617
  0
LINE
  8
0
  6
CONTINUOUS
 62
1
 10
26.484024
 20
170.415617
 11
26.484024
 21
172.729902
  0
ARC
  8
0
  6
CONTINUOUS
 62
1
 10
27.512596
 20
172.729902
 40
1.028571
 50
90.000000
 51
180.000000
  0
ARC
  8
0
  6
CONTINUOUS
 62
1
 10
27.512596
 20
172.472760
 40
1.285714
 50
0.000001
 51
90.000000
  0
LINE
  8
0
  6
CONTINUOUS
 62
1
 10
28.798310
 20
172.472760
 11
28.798310
 21
170.158474
  0
LINE
  8
0
  6
CONTINUOUS
 62
1
 10
28.798310
 20
171.958474
 11
31.884024
 21
173.758474
  0
LINE
  8
0
  6
CONTINUOUS
 62
1
 10
31.884024
 20
175.044188
 11
26.484024
 21
175.044188
  0
LINE
  8
0
  6
CONTINUOUS
 62
1
 10
26.484024
 20
178.129902
 11
31.884024
 21
178.129902
  0
LINE
  8
0
  6
CONTINUOUS
 62
1
 10
26.484024
 20
176.329902
 11
26.484024
 21
179.929902
  0
LINE
  8
0
  6
CONTINUOUS
 62
1
 10
26.484024
 20
183.015617
 11
31.884024
 21
183.015617
  0
LINE
  8
0
  6
CONTINUOUS
 62
1
 10
26.484024
 20
181.215617
 11
26.484024
 21
184.815617
  0
LINE
  8
0
  6
CONTINUOUS
 62
1
 10
31.884024
 20
186.101331
 11
26.484024
 21
188.158474
  0
LINE
  8
0
  6
CONTINUOUS
 62
1
 10
26.484024
 20
188.158474
 11
31.884024
 21
190.215617
  0
LINE
  8
0
  6
CONTINUOUS
 62
1
 10
30.084024
 20
186.872760
 11
30.084024
 21
189.701331
  0
LINE
  8
0
  6
CONTINUOUS
 62
1
 10
31.884024
 20
191.501331
 11
26.484024
 21
191.501331
  0
LINE
  8
0
  6
CONTINUOUS
 62
1
 10
31.884024
 20
191.501331
 11
31.884024
 21
194.587045
  0
LINE
  8
0
  6
CONTINUOUS
 62
1
 10
31.884024
 20
195.872760
 11
26.484024
 21
195.872760
  0
LINE
  8
0
  6
CONTINUOUS
 62
1
 10
31.884024
 20
195.872760
 11
31.884024
 21
198.958474
  0
LINE
  8
0
  6
CONTINUOUS
 62
1
 10
260.875000
 20
194.750000
 11
259.000000
 21
194.750000
  0
ARC
  8
0
  6
CONTINUOUS
 62
1
 10
254.625723
 20
194.428881
 40
4.386048
 50
4.198591
 51
42.198592
  0
ARC
  8
0
  6
CONTINUOUS
 62
1
 10
254.692799
 20
193.436889
 40
5.063114
 50
51.059965
 51
90.059967
  0
ARC
  8
0
  6
CONTINUOUS
 62
1
 10
254.579736
 20
194.224870
 40
4.276488
 50
88.556045
 51
132.556044
  0
ARC
  8
0
  6
CONTINUOUS
 62
1
 10
253.273673
 20
195.942506
 40
2.137285
 50
137.914383
 51
213.914386
  0
ARC
  8
0
  6
CONTINUOUS
 62
1
 10
254.168697
 20
197.072828
 40
3.538004
 50
221.036243
 51
257.036244
  0
LINE
  8
0
  6
CONTINUOUS
 62
1
 10
253.375000
 20
193.625000
 11
256.750000
 21
192.687500
  0
ARC
  8
0
  6
CONTINUOUS
 62
1
 10
255.816959
 20
187.982879
 40
4.796251
 50
30.782407
 51
78.782407
  0
ARC
  8
0
  6
CONTINUOUS
 62
1
 10
256.367410
 20
188.900759
 40
3.886787
 50
325.289408
 51
23.289407
  0
ARC
  8
0
  6
CONTINUOUS
 62
1
 10
255.630344
 20
189.864312
 40
5.055095
 50
272.065052
 51
321.065051
  0
ARC
  8
0
  6
CONTINUOUS
 62
1
 10
254.979959
 20
191.370312
 40
6.610448
 50
238.235225
 51
277.235226
  0
ARC
  8
0
  6
CONTINUOUS
 62
1
 10
253.984249
 20
189.332171
 40
4.359294
 50
180.258542
 51
235.258541
  0
LINE
  8
0
  6
CONTINUOUS
 62
1
 10
249.625000
 20
189.312500
 11
251.500000
 21
189.312500
  0
ARC
  8
0
  6
CONTINUOUS
 62
1
 10
254.743573
 20
189.696772
 40
3.266256
 50
186.756437
 51
233.756439
  0
ARC
  8
0
  6
CONTINUOUS
 62
1
 10
255.189611
 20
192.048557
 40
5.523714
 50
244.510447
 51
290.510447
  0
ARC
  8
0
  6
CONTINUOUS
 62
1
 10
256.167150
 20
188.760175
 40
2.114560
 50
296.934949
 51
9.934947
  0
ARC
  8
0
  6
CONTINUOUS
 62
1
 10
256.345101
 20
188.720101
 40
1.947455
 50
12.000000
 51
78.000002
  0
LINE
  8
0
  6
CONTINUOUS
 62
1
 10
256.750000
 20
190.625000
 11
251.687500
 21
192.125000
  0
ARC
  8
0
  6
CONTINUOUS
 62
1
 10
253.113522
 20
195.823385
 40
3.963785
 50
192.914382
 51
248.914383
  0
ARC
  8
0
  6
CONTINUOUS
 62
1
 10
253.532236
 20
195.697588
 40
4.349170
 50
133.065052
 51
190.065051
  0
ARC
  8
0
  6
CONTINUOUS
 62
1
 10
254.380220
 20
194.014843
 40
6.180300
 50
87.150123
 51
128.150124
  0
ARC
  8
0
  6
CONTINUOUS
 62
1
 10
255.018733
 20
192.924917
 40
7.270132
 50
63.611341
 51
92.611342
  0
ARC
  8
0
  6
CONTINUOUS
 62
1
 10
255.661845
 20
194.909383
 40
5.215591
 50
358.248827
 51
60.248826
  0
LINE
  8
0
  6
CONTINUOUS
 62
1
 10
240.062500
 20
200.000000
 11
242.125000
 21
200.000000
  0
LINE
  8
0
  6
CONTINUOUS
 62
1
 10
242.125000
 20
200.000000
 11
242.125000
 21
193.250000
  0
LINE
  8
0
  6
CONTINUOUS
 62
1
 10
242.125000
 20
193.250000
 11
242.125000
 21
186.687500
  0
LINE
  8
0
  6
CONTINUOUS
 62
1
 10
242.125000
 20
186.687500
 11
247.187500
 21
186.687500
  0
LINE
  8
0
  6
CONTINUOUS
 62
1
 10
247.187500
 20
186.687500
 11
247.187500
 21
185.000000
  0
LINE
  8
0
  6
CONTINUOUS
 62
1
 10
247.187500
 20
185.000000
 11
241.000000
 21
185.000000
  0
LINE
  8
0
  6
CONTINUOUS
 62
1
 10
241.000000
 20
185.000000
 11
235.187500
 21
185.000000
  0
LINE
  8
0
  6
CONTINUOUS
 62
1
 10
235.187500
 20
185.000000
 11
235.187500
 21
186.687500
  0
LINE
  8
0
  6
CONTINUOUS
 62
1
 10
235.187500
 20
186.687500
 11
240.062500
 21
186.687500
  0
LINE
  8
0
  6
CONTINUOUS
 62
1
 10
240.062500
 20
186.687500
 11
240.062500
 21
193.625000
  0
LINE
  8
0
  6
CONTINUOUS
 62
1
 10
240.062500
 20
193.625000
 11
240.062500
 21
200.000000
  0
LINE
  8
0
  6
CONTINUOUS
 62
1
 10
232.562500
 20
191.937500
 11
232.562500
 21
185.000000
  0
LINE
  8
0
  6
CONTINUOUS
 62
1
 10
232.562500
 20
185.000000
 11
221.875000
 21
185.000000
  0
LINE
  8
0
  6
CONTINUOUS
 62
1
 10
221.875000
 20
185.000000
 11
221.875000
 21
186.687500
  0
LINE
  8
0
  6
CONTINUOUS
 62
1
 10
221.875000
 20
186.687500
 11
230.500000
 21
186.687500
  0
LINE
  8
0
  6
CONTINUOUS
 62
1
 10
230.500000
 20
186.687500
 11
230.500000
 21
191.375000
  0
LINE
  8
0
  6
CONTINUOUS
 62
1
 10
230.500000
 20
191.375000
 11
222.437500
 21
191.375000
  0
LINE
  8
0
  6
CONTINUOUS
 62
1
 10
222.437500
 20
191.375000
 11
222.437500
 21
193.062500
  0
LINE
  8
0
  6
CONTINUOUS
 62
1
 10
222.437500
 20
193.062500
 11
230.500000
 21
193.062500
  0
LINE
  8
0
  6
CONTINUOUS
 62
1
 10
230.500000
 20
193.062500
 11
230.500000
 21
198.312500
  0
LINE
  8
0
  6
CONTINUOUS
 62
1
 10
230.500000
 20
198.312500
 11
221.312500
 21
198.312500
  0
LINE
  8
0
  6
CONTINUOUS
 62
1
 10
221.312500
 20
198.312500
 11
221.312500
 21
200.000000
  0
LINE
  8
0
  6
CONTINUOUS
 62
1
 10
221.312500
 20
200.000000
 11
232.562500
 21
200.000000
  0
LINE
  8
0
  6
CONTINUOUS
 62
1
 10
232.562500
 20
200.000000
 11
232.562500
 21
191.937500
  0
LINE
  8
0
  6
CONTINUOUS
 62
1
 10
218.125000
 20
191.937500
 11
218.125000
 21
185.000000
  0
LINE
  8
0
  6
CONTINUOUS
 62
1
 10
218.125000
 20
185.000000
 11
207.437500
 21
185.000000
  0
LINE
  8
0
  6
CONTINUOUS
 62
1
 10
207.437500
 20
185.000000
 11
207.437500
 21
186.687500
  0
LINE
  8
0
  6
CONTINUOUS
 62
1
 10
207.437500
 20
186.687500
 11
216.062500
 21
186.687500
  0
LINE
  8
0
  6
CONTINUOUS
 62
1
 10
216.062500
 20
186.687500
 11
216.062500
 21
191.375000
  0
LINE
  8
0
  6
CONTINUOUS
 62
1
 10
216.062500
 20
191.375000
 11
208.000000
 21
191.375000
  0
LINE
  8
0
  6
CONTINUOUS
 62
1
 10
208.000000
 20
191.375000
 11
208.000000
 21
193.062500
  0
LINE
  8
0
  6
CONTINUOUS
 62
1
 10
208.000000
 20
193.062500
 11
216.062500
 21
193.062500
  0
LINE
  8
0
  6
CONTINUOUS
 62
1
 10
216.062500
 20
193.062500
 11
216.062500
 21
198.312500
  0
LINE
  8
0
  6
CONTINUOUS
 62
1
 10
216.062500
 20
198.312500
 11
206.875000
 21
198.312500
  0
LINE
  8
0
  6
CONTINUOUS
 62
1
 10
206.875000
 20
198.312500
 11
206.875000
 21
200.000000
  0
LINE
  8
0
  6
CONTINUOUS
 62
1
 10
206.875000
 20
200.000000
 11
218.125000
 21
200.000000
  0
LINE
  8
0
  6
CONTINUOUS
 62
1
 10
218.125000
 20
200.000000
 11
218.125000
 21
191.937500
  0
LINE
  8
0
  6
CONTINUOUS
 62
1
 10
203.687500
 20
192.125000
 11
203.687500
 21
185.000000
  0
LINE
  8
0
  6
CONTINUOUS
 62
1
 10
203.687500
 20
185.000000
 11
201.625000
 21
185.000000
  0
LINE
  8
0
  6
CONTINUOUS
 62
1
 10
201.625000
 20
185.000000
 11
201.625000
 21
191.562500
  0
LINE
  8
0
  6
CONTINUOUS
 62
1
 10
201.625000
 20
191.562500
 11
201.625000
 21
198.312500
  0
LINE
  8
0
  6
CONTINUOUS
 62
1
 10
201.625000
 20
198.312500
 11
194.500000
 21
198.312500
  0
LINE
  8
0
  6
CONTINUOUS
 62
1
 10
194.500000
 20
198.312500
 11
194.500000
 21
200.000000
  0
LINE
  8
0
  6
CONTINUOUS
 62
1
 10
194.500000
 20
200.000000
 11
203.687500
 21
200.000000
  0
LINE
  8
0
  6
CONTINUOUS
 62
1
 10
203.687500
 20
200.000000
 11
203.687500
 21
192.125000
  0
TEXT
  8
0
  6
CONTINUOUS
 62
1
 10
20.000000
 20
20.843750
 40
6.000000
  1
Corporate C2000 Windows
 50
90.000000
 41
1.000000
 51
0.000000
  7
STANDARD
  0
TEXT
  8
0
  6
CONTINUOUS
 62
1
 10
277.476378
 20
19.947503
 40
2.000000
  1
This drawing is the property of Crittall Windows Ltd and is a
 50
90.000000
 41
1.000000
 51
0.000000
  7
STANDARD
  0
TEXT
  8
0
  6
CONTINUOUS
 62
1
 10
281.476378
 20
19.947503
 40
2.000000
  1
confidential document and must not be copied or its contents
 50
90.000000
 41
1.000000
 51
0.000000
  7
STANDARD
  0
TEXT
  8
0
  6
CONTINUOUS
 62
1
 10
285.476378
 20
19.947503
 40
2.000000
  1
divulged without prior consent.
 50
90.000000
 41
1.000000
 51
0.000000
  7
STANDARD
  0
TEXT
  8
0
  6
CONTINUOUS
 62
1
 10
71.412566
 20
85.206078
 40
2.000000
  1
SETTING BLOCK
 50
90.000000
 41
1.000000
 51
0.000000
  7
STANDARD
  0
TEXT
  8
0
  6
CONTINUOUS
 62
1
 10
75.412566
 20
85.206078
 40
2.000000
  1
BY GLAZIER
 50
90.000000
 41
1.000000
 51
0.000000
  7
STANDARD
  0
TEXT
  8
0
  6
CONTINUOUS
 62
1
 10
101.685510
 20
87.846290
 40
2.000000
  1
TREMLOC 500
 50
90.000000
 41
1.000000
 51
0.000000
  7
STANDARD
  0
TEXT
  8
0
  6
CONTINUOUS
 62
1
 10
105.685510
 20
87.846290
 40
2.000000
  1
GLAZING TAPE
 50
90.000000
 41
1.000000
 51
0.000000
  7
STANDARD
  0
TEXT
  8
0
  6
CONTINUOUS
 62
1
 10
80.071674
 20
162.958053
 40
2.000000
  1
GLAZING BEAD
 50
90.000000
 41
1.000000
 51
0.000000
  7
STANDARD
  0
TEXT
  8
0
  6
CONTINUOUS
 62
1
 10
84.071674
 20
162.958053
 40
2.000000
  1
TYPICAL
 50
90.000000
 41
1.000000
 51
0.000000
  7
STANDARD
  0
TEXT
  8
0
  6
CONTINUOUS
 62
1
 10
93.341333
 20
162.958053
 40
2.000000
  1
VISION STRIP
 50
90.000000
 41
1.000000
 51
0.000000
  7
STANDARD
  0
TEXT
  8
0
  6
CONTINUOUS
 62
1
 10
97.341333
 20
162.958053
 40
2.000000
  1
TYPICAL
 50
90.000000
 41
1.000000
 51
0.000000
  7
STANDARD
  0
LINE
  8
0
  6
CONTINUOUS
 62
1
 10
205.836705
 20
39.820216
 11
233.073255
 21
39.820216
  0
LINE
  8
0
  6
CONTINUOUS
 62
1
 10
193.848725
 20
45.416606
 11
233.073255
 21
45.416606
  0
LINE
  8
0
  6
CONTINUOUS
 62
1
 10
233.073255
 20
46.416606
 11
193.848725
 21
46.416606
  0
LINE
  8
0
  6
CONTINUOUS
 62
1
 10
193.848725
 20
47.416606
 11
233.073255
 21
47.416606
  0
LINE
  8
0
  6
CONTINUOUS
 62
1
 10
233.073255
 20
48.416606
 11
193.848725
 21
48.416606
  0
LINE
  8
0
  6
CONTINUOUS
 62
1
 10
193.848725
 20
49.416606
 11
233.073255
 21
49.416606
  0
LINE
  8
0
  6
CONTINUOUS
 62
1
 10
193.848725
 20
51.416606
 11
193.848725
 21
45.416606
  0
LINE
  8
0
  6
CENTER
 62
1
 10
187.245645
 20
59.820197
 11
174.611128
 21
59.820197
  0
LINE
  8
0
  6
CONTINUOUS
 62
1
 10
233.073255
 20
50.416606
 11
193.848725
 21
50.416606
  0
LINE
  8
0
  6
CONTINUOUS
 62
1
 10
193.848725
 20
51.416606
 11
233.073255
 21
51.416606
  0
LINE
  8
0
  6
CONTINUOUS
 62
1
 10
180.436705
 20
57.820197
 11
181.748725
 21
57.820197
  0
LINE
  8
0
  6
CONTINUOUS
 62
1
 10
181.748725
 20
61.820197
 11
180.436705
 21
61.820197
  0
LINE
  8
0
  6
CONTINUOUS
 62
1
 10
187.245645
 20
57.820197
 11
187.245645
 21
61.820197
  0
ARC
  8
0
  6
CONTINUOUS
 62
1
 10
185.245645
 20
57.820197
 40
1.000000
 50
180.000000
 51
0.000000
  0
ARC
  8
0
  6
CONTINUOUS
 62
1
 10
185.245645
 20
61.820197
 40
1.000000
 50
0.000000
 51
180.000000
  0
LINE
  8
0
  6
CONTINUOUS
 62
1
 10
186.245645
 20
57.820197
 11
187.245645
 21
57.820197
  0
LINE
  8
0
  6
CONTINUOUS
 62
1
 10
186.245645
 20
61.820197
 11
187.245645
 21
61.820197
  0
LINE
  8
0
  6
CONTINUOUS
 62
1
 10
177.236705
 20
55.820197
 11
176.598725
 21
55.820197
  0
LINE
  8
0
  6
CONTINUOUS
 62
1
 10
177.236705
 20
63.820197
 11
176.598725
 21
63.820197
  0
ARC
  8
0
  6
CONTINUOUS
 62
1
 10
184.098725
 20
59.820197
 40
8.500000
 50
151.927513
 51
208.072487
  0
LINE
  8
0
  6
CONTINUOUS
 62
1
 10
188.498725
 20
45.613837
 11
188.498725
 21
51.416606
  0
LINE
  8
0
  6
CONTINUOUS
 62
1
 10
193.498725
 20
51.416606
 11
193.498725
 21
45.613837
  0
LINE
  8
0
  6
CONTINUOUS
 62
1
 10
193.498725
 20
45.613837
 11
188.498725
 21
45.613837
  0
LINE
  8
0
  6
CONTINUOUS
 62
1
 10
186.248725
 20
44.868835
 11
186.248725
 21
49.820197
  0
LINE
  8
0
  6
CONTINUOUS
 62
1
 10
186.248725
 20
53.320197
 11
186.248725
 21
55.070197
  0
LINE
  8
0
  6
CONTINUOUS
 62
1
 10
187.748725
 20
55.070197
 11
187.748725
 21
44.868835
  0
LINE
  8
0
  6
CONTINUOUS
 62
1
 10
187.748725
 20
70.326223
 11
187.748725
 21
64.570197
  0
LINE
  8
0
  6
CONTINUOUS
 62
1
 10
186.248725
 20
64.570197
 11
186.248725
 21
65.570197
  0
LINE
  8
0
  6
CONTINUOUS
 62
1
 10
185.248725
 20
50.820197
 11
181.748725
 21
50.820197
  0
LINE
  8
0
  6
CONTINUOUS
 62
1
 10
180.748725
 20
51.820197
 11
180.748725
 21
55.820197
  0
ARC
  8
0
  6
CONTINUOUS
 62
1
 10
181.748725
 20
51.820197
 40
1.000000
 50
180.000000
 51
270.000000
  0
LINE
  8
0
  6
CONTINUOUS
 62
1
 10
180.748725
 20
55.820197
 11
181.748725
 21
55.820197
  0
LINE
  8
0
  6
CONTINUOUS
 62
1
 10
181.748725
 20
55.820197
 11
181.748725
 21
63.820197
  0
LINE
  8
0
  6
CONTINUOUS
 62
1
 10
181.748725
 20
63.820197
 11
180.748725
 21
63.820197
  0
LINE
  8
0
  6
CONTINUOUS
 62
1
 10
184.248725
 20
65.070197
 11
184.248725
 21
60.220197
  0
LINE
  8
0
  6
CONTINUOUS
 62
1
 10
183.848725
 20
59.820197
 11
184.248725
 21
60.220197
  0
LINE
  8
0
  6
CONTINUOUS
 62
1
 10
183.848725
 20
59.820197
 11
184.248725
 21
59.420197
  0
ARC
  8
0
  6
CONTINUOUS
 62
1
 10
186.998725
 20
44.868835
 40
0.750000
 50
180.000000
 51
270.000000
  0
ARC
  8
0
  6
CONTINUOUS
 62
1
 10
186.998725
 20
44.868835
 40
0.750000
 50
270.000000
 51
0.000000
  0
ARC
  8
0
  6
CONTINUOUS
 62
1
 10
186.998725
 20
64.570197
 40
0.750000
 50
180.000000
 51
270.000000
  0
ARC
  8
0
  6
CONTINUOUS
 62
1
 10
186.998725
 20
64.570197
 40
0.750000
 50
270.000000
 51
0.000000
  0
ARC
  8
0
  6
CONTINUOUS
 62
1
 10
186.998725
 20
55.070197
 40
0.750000
 50
90.000000
 51
180.000000
  0
ARC
  8
0
  6
CONTINUOUS
 62
1
 10
186.998725
 20
55.070197
 40
0.750000
 50
0.000000
 51
90.000000
  0
LINE
  8
0
  6
CONTINUOUS
 62
1
 10
184.248725
 20
59.420197
 11
184.248725
 21
53.820197
  0
LINE
  8
0
  6
CONTINUOUS
 62
1
 10
185.248725
 20
52.320197
 11
183.748725
 21
52.320197
  0
LINE
  8
0
  6
CONTINUOUS
 62
1
 10
185.248725
 20
66.570197
 11
183.748725
 21
66.570197
  0
LINE
  8
0
  6
CONTINUOUS
 62
1
 10
183.248725
 20
52.820197
 11
183.248725
 21
53.320197
  0
LINE
  8
0
  6
CONTINUOUS
 62
1
 10
183.748725
 20
53.820197
 11
184.248725
 21
53.820197
  0
LINE
  8
0
  6
CONTINUOUS
 62
1
 10
183.248725
 20
66.070197
 11
183.248725
 21
65.570197
  0
LINE
  8
0
  6
CONTINUOUS
 62
1
 10
183.748725
 20
65.070197
 11
184.248725
 21
65.070197
  0
ARC
  8
0
  6
CONTINUOUS
 62
1
 10
183.748725
 20
65.570197
 40
0.500000
 50
180.000000
 51
270.000000
  0
ARC
  8
0
  6
CONTINUOUS
 62
1
 10
183.748725
 20
66.070197
 40
0.500000
 50
90.000000
 51
180.000000
  0
ARC
  8
0
  6
CONTINUOUS
 62
1
 10
183.748725
 20
53.320197
 40
0.500000
 50
90.000000
 51
180.000000
  0
ARC
  8
0
  6
CONTINUOUS
 62
1
 10
183.748725
 20
52.820197
 40
0.500000
 50
180.000000
 51
270.000000
  0
ARC
  8
0
  6
CONTINUOUS
 62
1
 10
185.248725
 20
49.820197
 40
1.000000
 50
0.000000
 51
90.000000
  0
ARC
  8
0
  6
CONTINUOUS
 62
1
 10
185.248725
 20
53.320197
 40
1.000000
 50
270.000000
 51
0.000000
  0
ARC
  8
0
  6
CONTINUOUS
 62
1
 10
185.248725
 20
65.570197
 40
1.000000
 50
0.000000
 51
90.000000
  0
LINE
  8
0
  6
CONTINUOUS
 62
1
 10
186.469871
 20
73.290422
 11
189.054026
 21
74.230977
  0
LINE
  8
0
  6
CONTINUOUS
 62
1
 10
189.199126
 20
74.709460
 11
189.233328
 21
74.615491
  0
ARC
  8
0
  6
CONTINUOUS
 62
1
 10
188.917218
 20
74.606854
 40
0.300000
 50
20.000000
 51
110.000000
  0
ARC
  8
0
  6
CONTINUOUS
 62
1
 10
188.951420
 20
74.512885
 40
0.300000
 50
290.000000
 51
20.000000
  0
LINE
  8
0
  6
CONTINUOUS
 62
1
 10
186.051156
 20
73.563693
 11
186.085358
 21
73.469724
  0
ARC
  8
0
  6
CONTINUOUS
 62
1
 10
186.333063
 20
73.666299
 40
0.300000
 50
110.000000
 51
200.000000
  0
ARC
  8
0
  6
CONTINUOUS
 62
1
 10
186.367265
 20
73.572330
 40
0.300000
 50
200.000000
 51
290.000000
  0
LINE
  8
0
  6
CONTINUOUS
 62
1
 10
184.198725
 20
68.070197
 11
186.048725
 21
68.070197
  0
LINE
  8
0
  6
CONTINUOUS
 62
1
 10
186.248725
 20
68.270197
 11
186.248725
 21
70.326223
  0
LINE
  8
0
  6
CONTINUOUS
 62
1
 10
183.998725
 20
68.270197
 11
183.998725
 21
74.820197
  0
LINE
  8
0
  6
CONTINUOUS
 62
1
 10
182.498725
 20
74.820197
 11
182.498725
 21
70.020197
  0
LINE
  8
0
  6
CONTINUOUS
 62
1
 10
181.748725
 20
69.820197
 11
182.298725
 21
69.820197
  0
ARC
  8
0
  6
CONTINUOUS
 62
1
 10
181.748725
 20
68.820197
 40
1.000000
 50
90.000000
 51
180.000000
  0
ARC
  8
0
  6
CONTINUOUS
 62
1
 10
183.248725
 20
74.820197
 40
0.750000
 50
90.000000
 51
180.000000
  0
ARC
  8
0
  6
CONTINUOUS
 62
1
 10
183.248725
 20
74.820197
 40
0.750000
 50
0.000000
 51
90.000000
  0
ARC
  8
0
  6
CONTINUOUS
 62
1
 10
182.298725
 20
70.020197
 40
0.200000
 50
270.000000
 51
0.000000
  0
ARC
  8
0
  6
CONTINUOUS
 62
1
 10
186.048725
 20
68.270197
 40
0.200000
 50
270.000000
 51
0.000000
  0
ARC
  8
0
  6
CONTINUOUS
 62
1
 10
184.198725
 20
68.270197
 40
0.200000
 50
180.000000
 51
270.000000
  0
LINE
  8
0
  6
CONTINUOUS
 62
1
 10
187.748725
 20
70.326223
 11
186.248725
 21
70.326223
  0
LINE
  8
0
  6
CONTINUOUS
 62
1
 10
180.748725
 20
63.820197
 11
180.748725
 21
68.820197
  0
ARC
  8
0
  6
CONTINUOUS
 62
1
 10
186.355031
 20
70.836182
 40
1.000000
 50
110.000000
 51
180.000000
  0
ARC
  8
0
  6
CONTINUOUS
 62
1
 10
189.348725
 20
78.820197
 40
0.500000
 50
180.000000
 51
270.000000
  0
ARC
  8
0
  6
CONTINUOUS
 62
1
 10
189.348725
 20
78.820197
 40
0.500000
 50
90.000000
 51
180.000000
  0
LINE
  8
0
  6
CONTINUOUS
 62
1
 10
192.415712
 20
79.320197
 11
189.348725
 21
79.320197
  0
LINE
  8
0
  6
CONTINUOUS
 62
1
 10
184.105031
 20
72.411649
 11
184.105031
 21
69.302098
  0
ARC
  8
0
  6
CONTINUOUS
 62
1
 10
185.105031
 20
69.302098
 40
1.000000
 50
180.000000
 51
270.000000
  0
ARC
  8
0
  6
CONTINUOUS
 62
1
 10
185.105031
 20
69.302098
 40
1.000000
 50
270.000000
 51
0.000000
  0
ARC
  8
0
  6
CONTINUOUS
 62
1
 10
185.105031
 20
69.302098
 40
1.000000
 50
0.000000
 51
75.522488
  0
LINE
  8
0
  6
CONTINUOUS
 62
1
 10
189.393955
 20
74.336660
 11
185.917092
 21
73.071185
  0
LINE
  8
0
  6
CONTINUOUS
 62
1
 10
190.598725
 20
74.145145
 11
190.598725
 21
77.320197
  0
LINE
  8
0
  6
CONTINUOUS
 62
1
 10
186.013011
 20
71.775875
 11
189.940745
 21
73.205453
  0
LINE
  8
0
  6
CONTINUOUS
 62
1
 10
185.355031
 20
70.270344
 11
185.355031
 21
70.836182
  0
LINE
  8
0
  6
CONTINUOUS
 62
1
 10
185.643476
 20
73.822939
 11
186.113323
 21
73.993950
  0
LINE
  8
0
  6
CONTINUOUS
 62
1
 10
188.415570
 20
74.831899
 11
189.120339
 21
75.088414
  0
LINE
  8
0
  6
CONTINUOUS
 62
1
 10
185.942313
 20
74.463796
 11
185.701315
 21
74.376080
  0
LINE
  8
0
  6
CONTINUOUS
 62
1
 10
184.105031
 20
72.411649
 11
185.224183
 21
74.009964
  0
ARC
  8
0
  6
CONTINUOUS
 62
1
 10
186.043335
 20
73.436387
 40
1.000000
 50
110.000000
 51
145.000000
  0
ARC
  8
0
  6
CONTINUOUS
 62
1
 10
186.848725
 20
78.320197
 40
2.500000
 50
320.778048
 51
0.000000
  0
LINE
  8
0
  6
CONTINUOUS
 62
1
 10
185.917092
 20
73.071185
 11
185.643476
 21
73.822939
  0
LINE
  8
0
  6
CONTINUOUS
 62
1
 10
189.120339
 20
75.088414
 11
189.393955
 21
74.336660
  0
LINE
  8
0
  6
CONTINUOUS
 62
1
 10
188.415570
 20
74.831899
 11
187.960864
 21
76.081192
  0
ARC
  8
0
  6
CONTINUOUS
 62
1
 10
186.027818
 20
74.228873
 40
0.250000
 50
290.000000
 51
20.000000
  0
ARC
  8
0
  6
CONTINUOUS
 62
1
 10
186.027818
 20
74.228873
 40
0.250000
 50
20.000000
 51
110.000000
  0
ARC
  8
0
  6
CONTINUOUS
 62
1
 10
189.598725
 20
74.145145
 40
1.000000
 50
290.000000
 51
0.000000
  0
ARC
  8
0
  6
CONTINUOUS
 62
1
 10
188.576647
 20
76.155463
 40
0.620139
 50
70.320835
 51
186.919676
  0
LINE
  8
0
  6
RANDOM
 62
1
 10
233.073255
 20
39.820216
 11
233.073255
 21
79.820216
  0
ARC
  8
0
  6
CONTINUOUS
 62
1
 10
186.242232
 20
74.057861
 40
0.100000
 50
281.950087
 51
21.322156
  0
LINE
  8
0
  6
CONTINUOUS
 62
1
 10
186.335387
 20
74.094223
 11
186.327141
 21
74.210256
  0
LINE
  8
0
  6
CONTINUOUS
 62
1
 10
186.327141
 20
74.210256
 11
186.318225
 21
74.305359
  0
LINE
  8
0
  6
CONTINUOUS
 62
1
 10
186.318225
 20
74.305359
 11
186.220150
 21
74.400462
  0
LINE
  8
0
  6
CONTINUOUS
 62
1
 10
186.230457
 20
73.948207
 11
186.262938
 21
73.960029
  0
LINE
  8
0
  6
CONTINUOUS
 62
1
 10
186.220150
 20
74.400462
 11
185.716116
 21
74.792411
  0
LINE
  8
0
  6
CONTINUOUS
 62
1
 10
185.716116
 20
74.792411
 11
185.438119
 21
75.296924
  0
LINE
  8
0
  6
CONTINUOUS
 62
1
 10
185.932336
 20
76.216348
 11
186.714846
 21
76.319310
  0
LINE
  8
0
  6
CONTINUOUS
 62
1
 10
186.714846
 20
76.319310
 11
187.580853
 21
76.341516
  0
LINE
  8
0
  6
CONTINUOUS
 62
1
 10
187.580853
 20
76.341516
 11
187.950389
 21
75.945584
  0
LINE
  8
0
  6
CONTINUOUS
 62
1
 10
187.950389
 20
75.945584
 11
188.043054
 21
75.595514
  0
LINE
  8
0
  6
CONTINUOUS
 62
1
 10
185.441723
 20
75.290384
 11
185.469007
 21
75.763316
  0
LINE
  8
0
  6
CONTINUOUS
 62
1
 10
185.469007
 20
75.763316
 11
185.633746
 21
76.000128
  0
LINE
  8
0
  6
CONTINUOUS
 62
1
 10
185.633746
 20
76.000128
 11
185.932336
 21
76.216348
  0
LINE
  8
0
  6
CONTINUOUS
 62
1
 10
186.990507
 20
74.224842
 11
188.814612
 21
74.888762
  0
LINE
  8
0
  6
CONTINUOUS
 62
1
 10
186.990507
 20
74.224842
 11
186.910474
 21
74.452637
  0
LINE
  8
0
  6
CONTINUOUS
 62
1
 10
186.910474
 20
74.452637
 11
186.797216
 21
74.627672
  0
LINE
  8
0
  6
CONTINUOUS
 62
1
 10
186.797216
 20
74.627672
 11
186.508922
 21
74.957150
  0
LINE
  8
0
  6
CONTINUOUS
 62
1
 10
186.508922
 20
74.957150
 11
186.251518
 21
75.060112
  0
LINE
  8
0
  6
CONTINUOUS
 62
1
 10
186.251518
 20
75.060112
 11
186.138259
 21
75.266036
  0
LINE
  8
0
  6
CONTINUOUS
 62
1
 10
186.138259
 20
75.266036
 11
186.076482
 21
75.461663
  0
LINE
  8
0
  6
CONTINUOUS
 62
1
 10
186.076482
 20
75.461663
 11
186.107371
 21
75.677883
  0
LINE
  8
0
  6
CONTINUOUS
 62
1
 10
186.107371
 20
75.677883
 11
186.323591
 21
75.873511
  0
LINE
  8
0
  6
CONTINUOUS
 62
1
 10
186.323591
 20
75.873511
 11
186.807512
 21
75.914696
  0
LINE
  8
0
  6
CONTINUOUS
 62
1
 10
186.807512
 20
75.914696
 11
187.291433
 21
75.842622
  0
LINE
  8
0
  6
CONTINUOUS
 62
1
 10
187.291433
 20
75.842622
 11
187.517949
 21
75.657291
  0
LINE
  8
0
  6
CONTINUOUS
 62
1
 10
187.517949
 20
75.657291
 11
187.641503
 21
75.420479
  0
LINE
  8
0
  6
CONTINUOUS
 62
1
 10
187.641503
 20
75.420479
 11
187.981277
 21
75.307220
  0
LINE
  8
0
  6
CONTINUOUS
 62
1
 10
187.981277
 20
75.307220
 11
188.043054
 21
75.595514
  0
LINE
  8
0
  6
CONTINUOUS
 62
1
 10
188.498725
 20
51.416606
 11
193.498725
 21
51.416606
  0
LINE
  8
0
  6
CONTINUOUS
 62
1
 10
193.498725
 20
45.613837
 11
188.498725
 21
51.416606
  0
LINE
  8
0
  6
CONTINUOUS
 62
1
 10
193.498725
 20
51.416606
 11
188.498725
 21
45.613837
  0
LINE
  8
0
  6
CONTINUOUS
 62
1
 10
193.065231
 20
78.945197
 11
205.848725
 21
56.803537
  0
LINE
  8
0
  6
CONTINUOUS
 62
1
 10
191.348725
 20
78.070197
 11
191.694024
 21
78.070197
  0
ARC
  8
0
  6
CONTINUOUS
 62
1
 10
191.348725
 20
77.320197
 40
0.750000
 50
90.000000
 51
180.000000
  0
ARC
  8
0
  6
CONTINUOUS
 62
1
 10
191.694024
 20
77.320197
 40
0.750000
 50
30.000000
 51
90.000000
  0
ARC
  8
0
  6
CONTINUOUS
 62
1
 10
192.415712
 20
78.570197
 40
0.750000
 50
30.000000
 51
90.000000
  0
LINE
  8
0
  6
CONTINUOUS
 62
1
 10
200.848725
 20
57.320197
 11
204.107055
 21
57.320197
  0
LINE
  8
0
  6
CONTINUOUS
 62
1
 10
203.170521
 20
58.942321
 11
192.343543
 21
77.695197
  0
ARC
  8
0
  6
CONTINUOUS
 62
1
 10
205.127037
 20
57.037506
 40
0.758667
 50
222.037430
 51
342.037430
  0
LINE
  8
0
  6
CONTINUOUS
 62
1
 10
200.848725
 20
58.320197
 11
200.848725
 21
57.320197
  0
LINE
  8
0
  6
CONTINUOUS
 62
1
 10
200.848725
 20
58.320197
 11
203.170521
 21
58.942321
  0
LINE
  8
0
  6
CONTINUOUS
 62
1
 10
204.107055
 20
57.320197
 11
204.563569
 21
56.529491
  0
LINE
  8
0
  6
CONTINUOUS
 62
1
 10
205.836705
 20
115.479052
 11
233.058976
 21
115.479052
  0
LINE
  8
0
  6
CONTINUOUS
 62
1
 10
207.078754
 20
153.661374
 11
207.930804
 21
151.198415
  0
LINE
  8
0
  6
CONTINUOUS
 62
1
 10
198.975153
 20
150.278250
 11
202.669642
 21
150.640595
  0
LINE
  8
0
  6
CONTINUOUS
 62
1
 10
198.049976
 20
151.303079
 11
197.967611
 21
150.990092
  0
LINE
  8
0
  6
CONTINUOUS
 62
1
 10
198.848252
 20
150.281999
 11
198.213746
 21
150.382335
  0
LINE
  8
0
  6
CONTINUOUS
 62
1
 10
198.213746
 20
150.382335
 11
198.083105
 21
150.524401
  0
ARC
  8
0
  6
CONTINUOUS
 62
1
 10
199.984125
 20
150.794092
 40
2.000000
 50
138.468229
 51
165.256437
  0
ARC
  8
0
  6
CONTINUOUS
 62
1
 10
198.451148
 20
150.862845
 40
0.500000
 50
165.256437
 51
222.600979
  0
ARC
  8
0
  6
CONTINUOUS
 62
1
 10
198.926348
 20
150.775862
 40
0.500000
 50
261.014065
 51
275.601489
  0
ARC
  8
0
  6
CONTINUOUS
 62
1
 10
203.060077
 20
146.659695
 40
4.000000
 50
84.003242
 51
95.601489
  0
LINE
  8
0
  6
CONTINUOUS
 62
1
 10
207.714499
 20
150.605585
 11
207.441225
 21
150.442511
  0
LINE
  8
0
  6
CONTINUOUS
 62
1
 10
206.830321
 20
150.306096
 11
203.477966
 21
150.637806
  0
ARC
  8
0
  6
CONTINUOUS
 62
1
 10
206.928788
 20
151.301236
 40
1.000000
 50
264.349063
 51
300.826301
  0
ARC
  8
0
  6
CONTINUOUS
 62
1
 10
207.458281
 20
151.034948
 40
0.500000
 50
300.826301
 51
19.082854
  0
LINE
  8
0
  6
CONTINUOUS
 62
1
 10
198.486949
 20
152.120163
 11
199.568778
 21
152.678769
  0
ARC
  8
0
  6
CONTINUOUS
 62
1
 10
200.945179
 20
150.013151
 40
3.000000
 50
102.425268
 51
117.309718
  0
LINE
  8
0
  6
CONTINUOUS
 62
1
 10
207.078754
 20
153.661374
 11
207.930804
 21
151.198415
  0
LINE
  8
0
  6
CONTINUOUS
 62
1
 10
198.975153
 20
150.278250
 11
202.669642
 21
150.640595
  0
LINE
  8
0
  6
CONTINUOUS
 62
1
 10
198.049976
 20
151.303079
 11
197.967611
 21
150.990092
  0
LINE
  8
0
  6
CONTINUOUS
 62
1
 10
198.848252
 20
150.281999
 11
198.213746
 21
150.382335
  0
LINE
  8
0
  6
CONTINUOUS
 62
1
 10
198.213746
 20
150.382335
 11
198.083105
 21
150.524401
  0
ARC
  8
0
  6
CONTINUOUS
 62
1
 10
199.984125
 20
150.794092
 40
2.000000
 50
138.468229
 51
165.256437
  0
ARC
  8
0
  6
CONTINUOUS
 62
1
 10
198.451148
 20
150.862845
 40
0.500000
 50
165.256437
 51
222.600979
  0
ARC
  8
0
  6
CONTINUOUS
 62
1
 10
198.926348
 20
150.775862
 40
0.500000
 50
261.014065
 51
275.601489
  0
ARC
  8
0
  6
CONTINUOUS
 62
1
 10
203.060077
 20
146.659695
 40
4.000000
 50
84.003242
 51
95.601489
  0
LINE
  8
0
  6
CONTINUOUS
 62
1
 10
207.714499
 20
150.605585
 11
207.441225
 21
150.442511
  0
LINE
  8
0
  6
CONTINUOUS
 62
1
 10
206.830321
 20
150.306096
 11
203.477966
 21
150.637806
  0
ARC
  8
0
  6
CONTINUOUS
 62
1
 10
206.928788
 20
151.301236
 40
1.000000
 50
264.349063
 51
300.826301
  0
ARC
  8
0
  6
CONTINUOUS
 62
1
 10
207.458281
 20
151.034948
 40
0.500000
 50
300.826301
 51
19.082854
  0
LINE
  8
0
  6
CONTINUOUS
 62
1
 10
198.486949
 20
152.120163
 11
199.568778
 21
152.678769
  0
ARC
  8
0
  6
CONTINUOUS
 62
1
 10
200.945179
 20
150.013151
 40
3.000000
 50
102.425268
 51
117.309718
  0
LINE
  8
0
  6
CONTINUOUS
 62
1
 10
207.078754
 20
153.661374
 11
207.930804
 21
151.198415
  0
LINE
  8
0
  6
CONTINUOUS
 62
1
 10
198.975153
 20
150.278250
 11
202.669642
 21
150.640595
  0
LINE
  8
0
  6
CONTINUOUS
 62
1
 10
198.049976
 20
151.303079
 11
197.967611
 21
150.990092
  0
LINE
  8
0
  6
CONTINUOUS
 62
1
 10
198.848252
 20
150.281999
 11
198.213746
 21
150.382335
  0
LINE
  8
0
  6
CONTINUOUS
 62
1
 10
198.213746
 20
150.382335
 11
198.083105
 21
150.524401
  0
ARC
  8
0
  6
CONTINUOUS
 62
1
 10
199.984125
 20
150.794092
 40
2.000000
 50
138.468229
 51
165.256437
  0
ARC
  8
0
  6
CONTINUOUS
 62
1
 10
198.451148
 20
150.862845
 40
0.500000
 50
165.256437
 51
222.600979
  0
ARC
  8
0
  6
CONTINUOUS
 62
1
 10
198.926348
 20
150.775862
 40
0.500000
 50
261.014065
 51
275.601489
  0
ARC
  8
0
  6
CONTINUOUS
 62
1
 10
203.060077
 20
146.659695
 40
4.000000
 50
84.003242
 51
95.601489
  0
LINE
  8
0
  6
CONTINUOUS
 62
1
 10
207.714499
 20
150.605585
 11
207.441225
 21
150.442511
  0
LINE
  8
0
  6
CONTINUOUS
 62
1
 10
206.830321
 20
150.306096
 11
203.477966
 21
150.637806
  0
ARC
  8
0
  6
CONTINUOUS
 62
1
 10
206.928788
 20
151.301236
 40
1.000000
 50
264.349063
 51
300.826301
  0
ARC
  8
0
  6
CONTINUOUS
 62
1
 10
207.458281
 20
151.034948
 40
0.500000
 50
300.826301
 51
19.082854
  0
LINE
  8
0
  6
CONTINUOUS
 62
1
 10
198.486949
 20
152.120163
 11
199.568778
 21
152.678769
  0
ARC
  8
0
  6
CONTINUOUS
 62
1
 10
200.945179
 20
150.013151
 40
3.000000
 50
102.425268
 51
117.309718
  0
LINE
  8
0
  6
CONTINUOUS
 62
1
 10
207.078754
 20
153.661374
 11
207.930804
 21
151.198415
  0
LINE
  8
0
  6
CONTINUOUS
 62
1
 10
198.975153
 20
150.278250
 11
202.669642
 21
150.640595
  0
LINE
  8
0
  6
CONTINUOUS
 62
1
 10
198.049976
 20
151.303079
 11
197.967611
 21
150.990092
  0
LINE
  8
0
  6
CONTINUOUS
 62
1
 10
198.848252
 20
150.281999
 11
198.213746
 21
150.382335
  0
LINE
  8
0
  6
CONTINUOUS
 62
1
 10
198.213746
 20
150.382335
 11
198.083105
 21
150.524401
  0
ARC
  8
0
  6
CONTINUOUS
 62
1
 10
199.984125
 20
150.794092
 40
2.000000
 50
138.468229
 51
165.256437
  0
ARC
  8
0
  6
CONTINUOUS
 62
1
 10
198.451148
 20
150.862845
 40
0.500000
 50
165.256437
 51
222.600979
  0
ARC
  8
0
  6
CONTINUOUS
 62
1
 10
198.926348
 20
150.775862
 40
0.500000
 50
261.014065
 51
275.601489
  0
ARC
  8
0
  6
CONTINUOUS
 62
1
 10
203.060077
 20
146.659695
 40
4.000000
 50
84.003242
 51
95.601489
  0
LINE
  8
0
  6
CONTINUOUS
 62
1
 10
207.714499
 20
150.605585
 11
207.441225
 21
150.442511
  0
LINE
  8
0
  6
CONTINUOUS
 62
1
 10
206.830321
 20
150.306096
 11
203.477966
 21
150.637806
  0
ARC
  8
0
  6
CONTINUOUS
 62
1
 10
206.928788
 20
151.301236
 40
1.000000
 50
264.349063
 51
300.826301
  0
ARC
  8
0
  6
CONTINUOUS
 62
1
 10
207.458281
 20
151.034948
 40
0.500000
 50
300.826301
 51
19.082854
  0
LINE
  8
0
  6
CONTINUOUS
 62
1
 10
198.486949
 20
152.120163
 11
199.568778
 21
152.678769
  0
ARC
  8
0
  6
CONTINUOUS
 62
1
 10
200.945179
 20
150.013151
 40
3.000000
 50
102.425268
 51
117.309718
  0
LINE
  8
0
  6
CONTINUOUS
 62
1
 10
207.078754
 20
153.661374
 11
207.930804
 21
151.198415
  0
LINE
  8
0
  6
CONTINUOUS
 62
1
 10
198.975153
 20
150.278250
 11
202.669642
 21
150.640595
  0
LINE
  8
0
  6
CONTINUOUS
 62
1
 10
198.049976
 20
151.303079
 11
197.967611
 21
150.990092
  0
LINE
  8
0
  6
CONTINUOUS
 62
1
 10
198.848252
 20
150.281999
 11
198.213746
 21
150.382335
  0
LINE
  8
0
  6
CONTINUOUS
 62
1
 10
198.213746
 20
150.382335
 11
198.083105
 21
150.524401
  0
ARC
  8
0
  6
CONTINUOUS
 62
1
 10
199.984125
 20
150.794092
 40
2.000000
 50
138.468229
 51
165.256437
  0
ARC
  8
0
  6
CONTINUOUS
 62
1
 10
198.451148
 20
150.862845
 40
0.500000
 50
165.256437
 51
222.600979
  0
ARC
  8
0
  6
CONTINUOUS
 62
1
 10
198.926348
 20
150.775862
 40
0.500000
 50
261.014065
 51
275.601489
  0
ARC
  8
0
  6
CONTINUOUS
 62
1
 10
203.060077
 20
146.659695
 40
4.000000
 50
84.003242
 51
95.601489
  0
LINE
  8
0
  6
CONTINUOUS
 62
1
 10
207.714499
 20
150.605585
 11
207.441225
 21
150.442511
  0
LINE
  8
0
  6
CONTINUOUS
 62
1
 10
206.830321
 20
150.306096
 11
203.477966
 21
150.637806
  0
ARC
  8
0
  6
CONTINUOUS
 62
1
 10
206.928788
 20
151.301236
 40
1.000000
 50
264.349063
 51
300.826301
  0
ARC
  8
0
  6
CONTINUOUS
 62
1
 10
207.458281
 20
151.034948
 40
0.500000
 50
300.826301
 51
19.082854
  0
LINE
  8
0
  6
CONTINUOUS
 62
1
 10
198.486949
 20
152.120163
 11
199.568778
 21
152.678769
  0
ARC
  8
0
  6
CONTINUOUS
 62
1
 10
200.945179
 20
150.013151
 40
3.000000
 50
102.425268
 51
117.309718
  0
LINE
  8
0
  6
CONTINUOUS
 62
1
 10
207.078754
 20
153.661374
 11
207.930804
 21
151.198415
  0
LINE
  8
0
  6
CONTINUOUS
 62
1
 10
198.975153
 20
150.278250
 11
202.669642
 21
150.640595
  0
LINE
  8
0
  6
CONTINUOUS
 62
1
 10
198.049976
 20
151.303079
 11
197.967611
 21
150.990092
  0
LINE
  8
0
  6
CONTINUOUS
 62
1
 10
198.848252
 20
150.281999
 11
198.213746
 21
150.382335
  0
LINE
  8
0
  6
CONTINUOUS
 62
1
 10
198.213746
 20
150.382335
 11
198.083105
 21
150.524401
  0
ARC
  8
0
  6
CONTINUOUS
 62
1
 10
199.984125
 20
150.794092
 40
2.000000
 50
138.468229
 51
165.256437
  0
ARC
  8
0
  6
CONTINUOUS
 62
1
 10
198.451148
 20
150.862845
 40
0.500000
 50
165.256437
 51
222.600979
  0
ARC
  8
0
  6
CONTINUOUS
 62
1
 10
198.926348
 20
150.775862
 40
0.500000
 50
261.014065
 51
275.601489
  0
ARC
  8
0
  6
CONTINUOUS
 62
1
 10
203.060077
 20
146.659695
 40
4.000000
 50
84.003242
 51
95.601489
  0
LINE
  8
0
  6
CONTINUOUS
 62
1
 10
207.714499
 20
150.605585
 11
207.441225
 21
150.442511
  0
LINE
  8
0
  6
CONTINUOUS
 62
1
 10
206.830321
 20
150.306096
 11
203.477966
 21
150.637806
  0
ARC
  8
0
  6
CONTINUOUS
 62
1
 10
206.928788
 20
151.301236
 40
1.000000
 50
264.349063
 51
300.826301
  0
ARC
  8
0
  6
CONTINUOUS
 62
1
 10
207.458281
 20
151.034948
 40
0.500000
 50
300.826301
 51
19.082854
  0
LINE
  8
0
  6
CONTINUOUS
 62
1
 10
198.486949
 20
152.120163
 11
199.568778
 21
152.678769
  0
LINE
  8
0
  6
CONTINUOUS
 62
1
 10
205.997320
 20
154.086503
 11
207.078754
 21
153.661374
  0
LINE
  8
0
  6
CONTINUOUS
 62
1
 10
207.078754
 20
153.661374
 11
207.930804
 21
151.198415
  0
LINE
  8
0
  6
CONTINUOUS
 62
1
 10
198.975153
 20
150.278250
 11
202.669642
 21
150.640595
  0
LINE
  8
0
  6
CONTINUOUS
 62
1
 10
198.049976
 20
151.303079
 11
197.967611
 21
150.990092
  0
LINE
  8
0
  6
CONTINUOUS
 62
1
 10
198.848252
 20
150.281999
 11
198.213746
 21
150.382335
  0
LINE
  8
0
  6
CONTINUOUS
 62
1
 10
198.213746
 20
150.382335
 11
198.083105
 21
150.524401
  0
ARC
  8
0
  6
CONTINUOUS
 62
1
 10
199.984125
 20
150.794092
 40
2.000000
 50
138.468229
 51
165.256437
  0
ARC
  8
0
  6
CONTINUOUS
 62
1
 10
198.451148
 20
150.862845
 40
0.500000
 50
165.256437
 51
222.600979
  0
ARC
  8
0
  6
CONTINUOUS
 62
1
 10
198.926348
 20
150.775862
 40
0.500000
 50
261.014065
 51
275.601489
  0
ARC
  8
0
  6
CONTINUOUS
 62
1
 10
203.060077
 20
146.659695
 40
4.000000
 50
84.003242
 51
95.601489
  0
LINE
  8
0
  6
CONTINUOUS
 62
1
 10
207.714499
 20
150.605585
 11
207.441225
 21
150.442511
  0
LINE
  8
0
  6
CONTINUOUS
 62
1
 10
206.830321
 20
150.306096
 11
203.477966
 21
150.637806
  0
ARC
  8
0
  6
CONTINUOUS
 62
1
 10
206.928788
 20
151.301236
 40
1.000000
 50
264.349063
 51
300.826301
  0
ARC
  8
0
  6
CONTINUOUS
 62
1
 10
207.458281
 20
151.034948
 40
0.500000
 50
300.826301
 51
19.082854
  0
LINE
  8
0
  6
CONTINUOUS
 62
1
 10
193.834446
 20
121.123064
 11
233.058976
 21
121.123064
  0
LINE
  8
0
  6
CONTINUOUS
 62
1
 10
233.058976
 20
122.123064
 11
193.834446
 21
122.123064
  0
LINE
  8
0
  6
CONTINUOUS
 62
1
 10
193.834446
 20
123.123064
 11
233.058976
 21
123.123064
  0
LINE
  8
0
  6
CONTINUOUS
 62
1
 10
233.058976
 20
124.123064
 11
193.834446
 21
124.123064
  0
LINE
  8
0
  6
CONTINUOUS
 62
1
 10
193.834446
 20
125.123064
 11
233.058976
 21
125.123064
  0
LINE
  8
0
  6
CONTINUOUS
 62
1
 10
233.058976
 20
146.123064
 11
193.834446
 21
146.123064
  0
LINE
  8
0
  6
CONTINUOUS
 62
1
 10
193.834446
 20
147.123064
 11
233.058976
 21
147.123064
  0
LINE
  8
0
  6
CONTINUOUS
 62
1
 10
233.058976
 20
148.123064
 11
193.834446
 21
148.123064
  0
LINE
  8
0
  6
CONTINUOUS
 62
1
 10
193.834446
 20
149.123064
 11
233.058976
 21
149.123064
  0
LINE
  8
0
  6
CONTINUOUS
 62
1
 10
233.058976
 20
150.123064
 11
193.834446
 21
150.123064
  0
LINE
  8
0
  6
CONTINUOUS
 62
1
 10
193.834446
 20
150.123064
 11
193.834446
 21
121.123064
  0
LINE
  8
0
  6
CONTINUOUS
 62
1
 10
208.834446
 20
127.123064
 11
208.834446
 21
144.123064
  0
LINE
  8
0
  6
CENTER
 62
1
 10
187.231366
 20
135.526655
 11
174.596849
 21
135.526655
  0
LINE
  8
0
  6
CONTINUOUS
 62
1
 10
233.058976
 20
126.123064
 11
193.834446
 21
126.123064
  0
LINE
  8
0
  6
CONTINUOUS
 62
1
 10
193.834446
 20
127.123064
 11
233.058976
 21
127.123064
  0
LINE
  8
0
  6
CONTINUOUS
 62
1
 10
193.834446
 20
145.123064
 11
233.058976
 21
145.123064
  0
LINE
  8
0
  6
CONTINUOUS
 62
1
 10
233.058976
 20
144.123064
 11
193.834446
 21
144.123064
  0
LINE
  8
0
  6
CONTINUOUS
 62
1
 10
208.834446
 20
144.123064
 11
193.834446
 21
127.123064
  0
LINE
  8
0
  6
CONTINUOUS
 62
1
 10
208.834446
 20
127.123064
 11
193.834446
 21
144.123064
  0
ARC
  8
0
  6
CONTINUOUS
 62
1
 10
205.704017
 20
153.814523
 40
0.400000
 50
42.839744
 51
163.967214
  0
LINE
  8
0
  6
CONTINUOUS
 62
1
 10
180.436705
 20
133.526655
 11
181.734446
 21
133.526655
  0
LINE
  8
0
  6
CONTINUOUS
 62
1
 10
181.734446
 20
137.526655
 11
180.436705
 21
137.526655
  0
LINE
  8
0
  6
CONTINUOUS
 62
1
 10
187.231366
 20
133.526655
 11
187.231366
 21
137.526655
  0
ARC
  8
0
  6
CONTINUOUS
 62
1
 10
185.231366
 20
133.526655
 40
1.000000
 50
180.000000
 51
0.000000
  0
ARC
  8
0
  6
CONTINUOUS
 62
1
 10
185.231366
 20
137.526655
 40
1.000000
 50
0.000000
 51
180.000000
  0
LINE
  8
0
  6
CONTINUOUS
 62
1
 10
186.231366
 20
133.526655
 11
187.231366
 21
133.526655
  0
LINE
  8
0
  6
CONTINUOUS
 62
1
 10
186.231366
 20
137.526655
 11
187.231366
 21
137.526655
  0
LINE
  8
0
  6
CONTINUOUS
 62
1
 10
177.236705
 20
131.526655
 11
176.584446
 21
131.526655
  0
LINE
  8
0
  6
CONTINUOUS
 62
1
 10
177.236705
 20
139.526655
 11
176.584446
 21
139.526655
  0
ARC
  8
0
  6
CONTINUOUS
 62
1
 10
184.084446
 20
135.526655
 40
8.500000
 50
151.927513
 51
208.072487
  0
LINE
  8
0
  6
CONTINUOUS
 62
1
 10
188.484446
 20
121.320295
 11
188.484446
 21
146.320295
  0
LINE
  8
0
  6
CONTINUOUS
 62
1
 10
193.484446
 20
146.320295
 11
193.484446
 21
121.320295
  0
LINE
  8
0
  6
CONTINUOUS
 62
1
 10
193.484446
 20
121.320295
 11
188.484446
 21
121.320295
  0
LINE
  8
0
  6
CONTINUOUS
 62
1
 10
188.484446
 20
146.320295
 11
193.484446
 21
146.320295
  0
LINE
  8
0
  6
CONTINUOUS
 62
1
 10
193.484446
 20
146.320295
 11
188.484446
 21
121.320295
  0
LINE
  8
0
  6
CONTINUOUS
 62
1
 10
193.484446
 20
121.320295
 11
188.484446
 21
146.320295
  0
LINE
  8
0
  6
CONTINUOUS
 62
1
 10
186.234446
 20
120.827733
 11
186.234446
 21
125.526655
  0
LINE
  8
0
  6
CONTINUOUS
 62
1
 10
186.234446
 20
129.026655
 11
186.234446
 21
130.776655
  0
LINE
  8
0
  6
CONTINUOUS
 62
1
 10
187.734446
 20
130.776655
 11
187.734446
 21
120.827733
  0
LINE
  8
0
  6
CONTINUOUS
 62
1
 10
187.734446
 20
146.032681
 11
187.734446
 21
140.276655
  0
LINE
  8
0
  6
CONTINUOUS
 62
1
 10
186.234446
 20
140.276655
 11
186.234446
 21
141.276655
  0
LINE
  8
0
  6
CONTINUOUS
 62
1
 10
185.234446
 20
126.526655
 11
181.734446
 21
126.526655
  0
LINE
  8
0
  6
CONTINUOUS
 62
1
 10
180.734446
 20
127.526655
 11
180.734446
 21
131.526655
  0
ARC
  8
0
  6
CONTINUOUS
 62
1
 10
181.734446
 20
127.526655
 40
1.000000
 50
180.000000
 51
270.000000
  0
LINE
  8
0
  6
CONTINUOUS
 62
1
 10
180.734446
 20
131.526655
 11
181.734446
 21
131.526655
  0
LINE
  8
0
  6
CONTINUOUS
 62
1
 10
181.734446
 20
131.526655
 11
181.734446
 21
139.526655
  0
LINE
  8
0
  6
CONTINUOUS
 62
1
 10
181.734446
 20
139.526655
 11
180.734446
 21
139.526655
  0
LINE
  8
0
  6
CONTINUOUS
 62
1
 10
200.299681
 20
152.942883
 11
201.592706
 21
153.491154
  0
LINE
  8
0
  6
CONTINUOUS
 62
1
 10
184.234446
 20
140.776655
 11
184.234446
 21
135.926655
  0
LINE
  8
0
  6
CONTINUOUS
 62
1
 10
201.592706
 20
153.491154
 11
202.189510
 21
153.776655
  0
LINE
  8
0
  6
CONTINUOUS
 62
1
 10
183.834446
 20
135.526655
 11
184.234446
 21
135.926655
  0
LINE
  8
0
  6
CONTINUOUS
 62
1
 10
183.834446
 20
135.526655
 11
184.234446
 21
135.126655
  0
ARC
  8
0
  6
CONTINUOUS
 62
1
 10
186.984446
 20
120.827733
 40
0.750000
 50
180.000000
 51
270.000000
  0
ARC
  8
0
  6
CONTINUOUS
 62
1
 10
186.984446
 20
120.827733
 40
0.750000
 50
270.000000
 51
0.000000
  0
ARC
  8
0
  6
CONTINUOUS
 62
1
 10
186.984446
 20
140.276655
 40
0.750000
 50
180.000000
 51
270.000000
  0
ARC
  8
0
  6
CONTINUOUS
 62
1
 10
186.984446
 20
140.276655
 40
0.750000
 50
270.000000
 51
0.000000
  0
ARC
  8
0
  6
CONTINUOUS
 62
1
 10
186.984446
 20
130.776655
 40
0.750000
 50
90.000000
 51
180.000000
  0
ARC
  8
0
  6
CONTINUOUS
 62
1
 10
186.984446
 20
130.776655
 40
0.750000
 50
0.000000
 51
90.000000
  0
LINE
  8
0
  6
CONTINUOUS
 62
1
 10
184.234446
 20
135.126655
 11
184.234446
 21
129.526655
  0
LINE
  8
0
  6
CONTINUOUS
 62
1
 10
185.234446
 20
128.026655
 11
183.734446
 21
128.026655
  0
LINE
  8
0
  6
CONTINUOUS
 62
1
 10
185.234446
 20
142.276655
 11
183.734446
 21
142.276655
  0
LINE
  8
0
  6
CONTINUOUS
 62
1
 10
183.234446
 20
128.526655
 11
183.234446
 21
129.026655
  0
LINE
  8
0
  6
CONTINUOUS
 62
1
 10
183.734446
 20
129.526655
 11
184.234446
 21
129.526655
  0
LINE
  8
0
  6
CONTINUOUS
 62
1
 10
183.234446
 20
141.776655
 11
183.234446
 21
141.276655
  0
LINE
  8
0
  6
CONTINUOUS
 62
1
 10
183.734446
 20
140.776655
 11
184.234446
 21
140.776655
  0
ARC
  8
0
  6
CONTINUOUS
 62
1
 10
183.734446
 20
141.276655
 40
0.500000
 50
180.000000
 51
270.000000
  0
ARC
  8
0
  6
CONTINUOUS
 62
1
 10
183.734446
 20
141.776655
 40
0.500000
 50
90.000000
 51
180.000000
  0
ARC
  8
0
  6
CONTINUOUS
 62
1
 10
183.734446
 20
129.026655
 40
0.500000
 50
90.000000
 51
180.000000
  0
ARC
  8
0
  6
CONTINUOUS
 62
1
 10
183.734446
 20
128.526655
 40
0.500000
 50
180.000000
 51
270.000000
  0
ARC
  8
0
  6
CONTINUOUS
 62
1
 10
185.234446
 20
125.526655
 40
1.000000
 50
0.000000
 51
90.000000
  0
ARC
  8
0
  6
CONTINUOUS
 62
1
 10
185.234446
 20
129.026655
 40
1.000000
 50
270.000000
 51
0.000000
  0
ARC
  8
0
  6
CONTINUOUS
 62
1
 10
185.234446
 20
141.276655
 40
1.000000
 50
0.000000
 51
90.000000
  0
LINE
  8
0
  6
CONTINUOUS
 62
1
 10
186.455592
 20
148.996880
 11
189.039747
 21
149.937435
  0
LINE
  8
0
  6
CONTINUOUS
 62
1
 10
189.184847
 20
150.415918
 11
189.219049
 21
150.321949
  0
ARC
  8
0
  6
CONTINUOUS
 62
1
 10
188.902939
 20
150.313312
 40
0.300000
 50
20.000000
 51
110.000000
  0
ARC
  8
0
  6
CONTINUOUS
 62
1
 10
188.937141
 20
150.219343
 40
0.300000
 50
290.000000
 51
20.000000
  0
LINE
  8
0
  6
CONTINUOUS
 62
1
 10
186.036877
 20
149.270151
 11
186.071079
 21
149.176181
  0
ARC
  8
0
  6
CONTINUOUS
 62
1
 10
186.318784
 20
149.372757
 40
0.300000
 50
110.000000
 51
200.000000
  0
ARC
  8
0
  6
CONTINUOUS
 62
1
 10
186.352986
 20
149.278787
 40
0.300000
 50
200.000000
 51
290.000000
  0
LINE
  8
0
  6
CONTINUOUS
 62
1
 10
184.184446
 20
143.776655
 11
186.034446
 21
143.776655
  0
LINE
  8
0
  6
CONTINUOUS
 62
1
 10
186.234446
 20
143.976655
 11
186.234446
 21
146.032681
  0
LINE
  8
0
  6
CONTINUOUS
 62
1
 10
183.984446
 20
143.976655
 11
183.984446
 21
150.526655
  0
LINE
  8
0
  6
CONTINUOUS
 62
1
 10
182.484446
 20
150.526655
 11
182.484446
 21
145.726655
  0
LINE
  8
0
  6
CONTINUOUS
 62
1
 10
181.734446
 20
145.526655
 11
182.284446
 21
145.526655
  0
ARC
  8
0
  6
CONTINUOUS
 62
1
 10
181.734446
 20
144.526655
 40
1.000000
 50
90.000000
 51
180.000000
  0
ARC
  8
0
  6
CONTINUOUS
 62
1
 10
183.234446
 20
150.526655
 40
0.750000
 50
90.000000
 51
180.000000
  0
ARC
  8
0
  6
CONTINUOUS
 62
1
 10
183.234446
 20
150.526655
 40
0.750000
 50
0.000000
 51
90.000000
  0
ARC
  8
0
  6
CONTINUOUS
 62
1
 10
182.284446
 20
145.726655
 40
0.200000
 50
270.000000
 51
0.000000
  0
ARC
  8
0
  6
CONTINUOUS
 62
1
 10
186.034446
 20
143.976655
 40
0.200000
 50
270.000000
 51
0.000000
  0
ARC
  8
0
  6
CONTINUOUS
 62
1
 10
184.184446
 20
143.976655
 40
0.200000
 50
180.000000
 51
270.000000
  0
LINE
  8
0
  6
CONTINUOUS
 62
1
 10
187.734446
 20
146.032681
 11
186.234446
 21
146.032681
  0
LINE
  8
0
  6
CONTINUOUS
 62
1
 10
180.734446
 20
139.526655
 11
180.734446
 21
144.526655
  0
ARC
  8
0
  6
CONTINUOUS
 62
1
 10
186.340752
 20
146.542640
 40
1.000000
 50
110.000000
 51
180.000000
  0
LINE
  8
0
  6
CONTINUOUS
 62
1
 10
205.437741
 20
153.600341
 11
204.918605
 21
155.026655
  0
ARC
  8
0
  6
CONTINUOUS
 62
1
 10
189.334446
 20
154.526655
 40
0.500000
 50
180.000000
 51
270.000000
  0
ARC
  8
0
  6
CONTINUOUS
 62
1
 10
189.334446
 20
154.526655
 40
0.500000
 50
90.000000
 51
180.000000
  0
LINE
  8
0
  6
CONTINUOUS
 62
1
 10
204.918605
 20
155.026655
 11
189.334446
 21
155.026655
  0
LINE
  8
0
  6
CONTINUOUS
 62
1
 10
184.090752
 20
148.118107
 11
184.090752
 21
145.008556
  0
ARC
  8
0
  6
CONTINUOUS
 62
1
 10
185.090752
 20
145.008556
 40
1.000000
 50
180.000000
 51
270.000000
  0
ARC
  8
0
  6
CONTINUOUS
 62
1
 10
185.090752
 20
145.008556
 40
1.000000
 50
270.000000
 51
0.000000
  0
ARC
  8
0
  6
CONTINUOUS
 62
1
 10
185.090752
 20
145.008556
 40
1.000000
 50
0.000000
 51
75.522488
  0
LINE
  8
0
  6
CONTINUOUS
 62
1
 10
189.379676
 20
150.043118
 11
185.902813
 21
148.777643
  0
LINE
  8
0
  6
CONTINUOUS
 62
1
 10
193.584446
 20
153.776655
 11
204.043346
 21
153.776655
  0
LINE
  8
0
  6
CONTINUOUS
 62
1
 10
190.584446
 20
149.851603
 11
190.584446
 21
150.776655
  0
LINE
  8
0
  6
CONTINUOUS
 62
1
 10
185.998732
 20
147.482332
 11
189.926466
 21
148.911911
  0
LINE
  8
0
  6
CONTINUOUS
 62
1
 10
185.340752
 20
145.976802
 11
185.340752
 21
146.542640
  0
LINE
  8
0
  6
CONTINUOUS
 62
1
 10
185.629197
 20
149.529397
 11
186.099044
 21
149.700407
  0
LINE
  8
0
  6
CONTINUOUS
 62
1
 10
188.401291
 20
150.538357
 11
189.106060
 21
150.794872
  0
LINE
  8
0
  6
CONTINUOUS
 62
1
 10
185.928034
 20
150.170254
 11
185.687036
 21
150.082538
  0
ARC
  8
0
  6
CONTINUOUS
 62
1
 10
204.850433
 20
153.386578
 40
0.625000
 50
270.000000
 51
20.000000
  0
ARC
  8
0
  6
CONTINUOUS
 62
1
 10
204.850433
 20
153.386578
 40
0.625000
 50
200.000000
 51
270.000000
  0
ARC
  8
0
  6
CONTINUOUS
 62
1
 10
193.584446
 20
150.776655
 40
3.000000
 50
90.000000
 51
180.000000
  0
LINE
  8
0
  6
CONTINUOUS
 62
1
 10
184.090752
 20
148.118107
 11
185.209904
 21
149.716422
  0
ARC
  8
0
  6
CONTINUOUS
 62
1
 10
186.029056
 20
149.142845
 40
1.000000
 50
110.000000
 51
145.000000
  0
LINE
  8
0
  6
CONTINUOUS
 62
1
 10
204.043346
 20
153.776655
 11
204.263126
 21
153.172816
  0
ARC
  8
0
  6
CONTINUOUS
 62
1
 10
186.834446
 20
154.026655
 40
2.500000
 50
320.778048
 51
0.000000
  0
LINE
  8
0
  6
CONTINUOUS
 62
1
 10
185.902813
 20
148.777643
 11
185.629197
 21
149.529397
  0
LINE
  8
0
  6
CONTINUOUS
 62
1
 10
189.106060
 20
150.794872
 11
189.379676
 21
150.043118
  0
LINE
  8
0
  6
CONTINUOUS
 62
1
 10
188.401291
 20
150.538357
 11
187.946585
 21
151.787650
  0
ARC
  8
0
  6
CONTINUOUS
 62
1
 10
186.013539
 20
149.935331
 40
0.250000
 50
290.000000
 51
20.000000
  0
ARC
  8
0
  6
CONTINUOUS
 62
1
 10
186.013539
 20
149.935331
 40
0.250000
 50
20.000000
 51
110.000000
  0
ARC
  8
0
  6
CONTINUOUS
 62
1
 10
189.584446
 20
149.851603
 40
1.000000
 50
290.000000
 51
0.000000
  0
ARC
  8
0
  6
CONTINUOUS
 62
1
 10
188.562368
 20
151.861921
 40
0.620139
 50
70.320835
 51
186.919676
  0
LINE
  8
0
  6
RANDOM
 62
1
 10
233.058976
 20
115.479052
 11
233.058976
 21
155.479052
  0
ARC
  8
0
  6
CONTINUOUS
 62
1
 10
186.227953
 20
149.764319
 40
0.100000
 50
281.950087
 51
21.322156
  0
LINE
  8
0
  6
CONTINUOUS
 62
1
 10
186.321108
 20
149.800680
 11
186.312862
 21
149.916714
  0
LINE
  8
0
  6
CONTINUOUS
 62
1
 10
186.312862
 20
149.916714
 11
186.303946
 21
150.011817
  0
LINE
  8
0
  6
CONTINUOUS
 62
1
 10
186.303946
 20
150.011817
 11
186.205871
 21
150.106920
  0
LINE
  8
0
  6
CONTINUOUS
 62
1
 10
186.216178
 20
149.654665
 11
186.248659
 21
149.666486
  0
LINE
  8
0
  6
CONTINUOUS
 62
1
 10
186.205871
 20
150.106920
 11
185.701837
 21
150.498869
  0
LINE
  8
0
  6
CONTINUOUS
 62
1
 10
185.701837
 20
150.498869
 11
185.423840
 21
151.003382
  0
LINE
  8
0
  6
CONTINUOUS
 62
1
 10
185.918057
 20
151.991816
 11
186.700567
 21
152.094778
  0
LINE
  8
0
  6
CONTINUOUS
 62
1
 10
186.700567
 20
152.094778
 11
187.503670
 21
152.115371
  0
LINE
  8
0
  6
CONTINUOUS
 62
1
 10
187.503670
 20
152.115371
 11
187.936110
 21
151.652042
  0
LINE
  8
0
  6
CONTINUOUS
 62
1
 10
187.936110
 20
151.652042
 11
188.028775
 21
151.301972
  0
LINE
  8
0
  6
CONTINUOUS
 62
1
 10
185.423840
 20
151.003382
 11
185.454728
 21
151.538784
  0
LINE
  8
0
  6
CONTINUOUS
 62
1
 10
185.454728
 20
151.538784
 11
185.619467
 21
151.775596
  0
LINE
  8
0
  6
CONTINUOUS
 62
1
 10
185.619467
 20
151.775596
 11
185.918057
 21
151.991816
  0
LINE
  8
0
  6
CONTINUOUS
 62
1
 10
186.976228
 20
149.931300
 11
188.800333
 21
150.595220
  0
LINE
  8
0
  6
CONTINUOUS
 62
1
 10
186.976228
 20
149.931300
 11
186.896195
 21
150.159095
  0
LINE
  8
0
  6
CONTINUOUS
 62
1
 10
186.896195
 20
150.159095
 11
186.782937
 21
150.334130
  0
LINE
  8
0
  6
CONTINUOUS
 62
1
 10
186.782937
 20
150.334130
 11
186.494643
 21
150.663608
  0
LINE
  8
0
  6
CONTINUOUS
 62
1
 10
186.494643
 20
150.663608
 11
186.237238
 21
150.766570
  0
LINE
  8
0
  6
CONTINUOUS
 62
1
 10
186.237238
 20
150.766570
 11
186.123980
 21
150.972494
  0
LINE
  8
0
  6
CONTINUOUS
 62
1
 10
186.123980
 20
150.972494
 11
186.062203
 21
151.168121
  0
LINE
  8
0
  6
CONTINUOUS
 62
1
 10
186.062203
 20
151.168121
 11
186.093092
 21
151.384341
  0
LINE
  8
0
  6
CONTINUOUS
 62
1
 10
186.093092
 20
151.384341
 11
186.309312
 21
151.579969
  0
LINE
  8
0
  6
CONTINUOUS
 62
1
 10
186.309312
 20
151.579969
 11
186.793233
 21
151.621153
  0
LINE
  8
0
  6
CONTINUOUS
 62
1
 10
186.793233
 20
151.621153
 11
187.277154
 21
151.549080
  0
LINE
  8
0
  6
CONTINUOUS
 62
1
 10
187.277154
 20
151.549080
 11
187.503670
 21
151.363749
  0
LINE
  8
0
  6
CONTINUOUS
 62
1
 10
187.503670
 20
151.363749
 11
187.627224
 21
151.126936
  0
LINE
  8
0
  6
CONTINUOUS
 62
1
 10
187.627224
 20
151.126936
 11
187.966998
 21
151.013678
  0
LINE
  8
0
  6
CONTINUOUS
 62
1
 10
187.966998
 20
151.013678
 11
188.028775
 21
151.301972
  0
LINE
  8
0
  6
CONTINUOUS
 62
1
 10
206.883426
 20
56.798041
 11
207.959599
 21
53.687231
  0
LINE
  8
0
  6
CONTINUOUS
 62
1
 10
207.959599
 20
53.687231
 11
207.987041
 21
52.891390
  0
LINE
  8
0
  6
CONTINUOUS
 62
1
 10
207.987041
 20
52.891390
 11
207.921239
 21
52.573345
  0
LINE
  8
0
  6
CONTINUOUS
 62
1
 10
207.921239
 20
52.573345
 11
207.679964
 21
52.200465
  0
LINE
  8
0
  6
CONTINUOUS
 62
1
 10
207.679964
 20
52.200465
 11
207.372886
 21
51.904355
  0
LINE
  8
0
  6
CONTINUOUS
 62
1
 10
207.372886
 20
51.904355
 11
207.043875
 21
51.695981
  0
LINE
  8
0
  6
CONTINUOUS
 62
1
 10
207.043875
 20
51.695981
 11
206.703896
 21
51.586310
  0
LINE
  8
0
  6
CONTINUOUS
 62
1
 10
206.703896
 20
51.586310
 11
205.858162
 21
51.496692
  0
LINE
  8
0
  6
CONTINUOUS
 62
1
 10
205.858162
 20
51.496692
 11
203.401504
 21
51.739775
  0
LINE
  8
0
  6
CONTINUOUS
 62
1
 10
198.530944
 20
51.416606
 11
201.832892
 21
51.740452
  0
ARC
  8
0
  6
CONTINUOUS
 62
1
 10
202.613762
 20
43.778653
 40
8.000000
 50
84.349063
 51
95.601489
  0
LINE
  8
0
  6
CONTINUOUS
 62
1
 10
198.530944
 20
51.416606
 11
198.028958
 21
51.454706
  0
LINE
  8
0
  6
CONTINUOUS
 62
1
 10
198.028958
 20
51.454706
 11
197.539289
 21
51.682540
  0
LINE
  8
0
  6
CONTINUOUS
 62
1
 10
197.539289
 20
51.682540
 11
197.307337
 21
52.030468
  0
LINE
  8
0
  6
CONTINUOUS
 62
1
 10
197.307337
 20
52.030468
 11
197.278343
 21
52.349402
  0
LINE
  8
0
  6
CONTINUOUS
 62
1
 10
197.278343
 20
52.349402
 11
197.394319
 21
52.755318
  0
LINE
  8
0
  6
CONTINUOUS
 62
1
 10
197.394319
 20
52.755318
 11
197.597277
 21
53.161234
  0
LINE
  8
0
  6
CONTINUOUS
 62
1
 10
197.597277
 20
53.161234
 11
198.003193
 21
53.596144
  0
LINE
  8
0
  6
CONTINUOUS
 62
1
 10
198.003193
 20
53.596144
 11
198.583073
 21
54.118036
  0
LINE
  8
0
  6
CONTINUOUS
 62
1
 10
198.583073
 20
54.118036
 11
199.336917
 21
54.668922
  0
LINE
  8
0
  6
CONTINUOUS
 62
1
 10
199.336917
 20
54.668922
 11
200.496677
 21
55.306790
  0
LINE
  8
0
  6
CONTINUOUS
 62
1
 10
200.496677
 20
55.306790
 11
201.801407
 21
55.886670
  0
LINE
  8
0
  6
CONTINUOUS
 62
1
 10
201.801407
 20
55.886670
 11
202.816197
 21
56.321580
  0
LINE
  8
0
  6
CONTINUOUS
 62
1
 10
202.816197
 20
56.321580
 11
203.396077
 21
56.640514
  0
LINE
  8
0
  6
CONTINUOUS
 62
1
 10
203.396077
 20
56.640514
 11
204.312691
 21
56.964025
  0
LINE
  8
0
  6
CONTINUOUS
 62
1
 10
206.883426
 20
56.798041
 11
206.121513
 21
57.133412
  0
LINE
  8
0
  6
CONTINUOUS
 62
1
 10
206.121513
 20
57.133412
 11
205.702963
 21
57.056004
  0
LINE
  8
0
  6
CONTINUOUS
 62
1
 10
168.836705
 20
116.479052
 11
168.836705
 21
117.679052
  0
LINE
  8
0
  6
CONTINUOUS
 62
1
 10
169.836705
 20
155.479052
 11
187.836705
 21
155.479052
  0
LINE
  8
0
  6
CONTINUOUS
 62
1
 10
205.836705
 20
117.679052
 11
205.836705
 21
116.479052
  0
LINE
  8
0
  6
CONTINUOUS
 62
1
 10
204.836705
 20
115.479052
 11
169.836705
 21
115.479052
  0
LINE
  8
0
  6
CONTINUOUS
 62
1
 10
169.836705
 20
118.679052
 11
172.236705
 21
118.679052
  0
LINE
  8
0
  6
CONTINUOUS
 62
1
 10
187.836705
 20
152.279052
 11
185.436705
 21
152.279052
  0
LINE
  8
0
  6
CONTINUOUS
 62
1
 10
188.836705
 20
154.479052
 11
188.836705
 21
153.279052
  0
LINE
  8
0
  6
CONTINUOUS
 62
1
 10
177.236705
 20
147.279052
 11
177.236705
 21
123.679052
  0
LINE
  8
0
  6
CONTINUOUS
 62
1
 10
180.436705
 20
123.679052
 11
180.436705
 21
147.279052
  0
LINE
  8
0
  6
CONTINUOUS
 62
1
 10
168.836705
 20
153.279052
 11
168.836705
 21
154.479052
  0
LINE
  8
0
  6
CONTINUOUS
 62
1
 10
185.436705
 20
118.679052
 11
193.136705
 21
118.679052
  0
LINE
  8
0
  6
CONTINUOUS
 62
1
 10
172.236705
 20
152.279052
 11
169.836705
 21
152.279052
  0
ARC
  8
0
  6
CONTINUOUS
 62
1
 10
185.436705
 20
123.679052
 40
5.000000
 50
180.000000
 51
270.000000
  0
ARC
  8
0
  6
CONTINUOUS
 62
1
 10
172.236705
 20
123.679052
 40
5.000000
 50
270.000000
 51
0.000000
  0
ARC
  8
0
  6
CONTINUOUS
 62
1
 10
185.436705
 20
147.279052
 40
5.000000
 50
90.000000
 51
180.000000
  0
ARC
  8
0
  6
CONTINUOUS
 62
1
 10
172.236705
 20
147.279052
 40
5.000000
 50
0.000000
 51
90.000000
  0
ARC
  8
0
  6
CONTINUOUS
 62
1
 10
204.836705
 20
116.479052
 40
1.000000
 50
270.000000
 51
0.000000
  0
ARC
  8
0
  6
CONTINUOUS
 62
1
 10
204.836705
 20
117.679052
 40
1.000000
 50
0.000000
 51
90.000000
  0
ARC
  8
0
  6
CONTINUOUS
 62
1
 10
169.836705
 20
116.479052
 40
1.000000
 50
180.000000
 51
270.000000
  0
ARC
  8
0
  6
CONTINUOUS
 62
1
 10
169.836705
 20
117.679052
 40
1.000000
 50
90.000000
 51
180.000000
  0
ARC
  8
0
  6
CONTINUOUS
 62
1
 10
169.836705
 20
153.279052
 40
1.000000
 50
180.000000
 51
270.000000
  0
ARC
  8
0
  6
CONTINUOUS
 62
1
 10
169.836705
 20
154.479052
 40
1.000000
 50
90.000000
 51
180.000000
  0
ARC
  8
0
  6
CONTINUOUS
 62
1
 10
187.836705
 20
154.479052
 40
1.000000
 50
0.000000
 51
90.000000
  0
ARC
  8
0
  6
CONTINUOUS
 62
1
 10
187.836705
 20
153.279052
 40
1.000000
 50
270.000000
 51
0.000000
  0
LINE
  8
0
  6
CONTINUOUS
 62
1
 10
202.336705
 20
117.479052
 11
194.336705
 21
117.479052
  0
LINE
  8
0
  6
CONTINUOUS
 62
1
 10
202.336705
 20
117.479052
 11
203.536705
 21
118.679052
  0
LINE
  8
0
  6
CONTINUOUS
 62
1
 10
194.336705
 20
117.479052
 11
193.136705
 21
118.679052
  0
LINE
  8
0
  6
CONTINUOUS
 62
1
 10
203.536705
 20
118.679052
 11
204.836705
 21
118.679052
  0
LINE
  8
0
  6
CONTINUOUS
 62
1
 10
233.058976
 20
155.479052
 11
188.836705
 21
155.479052
  0
LINE
  8
0
  6
CONTINUOUS
 62
1
 10
168.836705
 20
40.820216
 11
168.836705
 21
42.020216
  0
LINE
  8
0
  6
CONTINUOUS
 62
1
 10
169.836705
 20
79.820216
 11
187.836705
 21
79.820216
  0
LINE
  8
0
  6
CONTINUOUS
 62
1
 10
205.836705
 20
42.020216
 11
205.836705
 21
40.820216
  0
LINE
  8
0
  6
CONTINUOUS
 62
1
 10
204.836705
 20
39.820216
 11
169.836705
 21
39.820216
  0
LINE
  8
0
  6
CONTINUOUS
 62
1
 10
169.836705
 20
43.020216
 11
172.236705
 21
43.020216
  0
LINE
  8
0
  6
CONTINUOUS
 62
1
 10
187.836705
 20
76.620216
 11
185.436705
 21
76.620216
  0
LINE
  8
0
  6
CONTINUOUS
 62
1
 10
188.836705
 20
78.820216
 11
188.836705
 21
77.620216
  0
LINE
  8
0
  6
CONTINUOUS
 62
1
 10
177.236705
 20
71.620216
 11
177.236705
 21
48.020216
  0
LINE
  8
0
  6
CONTINUOUS
 62
1
 10
180.436705
 20
48.020216
 11
180.436705
 21
71.620216
  0
LINE
  8
0
  6
CONTINUOUS
 62
1
 10
168.836705
 20
77.620216
 11
168.836705
 21
78.820216
  0
LINE
  8
0
  6
CONTINUOUS
 62
1
 10
185.436705
 20
43.020216
 11
193.136705
 21
43.020216
  0
LINE
  8
0
  6
CONTINUOUS
 62
1
 10
172.236705
 20
76.620216
 11
169.836705
 21
76.620216
  0
ARC
  8
0
  6
CONTINUOUS
 62
1
 10
185.436705
 20
48.020216
 40
5.000000
 50
180.000000
 51
270.000000
  0
ARC
  8
0
  6
CONTINUOUS
 62
1
 10
172.236705
 20
48.020216
 40
5.000000
 50
270.000000
 51
0.000000
  0
ARC
  8
0
  6
CONTINUOUS
 62
1
 10
185.436705
 20
71.620216
 40
5.000000
 50
90.000000
 51
180.000000
  0
ARC
  8
0
  6
CONTINUOUS
 62
1
 10
172.236705
 20
71.620216
 40
5.000000
 50
0.000000
 51
90.000000
  0
ARC
  8
0
  6
CONTINUOUS
 62
1
 10
204.836705
 20
40.820216
 40
1.000000
 50
270.000000
 51
0.000000
  0
ARC
  8
0
  6
CONTINUOUS
 62
1
 10
204.836705
 20
42.020216
 40
1.000000
 50
0.000000
 51
90.000000
  0
ARC
  8
0
  6
CONTINUOUS
 62
1
 10
169.836705
 20
40.820216
 40
1.000000
 50
180.000000
 51
270.000000
  0
ARC
  8
0
  6
CONTINUOUS
 62
1
 10
169.836705
 20
42.020216
 40
1.000000
 50
90.000000
 51
180.000000
  0
ARC
  8
0
  6
CONTINUOUS
 62
1
 10
169.836705
 20
77.620216
 40
1.000000
 50
180.000000
 51
270.000000
  0
ARC
  8
0
  6
CONTINUOUS
 62
1
 10
169.836705
 20
78.820216
 40
1.000000
 50
90.000000
 51
180.000000
  0
ARC
  8
0
  6
CONTINUOUS
 62
1
 10
187.836705
 20
78.820216
 40
1.000000
 50
0.000000
 51
90.000000
  0
ARC
  8
0
  6
CONTINUOUS
 62
1
 10
187.836705
 20
77.620216
 40
1.000000
 50
270.000000
 51
0.000000
  0
LINE
  8
0
  6
CONTINUOUS
 62
1
 10
202.336705
 20
41.820216
 11
194.336705
 21
41.820216
  0
LINE
  8
0
  6
CONTINUOUS
 62
1
 10
202.336705
 20
41.820216
 11
203.536705
 21
43.020216
  0
LINE
  8
0
  6
CONTINUOUS
 62
1
 10
194.336705
 20
41.820216
 11
193.136705
 21
43.020216
  0
LINE
  8
0
  6
CONTINUOUS
 62
1
 10
233.073255
 20
79.820143
 11
188.836705
 21
79.820143
  0
LINE
  8
0
  6
CONTINUOUS
 62
1
 10
186.440991
 20
161.904796
 11
190.712094
 21
153.922415
  0
LINE
  8
0
  6
CONTINUOUS
 62
1
 10
190.712094
 20
153.922415
 11
190.020456
 21
155.820650
  0
LINE
  8
0
  6
CONTINUOUS
 62
1
 10
190.020456
 20
155.820650
 11
189.642576
 21
155.618459
  0
LINE
  8
0
  6
CONTINUOUS
 62
1
 10
189.642576
 20
155.618459
 11
190.307712
 21
154.678175
  0
LINE
  8
0
  6
CONTINUOUS
 62
1
 10
190.307712
 20
154.678175
 11
189.894496
 21
155.753253
  0
LINE
  8
0
  6
CONTINUOUS
 62
1
 10
189.894496
 20
155.753253
 11
189.516616
 21
155.551062
  0
LINE
  8
0
  6
CONTINUOUS
 62
1
 10
189.516616
 20
155.551062
 11
190.712094
 21
153.922415
  0
LINE
  8
0
  6
CONTINUOUS
 62
1
 10
199.231248
 20
161.762451
 11
202.234292
 21
152.908370
  0
LINE
  8
0
  6
CONTINUOUS
 62
1
 10
202.234292
 20
152.908370
 11
201.862441
 21
154.894329
  0
LINE
  8
0
  6
CONTINUOUS
 62
1
 10
201.862441
 20
154.894329
 11
201.456545
 21
154.756661
  0
LINE
  8
0
  6
CONTINUOUS
 62
1
 10
201.456545
 20
154.756661
 11
201.958957
 21
153.720161
  0
LINE
  8
0
  6
CONTINUOUS
 62
1
 10
201.958957
 20
153.720161
 11
201.727142
 21
154.848439
  0
LINE
  8
0
  6
CONTINUOUS
 62
1
 10
201.727142
 20
154.848439
 11
201.321246
 21
154.710772
  0
LINE
  8
0
  6
CONTINUOUS
 62
1
 10
201.321246
 20
154.710772
 11
202.234292
 21
152.908370
  0
LINE
  8
0
  6
CONTINUOUS
 62
1
 10
176.886284
 20
108.071634
 11
190.534262
 21
123.084409
  0
LINE
  8
0
  6
CONTINUOUS
 62
1
 10
190.534262
 20
123.084409
 11
188.977379
 21
121.796619
  0
LINE
  8
0
  6
CONTINUOUS
 62
1
 10
188.977379
 20
121.796619
 11
189.294521
 21
121.508307
  0
LINE
  8
0
  6
CONTINUOUS
 62
1
 10
189.294521
 20
121.508307
 11
189.957638
 21
122.450124
  0
LINE
  8
0
  6
CONTINUOUS
 62
1
 10
189.957638
 20
122.450124
 11
189.083093
 21
121.700515
  0
LINE
  8
0
  6
CONTINUOUS
 62
1
 10
189.083093
 20
121.700515
 11
189.400235
 21
121.412203
  0
LINE
  8
0
  6
CONTINUOUS
 62
1
 10
189.400235
 20
121.412203
 11
190.534262
 21
123.084409
  0
LINE
  8
0
  6
CONTINUOUS
 62
1
 10
206.651873
 20
111.256162
 11
200.152836
 21
117.479052
  0
LINE
  8
0
  6
CONTINUOUS
 62
1
 10
200.152836
 20
117.479052
 11
201.399819
 21
115.889480
  0
LINE
  8
0
  6
CONTINUOUS
 62
1
 10
201.399819
 20
115.889480
 11
201.696220
 21
116.199034
  0
LINE
  8
0
  6
CONTINUOUS
 62
1
 10
201.696220
 20
116.199034
 11
200.771943
 21
116.886251
  0
LINE
  8
0
  6
CONTINUOUS
 62
1
 10
200.771943
 20
116.886251
 11
201.498620
 21
115.992665
  0
LINE
  8
0
  6
CONTINUOUS
 62
1
 10
201.498620
 20
115.992665
 11
201.795020
 21
116.302218
  0
LINE
  8
0
  6
CONTINUOUS
 62
1
 10
201.795020
 20
116.302218
 11
200.152836
 21
117.479052
  0
TEXT
  8
0
  6
CONTINUOUS
 62
1
 10
176.085836
 20
85.206078
 40
2.000000
  1
SETTING BLOCK
 50
90.000000
 41
1.000000
 51
0.000000
  7
STANDARD
  0
TEXT
  8
0
  6
CONTINUOUS
 62
1
 10
180.085836
 20
85.206078
 40
2.000000
  1
BY GLAZIER
 50
90.000000
 41
1.000000
 51
0.000000
  7
STANDARD
  0
TEXT
  8
0
  6
CONTINUOUS
 62
1
 10
206.358781
 20
84.984045
 40
2.000000
  1
0.09  PRE-SHIM
 50
90.000000
 41
1.000000
 51
0.000000
  7
STANDARD
  0
TEXT
  8
0
  6
CONTINUOUS
 62
1
 10
210.358781
 20
84.984045
 40
2.000000
  1
GLAZING TAPE
 50
90.000000
 41
1.000000
 51
0.000000
  7
STANDARD
  0
TEXT
  8
0
  6
CONTINUOUS
 62
1
 10
184.744945
 20
162.815708
 40
2.000000
  1
GLAZING BEAD
 50
90.000000
 41
1.000000
 51
0.000000
  7
STANDARD
  0
TEXT
  8
0
  6
CONTINUOUS
 62
1
 10
188.744945
 20
162.815708
 40
2.000000
  1
BY CRITTALL
 50
90.000000
 41
1.000000
 51
0.000000
  7
STANDARD
  0
TEXT
  8
0
  6
CONTINUOUS
 62
1
 10
198.014604
 20
162.815708
 40
2.000000
  1
VISION STRIP
 50
90.000000
 41
1.000000
 51
0.000000
  7
STANDARD
  0
TEXT
  8
0
  6
CONTINUOUS
 62
1
 10
202.014604
 20
162.815708
 40
2.000000
  1
BY CRITTALL
 50
90.000000
 41
1.000000
 51
0.000000
  7
STANDARD
  0
TEXT
  8
0
  6
CONTINUOUS
 62
1
 10
40.163435
 20
74.770899
 40
3.000000
  1
UK GLAZING DETAILS
 50
90.000000
 41
1.000000
 51
0.000000
  7
STANDARD
  0
TEXT
  8
0
  6
CONTINUOUS
 62
1
 10
145.163435
 20
73.835705
 40
3.000000
  1
USA GLAZING DETAILS
 50
90.000000
 41
1.000000
 51
0.000000
  7
STANDARD
  0
LINE
  8
0
  6
CONTINUOUS
 62
1
 10
204.383546
 20
91.507419
 11
205.481883
 21
91.507419
  0
LINE
  8
0
  6
CONTINUOUS
 62
1
 10
205.481883
 20
92.007419
 11
204.383546
 21
92.007419
  0
LINE
  8
0
  6
CONTINUOUS
 62
1
 10
146.163435
 20
122.637495
 11
146.163435
 21
73.835705
  0
LINE
  8
0
  6
CONTINUOUS
 62
1
 10
41.163435
 20
120.367412
 11
41.163435
 21
74.770899
  0
TEXT
  8
0
  6
CONTINUOUS
 62
1
 10
54.163435
 20
43.496189
 40
3.000000
  1
SINGLE GLAZED
 50
90.000000
 41
1.000000
 51
0.000000
  7
STANDARD
  0
TEXT
  8
0
  6
CONTINUOUS
 62
1
 10
59.163435
 20
53.456745
 40
3.000000
  1
6.0mm
 50
90.000000
 41
1.000000
 51
0.000000
  7
STANDARD
  0
LINE
  8
0
  6
CONTINUOUS
 62
1
 10
55.163435
 20
76.144170
 11
55.163435
 21
43.496189
  0
LINE
  8
0
  6
CONTINUOUS
 62
1
 10
60.163435
 20
66.183614
 11
60.163435
 21
53.456745
  0
TEXT
  8
0
  6
CONTINUOUS
 62
1
 10
54.163435
 20
117.784404
 40
3.000000
  1
DOUBLE GLAZED
 50
90.000000
 41
1.000000
 51
0.000000
  7
STANDARD
  0
TEXT
  8
0
  6
CONTINUOUS
 62
1
 10
59.163435
 20
127.816563
 40
3.000000
  1
28.0mm
 50
90.000000
 41
1.000000
 51
0.000000
  7
STANDARD
  0
LINE
  8
0
  6
CONTINUOUS
 62
1
 10
55.163435
 20
152.995874
 11
55.163435
 21
117.784404
  0
LINE
  8
0
  6
CONTINUOUS
 62
1
 10
60.163435
 20
142.963715
 11
60.163435
 21
127.816563
  0
TEXT
  8
0
  6
CONTINUOUS
 62
1
 10
159.163435
 20
43.496189
 40
3.000000
  1
SINGLE GLAZED
 50
90.000000
 41
1.000000
 51
0.000000
  7
STANDARD
  0
TEXT
  8
0
  6
CONTINUOUS
 62
1
 10
164.163435
 20
53.456745
 40
3.000000
  1
(1/4 )
 50
90.000000
 41
1.000000
 51
0.000000
  7
STANDARD
  0
LINE
  8
0
  6
CONTINUOUS
 62
1
 10
160.163435
 20
76.144170
 11
160.163435
 21
43.496189
  0
LINE
  8
0
  6
CONTINUOUS
 62
1
 10
165.163435
 20
66.921082
 11
165.163435
 21
53.456745
  0
LINE
  8
0
  6
CONTINUOUS
 62
1
 10
161.139016
 20
63.254936
 11
162.502122
 21
63.254936
  0
LINE
  8
0
  6
CONTINUOUS
 62
1
 10
162.502122
 20
63.754936
 11
161.139016
 21
63.754936
  0
TEXT
  8
0
  6
CONTINUOUS
 62
1
 10
159.163435
 20
117.899691
 40
3.000000
  1
DOUBLE GLAZED
 50
90.000000
 41
1.000000
 51
0.000000
  7
STANDARD
  0
LINE
  8
0
  6
CONTINUOUS
 62
1
 10
160.163435
 20
153.058413
 11
160.163435
 21
117.899691
  0
TEXT
  8
0
  6
CONTINUOUS
 62
1
 10
164.163435
 20
126.384228
 40
3.000000
  1
(1 1/8 )
 50
90.000000
 41
1.000000
 51
0.000000
  7
STANDARD
  0
LINE
  8
0
  6
CONTINUOUS
 62
1
 10
165.163435
 20
144.573876
 11
165.163435
 21
126.384228
  0
LINE
  8
0
  6
CONTINUOUS
 62
1
 10
161.139016
 20
140.907730
 11
162.502122
 21
140.907730
  0
LINE
  8
0
  6
CONTINUOUS
 62
1
 10
162.502122
 20
141.407730
 11
161.139016
 21
141.407730
  0
LINE
  8
0
  6
CONTINUOUS
 62
1
 10
205.355704
 20
119.283827
 11
205.355704
 21
120.373064
  0
LINE
  8
0
  6
CONTINUOUS
 62
1
 10
193.355704
 20
120.373064
 11
193.355704
 21
118.533827
  0
LINE
  8
0
  6
CONTINUOUS
 62
1
 10
204.605704
 20
121.123064
 11
194.105704
 21
121.123064
  0
ARC
  8
0
  6
CONTINUOUS
 62
1
 10
194.105704
 20
120.373064
 40
0.750000
 50
90.000000
 51
180.000000
  0
ARC
  8
0
  6
CONTINUOUS
 62
1
 10
204.605704
 20
120.373064
 40
0.750000
 50
0.000000
 51
90.000000
  0
ARC
  8
0
  6
CONTINUOUS
 62
1
 10
204.605704
 20
119.283827
 40
0.750000
 50
303.903782
 51
0.000000
  0
LINE
  8
0
  6
CONTINUOUS
 62
1
 10
203.536705
 20
43.020216
 11
204.836705
 21
43.020216
  0
LINE
  8
0
  6
CONTINUOUS
 62
1
 10
205.355704
 20
43.624991
 11
205.355704
 21
44.714228
  0
LINE
  8
0
  6
CONTINUOUS
 62
1
 10
193.355704
 20
44.714228
 11
193.355704
 21
42.874991
  0
ARC
  8
0
  6
CONTINUOUS
 62
1
 10
194.105704
 20
44.714228
 40
0.750000
 50
110.037728
 51
180.000000
  0
ARC
  8
0
  6
CONTINUOUS
 62
1
 10
204.605704
 20
44.714228
 40
0.750000
 50
0.000000
 51
69.472614
  0
ARC
  8
0
  6
CONTINUOUS
 62
1
 10
204.605704
 20
43.624991
 40
0.750000
 50
303.903782
 51
0.000000
  0
LINE
  8
0
  6
CONTINUOUS
 62
1
 10
81.558096
 20
133.526655
 11
81.558096
 21
137.526655
  0
LINE
  8
0
  6
CONTINUOUS
 62
1
 10
186.231366
 20
137.526655
 11
186.231366
 21
133.526655
  0
LINE
  8
0
  6
CONTINUOUS
 62
1
 10
186.245645
 20
61.820197
 11
186.245645
 21
57.820197
  0
LINE
  8
0
  6
CONTINUOUS
 62
1
 10
81.572375
 20
61.820197
 11
81.572375
 21
57.820197
  0
TEXT
  8
0
  6
CONTINUOUS
 62
1
 10
286.988533
 20
185.015610
 40
7.500000
  1
D1
 50
90.000000
 41
1.000000
 51
0.000000
  7
STANDARD
  0
ENDSEC
  0
EOF
