  0
SECTION
  2
HEADER
  9
$LIMMIN
 10
0.000000
 20
0.000000
  9
$LIMMAX
 10
297.301779
 20
210.224104
  9
$EXTMIN
 10
0.000000
 20
0.000000
  9
$EXTMAX
 10
297.301779
 20
210.224104
  9
$ANGBASE
 50
0.0
  9
$ANGDIR
 70
0
  9
$DIMRND
 40
0.100000
  9
$DIMSE1
 70
0
  9
$DIMSE2
 70
0
  9
$DIMTXT
 40
3.000000
  9
$LTSCALE
 40
1.000000
  9
$LUPREC
 70
3
  9
$AUPREC
 70
3
  9
$PDMODE
 70
2
  9
$PDSIZE
 40
1.486509
  0
ENDSEC
  0
SECTION
  2
TABLES
  0
TABLE
  2
VPORT
  70
1
  0
VPORT
  2
*ACTIVE
 70
0
  10
0.0
 20
0.0
 11
1.0
 21
1.0
 12
594.0
 22
420.0
 13
0.0
 23
0.0
 14
10.0
 24
10.0
 15
10.0
 25
10.0
 16
0.0
 26
0.0
 36
1.0
 17
594.0
 27
420.0
 37
100.0
 40
1000.0
 41
1.0
 42
50.0
 43
0.0
 44
0.0
 50
0.0
 51
0.0
 71
0
 72
2000
 73
1
 74
3
 75
0
 76
0
 77
0
 78
1
  0
ENDTAB
  0
TABLE
  2
LTYPE
 70
4
  0
LTYPE
  2
CONTINUOUS
 70
0
  3
Solid line
 72
65
 73
0
 40
0.0
  0
LTYPE
  2
DASHED
 70
0
  3
Dashed line
 72
65
 73
2
 40
6.000000
 49
3.000000
 49
-3.000000
  0
LTYPE
  2
CENTER
 70
0
  3
Chain line
 72
65
 73
4
 40
24.000000
 49
15.000000
 49
-3.000000
 49
3.000000
 49
-3.000000
  0
LTYPE
  2
RANDOM
 70
0
  3
Random line
 72
65
 73
4
 40
22.500000
 49
6.000000
 49
-3.000000
 49
4.500000
 49
-9.000000
  0
ENDTAB
  0
TABLE
  2
STYLE
 70
9
  0
STYLE
  2
STANDARD
 40
0
 41
1.0
 50
0.0
 71
0
 42
0
  3
simplex
  4

 70
0
  0
ENDTAB
  0
TABLE
  2
LAYER
 70
2
  0
LAYER
  2
0
 70
0
 62
7
  6
CONTINUOUS
  0
LAYER
  2
0
 62
1
  6
CONTINUOUS
 70
0
  0
ENDTAB
  0
ENDSEC
  0
SECTION
  2
BLOCKS
  0
ENDSEC
  0
SECTION
  2
ENTITIES
  0
LINE
  8
0
  6
CONTINUOUS
 62
1
 10
191.365632
 20
129.566197
 11
234.311126
 21
129.566113
  0
LINE
  8
0
  6
CONTINUOUS
 62
1
 10
166.797010
 20
129.566146
 11
189.365632
 21
129.566146
  0
LINE
  8
0
  6
CONTINUOUS
 62
1
 10
191.365632
 20
127.566146
 11
191.365632
 21
126.540303
  0
LINE
  8
0
  6
CONTINUOUS
 62
1
 10
164.765632
 20
83.566146
 11
155.365632
 21
83.566146
  0
LINE
  8
0
  6
CONTINUOUS
 62
1
 10
162.375522
 20
113.566146
 11
154.331342
 21
113.566146
  0
LINE
  8
0
  6
CONTINUOUS
 62
1
 10
158.365632
 20
107.460165
 11
158.365632
 21
89.672128
  0
LINE
  8
0
  6
CONTINUOUS
 62
1
 10
153.365632
 20
85.566146
 11
153.365632
 21
86.600457
  0
LINE
  8
0
  6
CONTINUOUS
 62
1
 10
153.365632
 20
110.531835
 11
153.365632
 21
112.566146
  0
LINE
  8
0
  6
CONTINUOUS
 62
1
 10
168.865632
 20
110.540303
 11
168.865632
 21
123.028649
  0
LINE
  8
0
  6
CONTINUOUS
 62
1
 10
162.365632
 20
94.779929
 11
162.365632
 21
107.447624
  0
LINE
  8
0
  6
CONTINUOUS
 62
1
 10
165.265632
 20
84.249815
 11
165.265632
 21
84.066146
  0
LINE
  8
0
  6
CONTINUOUS
 62
1
 10
167.891809
 20
109.540646
 11
164.313278
 21
109.446939
  0
ARC
  8
0
  6
CONTINUOUS
 62
1
 10
164.365632
 20
107.447624
 40
2.000000
 50
91.500000
 51
180.000000
  0
LINE
  8
0
  6
CONTINUOUS
 62
1
 10
162.865632
 20
86.292450
 11
162.865632
 21
88.908194
  0
LINE
  8
0
  6
CONTINUOUS
 62
1
 10
166.065632
 20
90.940303
 11
166.065632
 21
91.559255
  0
LINE
  8
0
  6
CONTINUOUS
 62
1
 10
190.391809
 20
125.540646
 11
170.813278
 21
125.027964
  0
LINE
  8
0
  6
CONTINUOUS
 62
1
 10
164.798228
 20
127.635945
 11
164.374304
 21
115.496347
  0
LINE
  8
0
  6
CONTINUOUS
 62
1
 10
154.330733
 20
109.532444
 11
156.435431
 21
109.458946
  0
LINE
  8
0
  6
CONTINUOUS
 62
1
 10
154.330733
 20
87.599848
 11
156.435431
 21
87.673346
  0
LINE
  8
0
  6
CONTINUOUS
 62
1
 10
164.352788
 20
85.246010
 11
163.778477
 21
85.296255
  0
LINE
  8
0
  6
CONTINUOUS
 62
1
 10
165.091809
 20
89.940646
 11
163.839455
 21
89.907852
  0
ARC
  8
0
  6
CONTINUOUS
 62
1
 10
189.365632
 20
127.566146
 40
2.000000
 50
0.000000
 51
90.000000
  0
ARC
  8
0
  6
CONTINUOUS
 62
1
 10
166.797010
 20
127.566146
 40
2.000000
 50
90.000000
 51
178.000000
  0
ARC
  8
0
  6
CONTINUOUS
 62
1
 10
162.375522
 20
115.566146
 40
2.000000
 50
270.000000
 51
358.000000
  0
ARC
  8
0
  6
CONTINUOUS
 62
1
 10
156.365632
 20
107.460165
 40
2.000000
 50
0.000000
 51
88.000000
  0
ARC
  8
0
  6
CONTINUOUS
 62
1
 10
156.365632
 20
89.672128
 40
2.000000
 50
272.000000
 51
0.000000
  0
ARC
  8
0
  6
CONTINUOUS
 62
1
 10
155.365632
 20
85.566146
 40
2.000000
 50
180.000000
 51
270.000000
  0
ARC
  8
0
  6
CONTINUOUS
 62
1
 10
170.865632
 20
123.028649
 40
2.000000
 50
91.500000
 51
180.000000
  0
ARC
  8
0
  6
CONTINUOUS
 62
1
 10
190.365632
 20
126.540303
 40
1.000000
 50
271.500000
 51
0.000000
  0
ARC
  8
0
  6
CONTINUOUS
 62
1
 10
154.365632
 20
110.531835
 40
1.000000
 50
180.000000
 51
268.000000
  0
ARC
  8
0
  6
CONTINUOUS
 62
1
 10
154.365632
 20
86.600457
 40
1.000000
 50
92.000000
 51
180.000000
  0
ARC
  8
0
  6
CONTINUOUS
 62
1
 10
167.865632
 20
110.540303
 40
1.000000
 50
271.500000
 51
0.000000
  0
ARC
  8
0
  6
CONTINUOUS
 62
1
 10
165.065632
 20
91.559255
 40
1.000000
 50
0.000000
 51
77.799531
  0
ARC
  8
0
  6
CONTINUOUS
 62
1
 10
165.065632
 20
90.940303
 40
1.000000
 50
271.500000
 51
0.000000
  0
ARC
  8
0
  6
CONTINUOUS
 62
1
 10
163.865632
 20
88.908194
 40
1.000000
 50
91.500000
 51
180.000000
  0
ARC
  8
0
  6
CONTINUOUS
 62
1
 10
163.865632
 20
86.292450
 40
1.000000
 50
180.000000
 51
265.000000
  0
ARC
  8
0
  6
CONTINUOUS
 62
1
 10
164.265632
 20
84.249815
 40
1.000000
 50
0.000000
 51
85.000000
  0
ARC
  8
0
  6
CONTINUOUS
 62
1
 10
164.765632
 20
84.066146
 40
0.500000
 50
270.000000
 51
0.000000
  0
LINE
  8
0
  6
CONTINUOUS
 62
1
 10
158.365632
 20
81.377091
 11
158.365632
 21
82.402934
  0
LINE
  8
0
  6
CONTINUOUS
 62
1
 10
183.965632
 20
125.377091
 11
190.365632
 21
125.377091
  0
LINE
  8
0
  6
CONTINUOUS
 62
1
 10
189.399944
 20
79.377091
 11
160.365632
 21
79.377091
  0
LINE
  8
0
  6
CONTINUOUS
 62
1
 10
186.365632
 20
86.058610
 11
186.365632
 21
114.163307
  0
LINE
  8
0
  6
CONTINUOUS
 62
1
 10
191.365632
 20
97.877091
 11
191.365632
 21
124.377091
  0
LINE
  8
0
  6
CONTINUOUS
 62
1
 10
191.443068
 20
82.577091
 11
193.261635
 21
82.577091
  0
LINE
  8
0
  6
CONTINUOUS
 62
1
 10
203.865632
 20
90.902934
 11
203.865632
 21
90.010836
  0
LINE
  8
0
  6
CONTINUOUS
 62
1
 10
193.818195
 20
82.746283
 11
203.422193
 21
89.180029
  0
LINE
  8
0
  6
CONTINUOUS
 62
1
 10
190.365632
 20
96.877091
 11
190.365632
 21
93.204757
  0
LINE
  8
0
  6
CONTINUOUS
 62
1
 10
190.365632
 20
96.877091
 11
191.365632
 21
97.877091
  0
LINE
  8
0
  6
CONTINUOUS
 62
1
 10
183.465632
 20
124.693422
 11
183.465632
 21
124.877091
  0
LINE
  8
0
  6
CONTINUOUS
 62
1
 10
185.865632
 20
122.650787
 11
185.865632
 21
120.035042
  0
LINE
  8
0
  6
CONTINUOUS
 62
1
 10
182.665632
 20
118.002934
 11
182.665632
 21
117.383982
  0
LINE
  8
0
  6
CONTINUOUS
 62
1
 10
183.454299
 20
116.406568
 11
184.788298
 21
116.118136
  0
LINE
  8
0
  6
CONTINUOUS
 62
1
 10
184.378477
 20
123.697227
 11
184.952788
 21
123.646981
  0
LINE
  8
0
  6
CONTINUOUS
 62
1
 10
183.639455
 20
119.002591
 11
184.891809
 21
119.035385
  0
ARC
  8
0
  6
CONTINUOUS
 62
1
 10
184.365632
 20
114.163307
 40
2.000000
 50
0.000000
 51
77.799531
  0
ARC
  8
0
  6
CONTINUOUS
 62
1
 10
183.665632
 20
117.383982
 40
1.000000
 50
180.000000
 51
257.799531
  0
ARC
  8
0
  6
CONTINUOUS
 62
1
 10
183.665632
 20
118.002934
 40
1.000000
 50
91.500000
 51
180.000000
  0
ARC
  8
0
  6
CONTINUOUS
 62
1
 10
184.865632
 20
120.035042
 40
1.000000
 50
271.500000
 51
0.000000
  0
ARC
  8
0
  6
CONTINUOUS
 62
1
 10
184.865632
 20
122.650787
 40
1.000000
 50
0.000000
 51
85.000000
  0
ARC
  8
0
  6
CONTINUOUS
 62
1
 10
184.465632
 20
124.693422
 40
1.000000
 50
180.000000
 51
265.000000
  0
ARC
  8
0
  6
CONTINUOUS
 62
1
 10
183.965632
 20
124.877091
 40
0.500000
 50
90.000000
 51
180.000000
  0
LINE
  8
0
  6
CONTINUOUS
 62
1
 10
202.891809
 20
91.902591
 11
191.339455
 21
92.205100
  0
LINE
  8
0
  6
CONTINUOUS
 62
1
 10
159.339455
 20
83.402591
 11
184.417986
 21
84.059295
  0
LINE
  8
0
  6
CONTINUOUS
 62
1
 10
190.399334
 20
80.342191
 11
190.443677
 21
81.611990
  0
ARC
  8
0
  6
CONTINUOUS
 62
1
 10
160.365632
 20
81.377091
 40
2.000000
 50
180.000000
 51
270.000000
  0
ARC
  8
0
  6
CONTINUOUS
 62
1
 10
184.365632
 20
86.058610
 40
2.000000
 50
271.500000
 51
0.000000
  0
ARC
  8
0
  6
CONTINUOUS
 62
1
 10
159.365632
 20
82.402934
 40
1.000000
 50
91.500000
 51
180.000000
  0
ARC
  8
0
  6
CONTINUOUS
 62
1
 10
189.399944
 20
80.377091
 40
1.000000
 50
270.000000
 51
358.000000
  0
ARC
  8
0
  6
CONTINUOUS
 62
1
 10
191.443068
 20
81.577091
 40
1.000000
 50
90.000000
 51
178.000000
  0
ARC
  8
0
  6
CONTINUOUS
 62
1
 10
193.261635
 20
83.577091
 40
1.000000
 50
270.000000
 51
303.818246
  0
ARC
  8
0
  6
CONTINUOUS
 62
1
 10
202.865632
 20
90.010836
 40
1.000000
 50
303.818246
 51
0.000000
  0
ARC
  8
0
  6
CONTINUOUS
 62
1
 10
202.865632
 20
90.902934
 40
1.000000
 50
0.000000
 51
88.500000
  0
ARC
  8
0
  6
CONTINUOUS
 62
1
 10
191.365632
 20
93.204757
 40
1.000000
 50
180.000000
 51
268.500000
  0
ARC
  8
0
  6
CONTINUOUS
 62
1
 10
190.365632
 20
124.377091
 40
1.000000
 50
0.000000
 51
90.000000
  0
LINE
  8
0
  6
CONTINUOUS
 62
1
 10
165.275653
 20
92.587881
 11
163.941655
 21
92.876313
  0
ARC
  8
0
  6
CONTINUOUS
 62
1
 10
164.364320
 20
94.831141
 40
2.000000
 50
180.000000
 51
257.799531
  0
ARC
  8
0
  6
CONTINUOUS
 62
1
 10
165.064320
 20
91.610466
 40
1.000000
 50
0.000000
 51
77.799531
  0
LINE
  8
0
  6
CONTINUOUS
 62
1
 10
165.321662
 20
85.480868
 11
163.604602
 21
85.783632
  0
LINE
  8
0
  6
CONTINUOUS
 62
1
 10
165.528250
 20
89.944441
 11
163.604602
 21
89.605250
  0
LINE
  8
0
  6
CONTINUOUS
 62
1
 10
165.528250
 20
85.234666
 11
165.528250
 21
83.564650
  0
ARC
  8
0
  6
CONTINUOUS
 62
1
 10
165.278250
 20
85.234666
 40
0.250000
 50
0.000000
 51
80.000000
  0
LINE
  8
0
  6
CONTINUOUS
 62
1
 10
162.778250
 20
86.768440
 11
162.778250
 21
88.620442
  0
ARC
  8
0
  6
CONTINUOUS
 62
1
 10
163.778250
 20
88.620442
 40
1.000000
 50
100.000000
 51
180.000000
  0
ARC
  8
0
  6
CONTINUOUS
 62
1
 10
163.778250
 20
86.768440
 40
1.000000
 50
180.000000
 51
260.000000
  0
LINE
  8
0
  6
CONTINUOUS
 62
1
 10
166.028250
 20
91.194441
 11
166.028250
 21
90.194441
  0
LINE
  8
0
  6
CONTINUOUS
 62
1
 10
167.028250
 20
83.603929
 11
167.028250
 21
91.194441
  0
ARC
  8
0
  6
CONTINUOUS
 62
1
 10
166.528250
 20
91.194441
 40
0.500000
 50
0.000000
 51
90.000000
  0
ARC
  8
0
  6
CONTINUOUS
 62
1
 10
166.528250
 20
91.194441
 40
0.500000
 50
90.000000
 51
180.000000
  0
LINE
  8
0
  6
CONTINUOUS
 62
1
 10
165.528250
 20
89.944441
 11
165.778250
 21
89.944441
  0
ARC
  8
0
  6
CONTINUOUS
 62
1
 10
165.778250
 20
90.194441
 40
0.250000
 50
270.000000
 51
0.000000
  0
LINE
  8
0
  6
CONTINUOUS
 62
1
 10
183.460956
 20
124.677900
 11
183.460956
 21
124.861569
  0
LINE
  8
0
  6
CONTINUOUS
 62
1
 10
178.015605
 20
124.327548
 11
178.015605
 21
123.362465
  0
LINE
  8
0
  6
CONTINUOUS
 62
1
 10
178.985605
 20
123.362465
 11
178.985605
 21
123.842548
  0
LINE
  8
0
  6
CONTINUOUS
 62
1
 10
182.477605
 20
120.452465
 11
182.477605
 21
124.775815
  0
ARC
  8
0
  6
CONTINUOUS
 62
1
 10
182.962605
 20
124.775815
 40
0.485000
 50
90.000000
 51
180.000000
  0
ARC
  8
0
  6
CONTINUOUS
 62
1
 10
182.962605
 20
124.775815
 40
0.485000
 50
0.000000
 51
90.000000
  0
LINE
  8
0
  6
CONTINUOUS
 62
1
 10
184.031762
 20
118.997465
 11
182.380605
 21
118.997465
  0
ARC
  8
0
  6
CONTINUOUS
 62
1
 10
182.380605
 20
123.362465
 40
4.365000
 50
180.000000
 51
270.000000
  0
LINE
  8
0
  6
CONTINUOUS
 62
1
 10
180.631912
 20
120.452465
 11
182.477605
 21
120.452465
  0
ARC
  8
0
  6
CONTINUOUS
 62
1
 10
182.380605
 20
123.362465
 40
3.395000
 50
180.000000
 51
238.997281
  0
LINE
  8
0
  6
CONTINUOUS
 62
1
 10
179.470605
 20
124.327548
 11
180.111896
 21
124.327548
  0
ARC
  8
0
  6
CONTINUOUS
 62
1
 10
180.095876
 20
123.842548
 40
0.485000
 50
23.578178
 51
90.000000
  0
ARC
  8
0
  6
CONTINUOUS
 62
1
 10
180.734138
 20
124.586668
 40
0.485000
 50
284.338634
 51
50.097218
  0
LINE
  8
0
  6
CONTINUOUS
 62
1
 10
180.540386
 20
124.036548
 11
180.854249
 21
124.116776
  0
ARC
  8
0
  6
CONTINUOUS
 62
1
 10
180.111896
 20
123.842548
 40
1.455000
 50
50.097218
 51
68.960530
  0
ARC
  8
0
  6
CONTINUOUS
 62
1
 10
179.470605
 20
123.842548
 40
0.485000
 50
90.000000
 51
180.000000
  0
ARC
  8
0
  6
CONTINUOUS
 62
1
 10
178.985605
 20
124.327548
 40
0.970000
 50
115.841933
 51
180.000000
  0
LINE
  8
0
  6
CONTINUOUS
 62
1
 10
178.562791
 20
125.200548
 11
180.634257
 21
125.200548
  0
LINE
  8
0
  6
CONTINUOUS
 62
1
 10
191.365632
 20
97.877091
 11
191.365632
 21
124.377091
  0
ARC
  8
0
  6
CONTINUOUS
 62
1
 10
190.365632
 20
124.377091
 40
1.000000
 50
0.000000
 51
90.000000
  0
ARC
  8
0
  6
CONTINUOUS
 62
1
 10
154.365632
 20
112.566146
 40
1.000000
 50
92.000000
 51
180.000000
  0
LINE
  8
0
  6
CONTINUOUS
 62
1
 10
17.709024
 20
175.875224
 11
22.771524
 21
175.875224
  0
LINE
  8
0
  6
CONTINUOUS
 62
1
 10
17.709024
 20
188.868974
 11
22.771524
 21
188.868974
  0
LINE
  8
0
  6
CONTINUOUS
 62
1
 10
22.771524
 20
189.881474
 11
18.813570
 21
189.881474
  0
LINE
  8
0
  6
CONTINUOUS
 62
1
 10
22.771524
 20
174.862724
 11
18.813570
 21
174.862724
  0
LINE
  8
0
  6
CONTINUOUS
 62
1
 10
13.152774
 20
184.692412
 11
13.152774
 21
180.051787
  0
LINE
  8
0
  6
CONTINUOUS
 62
1
 10
14.165274
 20
179.123662
 11
14.165274
 21
181.865849
  0
LINE
  8
0
  6
CONTINUOUS
 62
1
 10
14.165274
 20
182.878349
 11
14.165274
 21
185.620537
  0
LINE
  8
0
  6
CONTINUOUS
 62
1
 10
13.152774
 20
180.051787
 11
10.621524
 21
182.372099
  0
LINE
  8
0
  6
CONTINUOUS
 62
1
 10
22.771524
 20
171.234599
 11
18.813570
 21
174.862724
  0
LINE
  8
0
  6
CONTINUOUS
 62
1
 10
16.696524
 20
176.803349
 11
14.165274
 21
179.123662
  0
LINE
  8
0
  6
CONTINUOUS
 62
1
 10
18.813570
 20
189.881474
 11
22.771524
 21
193.509599
  0
LINE
  8
0
  6
CONTINUOUS
 62
1
 10
10.621524
 20
182.372099
 11
13.152774
 21
184.692412
  0
LINE
  8
0
  6
CONTINUOUS
 62
1
 10
14.165274
 20
185.620537
 11
16.696524
 21
187.940849
  0
LINE
  8
0
  6
CONTINUOUS
 62
1
 10
22.771524
 20
174.862724
 11
22.771524
 21
171.234599
  0
LINE
  8
0
  6
CONTINUOUS
 62
1
 10
22.771524
 20
181.865849
 11
22.771524
 21
175.875224
  0
LINE
  8
0
  6
CONTINUOUS
 62
1
 10
22.771524
 20
193.509599
 11
22.771524
 21
189.881474
  0
LINE
  8
0
  6
CONTINUOUS
 62
1
 10
22.771524
 20
188.868974
 11
22.771524
 21
182.878349
  0
LINE
  8
0
  6
CONTINUOUS
 62
1
 10
22.771524
 20
181.865849
 11
17.709024
 21
181.865849
  0
LINE
  8
0
  6
CONTINUOUS
 62
1
 10
16.696524
 20
181.865849
 11
14.165274
 21
181.865849
  0
LINE
  8
0
  6
CONTINUOUS
 62
1
 10
22.771524
 20
182.878349
 11
17.709024
 21
182.878349
  0
LINE
  8
0
  6
CONTINUOUS
 62
1
 10
16.696524
 20
182.878349
 11
14.165274
 21
182.878349
  0
LINE
  8
0
  6
CONTINUOUS
 62
1
 10
16.696524
 20
187.940849
 11
16.696524
 21
182.878349
  0
LINE
  8
0
  6
CONTINUOUS
 62
1
 10
16.696524
 20
181.865849
 11
16.696524
 21
176.803349
  0
LINE
  8
0
  6
CONTINUOUS
 62
1
 10
17.709024
 20
175.875224
 11
17.709024
 21
181.865849
  0
LINE
  8
0
  6
CONTINUOUS
 62
1
 10
17.709024
 20
182.878349
 11
17.709024
 21
188.868974
  0
LINE
  8
0
  6
CONTINUOUS
 62
1
 10
12.950274
 20
180.237412
 11
12.950274
 21
184.506787
  0
LINE
  8
0
  6
CONTINUOUS
 62
1
 10
12.747774
 20
184.321162
 11
12.747774
 21
180.423037
  0
LINE
  8
0
  6
CONTINUOUS
 62
1
 10
12.545274
 20
180.608662
 11
12.545274
 21
184.135537
  0
LINE
  8
0
  6
CONTINUOUS
 62
1
 10
12.342774
 20
183.949912
 11
12.342774
 21
180.794287
  0
LINE
  8
0
  6
CONTINUOUS
 62
1
 10
12.140274
 20
180.979912
 11
12.140274
 21
183.764287
  0
LINE
  8
0
  6
CONTINUOUS
 62
1
 10
11.937774
 20
183.578662
 11
11.937774
 21
181.165537
  0
LINE
  8
0
  6
CONTINUOUS
 62
1
 10
11.735274
 20
181.351162
 11
11.735274
 21
183.393037
  0
LINE
  8
0
  6
CONTINUOUS
 62
1
 10
11.532774
 20
183.207412
 11
11.532774
 21
181.536787
  0
LINE
  8
0
  6
CONTINUOUS
 62
1
 10
11.330274
 20
181.722412
 11
11.330274
 21
183.021787
  0
LINE
  8
0
  6
CONTINUOUS
 62
1
 10
11.127774
 20
182.836162
 11
11.127774
 21
181.908037
  0
LINE
  8
0
  6
CONTINUOUS
 62
1
 10
10.925274
 20
182.093662
 11
10.925274
 21
182.650537
  0
LINE
  8
0
  6
CONTINUOUS
 62
1
 10
10.722774
 20
182.464912
 11
10.722774
 21
182.279287
  0
LINE
  8
0
  6
CONTINUOUS
 62
1
 10
22.366524
 20
175.875224
 11
22.366524
 21
181.865849
  0
LINE
  8
0
  6
CONTINUOUS
 62
1
 10
21.961524
 20
181.865849
 11
21.961524
 21
175.875224
  0
LINE
  8
0
  6
CONTINUOUS
 62
1
 10
21.556524
 20
175.875224
 11
21.556524
 21
181.865849
  0
LINE
  8
0
  6
CONTINUOUS
 62
1
 10
21.151524
 20
181.865849
 11
21.151524
 21
175.875224
  0
LINE
  8
0
  6
CONTINUOUS
 62
1
 10
20.746524
 20
175.875224
 11
20.746524
 21
181.865849
  0
LINE
  8
0
  6
CONTINUOUS
 62
1
 10
20.341524
 20
181.865849
 11
20.341524
 21
175.875224
  0
LINE
  8
0
  6
CONTINUOUS
 62
1
 10
19.936524
 20
175.875224
 11
19.936524
 21
181.865849
  0
LINE
  8
0
  6
CONTINUOUS
 62
1
 10
19.531524
 20
181.865849
 11
19.531524
 21
175.875224
  0
LINE
  8
0
  6
CONTINUOUS
 62
1
 10
19.126524
 20
175.875224
 11
19.126524
 21
181.865849
  0
LINE
  8
0
  6
CONTINUOUS
 62
1
 10
18.721524
 20
181.865849
 11
18.721524
 21
175.875224
  0
LINE
  8
0
  6
CONTINUOUS
 62
1
 10
18.316524
 20
175.875224
 11
18.316524
 21
181.865849
  0
LINE
  8
0
  6
CONTINUOUS
 62
1
 10
17.911524
 20
181.865849
 11
17.911524
 21
175.875224
  0
LINE
  8
0
  6
CONTINUOUS
 62
1
 10
22.366524
 20
182.878349
 11
22.366524
 21
188.868974
  0
LINE
  8
0
  6
CONTINUOUS
 62
1
 10
21.961524
 20
188.868974
 11
21.961524
 21
182.878349
  0
LINE
  8
0
  6
CONTINUOUS
 62
1
 10
21.556524
 20
182.878349
 11
21.556524
 21
188.868974
  0
LINE
  8
0
  6
CONTINUOUS
 62
1
 10
21.151524
 20
188.868974
 11
21.151524
 21
182.878349
  0
LINE
  8
0
  6
CONTINUOUS
 62
1
 10
21.151524
 20
188.868974
 11
21.151524
 21
182.878349
  0
LINE
  8
0
  6
CONTINUOUS
 62
1
 10
20.746524
 20
182.878349
 11
20.746524
 21
188.868974
  0
LINE
  8
0
  6
CONTINUOUS
 62
1
 10
20.341524
 20
188.868974
 11
20.341524
 21
182.878349
  0
LINE
  8
0
  6
CONTINUOUS
 62
1
 10
19.936524
 20
182.878349
 11
19.936524
 21
188.868974
  0
LINE
  8
0
  6
CONTINUOUS
 62
1
 10
19.531524
 20
188.868974
 11
19.531524
 21
182.878349
  0
LINE
  8
0
  6
CONTINUOUS
 62
1
 10
19.126524
 20
182.878349
 11
19.126524
 21
188.868974
  0
LINE
  8
0
  6
CONTINUOUS
 62
1
 10
18.721524
 20
188.868974
 11
18.721524
 21
182.878349
  0
LINE
  8
0
  6
CONTINUOUS
 62
1
 10
18.316524
 20
182.878349
 11
18.316524
 21
188.868974
  0
LINE
  8
0
  6
CONTINUOUS
 62
1
 10
17.911524
 20
188.868974
 11
17.911524
 21
182.878349
  0
LINE
  8
0
  6
CONTINUOUS
 62
1
 10
16.291524
 20
182.878349
 11
16.291524
 21
187.569599
  0
LINE
  8
0
  6
CONTINUOUS
 62
1
 10
15.886524
 20
187.198349
 11
15.886524
 21
182.878349
  0
LINE
  8
0
  6
CONTINUOUS
 62
1
 10
15.481524
 20
182.878349
 11
15.481524
 21
186.827099
  0
LINE
  8
0
  6
CONTINUOUS
 62
1
 10
15.076524
 20
186.455849
 11
15.076524
 21
182.878349
  0
LINE
  8
0
  6
CONTINUOUS
 62
1
 10
14.671524
 20
182.878349
 11
14.671524
 21
186.084599
  0
LINE
  8
0
  6
CONTINUOUS
 62
1
 10
14.266524
 20
185.713349
 11
14.266524
 21
182.878349
  0
LINE
  8
0
  6
CONTINUOUS
 62
1
 10
16.291524
 20
177.174599
 11
16.291524
 21
181.865849
  0
LINE
  8
0
  6
CONTINUOUS
 62
1
 10
15.886524
 20
181.865849
 11
15.886524
 21
177.545849
  0
LINE
  8
0
  6
CONTINUOUS
 62
1
 10
15.481524
 20
177.917099
 11
15.481524
 21
181.865849
  0
LINE
  8
0
  6
CONTINUOUS
 62
1
 10
15.076524
 20
181.865849
 11
15.076524
 21
178.288349
  0
LINE
  8
0
  6
CONTINUOUS
 62
1
 10
14.671524
 20
178.659599
 11
14.671524
 21
181.865849
  0
LINE
  8
0
  6
CONTINUOUS
 62
1
 10
14.266524
 20
181.865849
 11
14.266524
 21
179.030849
  0
LINE
  8
0
  6
CONTINUOUS
 62
1
 10
22.366524
 20
171.605849
 11
22.366524
 21
174.862724
  0
LINE
  8
0
  6
CONTINUOUS
 62
1
 10
21.961524
 20
174.862724
 11
21.961524
 21
171.977099
  0
LINE
  8
0
  6
CONTINUOUS
 62
1
 10
21.556524
 20
172.348349
 11
21.556524
 21
174.862724
  0
LINE
  8
0
  6
CONTINUOUS
 62
1
 10
21.151524
 20
174.862724
 11
21.151524
 21
172.719599
  0
LINE
  8
0
  6
CONTINUOUS
 62
1
 10
20.746524
 20
173.090849
 11
20.746524
 21
174.862724
  0
LINE
  8
0
  6
CONTINUOUS
 62
1
 10
20.341524
 20
174.862724
 11
20.341524
 21
173.462099
  0
LINE
  8
0
  6
CONTINUOUS
 62
1
 10
19.936524
 20
173.833349
 11
19.936524
 21
174.862724
  0
LINE
  8
0
  6
CONTINUOUS
 62
1
 10
19.531524
 20
174.862724
 11
19.531524
 21
174.204599
  0
LINE
  8
0
  6
CONTINUOUS
 62
1
 10
19.126524
 20
174.575849
 11
19.126524
 21
174.862724
  0
LINE
  8
0
  6
CONTINUOUS
 62
1
 10
22.366524
 20
189.881474
 11
22.366524
 21
193.138349
  0
LINE
  8
0
  6
CONTINUOUS
 62
1
 10
21.961524
 20
192.767099
 11
21.961524
 21
189.881474
  0
LINE
  8
0
  6
CONTINUOUS
 62
1
 10
21.556524
 20
189.881474
 11
21.556524
 21
192.395849
  0
LINE
  8
0
  6
CONTINUOUS
 62
1
 10
21.151524
 20
192.024599
 11
21.151524
 21
189.881474
  0
LINE
  8
0
  6
CONTINUOUS
 62
1
 10
20.746524
 20
189.881474
 11
20.746524
 21
191.653349
  0
LINE
  8
0
  6
CONTINUOUS
 62
1
 10
20.341524
 20
191.282099
 11
20.341524
 21
189.881474
  0
LINE
  8
0
  6
CONTINUOUS
 62
1
 10
19.936524
 20
189.881474
 11
19.936524
 21
190.910849
  0
LINE
  8
0
  6
CONTINUOUS
 62
1
 10
19.531524
 20
190.539599
 11
19.531524
 21
189.881474
  0
LINE
  8
0
  6
CONTINUOUS
 62
1
 10
19.126524
 20
189.881474
 11
19.126524
 21
190.168349
  0
LINE
  8
0
  6
CONTINUOUS
 62
1
 10
22.569024
 20
175.875224
 11
22.569024
 21
181.865849
  0
LINE
  8
0
  6
CONTINUOUS
 62
1
 10
22.164024
 20
181.865849
 11
22.164024
 21
175.875224
  0
LINE
  8
0
  6
CONTINUOUS
 62
1
 10
21.759024
 20
181.865849
 11
21.759024
 21
175.875224
  0
LINE
  8
0
  6
CONTINUOUS
 62
1
 10
21.354024
 20
175.875224
 11
21.354024
 21
181.865849
  0
LINE
  8
0
  6
CONTINUOUS
 62
1
 10
19.329024
 20
175.875224
 11
19.329024
 21
181.865849
  0
LINE
  8
0
  6
CONTINUOUS
 62
1
 10
18.924024
 20
181.865849
 11
18.924024
 21
175.875224
  0
LINE
  8
0
  6
CONTINUOUS
 62
1
 10
18.519024
 20
175.875224
 11
18.519024
 21
181.865849
  0
LINE
  8
0
  6
CONTINUOUS
 62
1
 10
18.114024
 20
181.865849
 11
18.114024
 21
175.875224
  0
LINE
  8
0
  6
CONTINUOUS
 62
1
 10
19.734024
 20
181.865849
 11
19.734024
 21
175.875224
  0
LINE
  8
0
  6
CONTINUOUS
 62
1
 10
20.139024
 20
175.875224
 11
20.139024
 21
181.865849
  0
LINE
  8
0
  6
CONTINUOUS
 62
1
 10
20.544024
 20
181.865849
 11
20.544024
 21
175.875224
  0
LINE
  8
0
  6
CONTINUOUS
 62
1
 10
20.949024
 20
175.875224
 11
20.949024
 21
181.865849
  0
LINE
  8
0
  6
CONTINUOUS
 62
1
 10
22.569024
 20
182.878349
 11
22.569024
 21
188.868974
  0
LINE
  8
0
  6
CONTINUOUS
 62
1
 10
22.164024
 20
188.868974
 11
22.164024
 21
182.878349
  0
LINE
  8
0
  6
CONTINUOUS
 62
1
 10
18.114024
 20
182.878349
 11
18.114024
 21
188.868974
  0
LINE
  8
0
  6
CONTINUOUS
 62
1
 10
18.519024
 20
188.868974
 11
18.519024
 21
182.878349
  0
LINE
  8
0
  6
CONTINUOUS
 62
1
 10
18.924024
 20
188.868974
 11
18.924024
 21
182.878349
  0
LINE
  8
0
  6
CONTINUOUS
 62
1
 10
19.329024
 20
182.878349
 11
19.329024
 21
188.868974
  0
LINE
  8
0
  6
CONTINUOUS
 62
1
 10
19.734024
 20
182.878349
 11
19.734024
 21
188.868974
  0
LINE
  8
0
  6
CONTINUOUS
 62
1
 10
20.139024
 20
182.878349
 11
20.139024
 21
188.868974
  0
LINE
  8
0
  6
CONTINUOUS
 62
1
 10
20.544024
 20
182.878349
 11
20.544024
 21
188.868974
  0
LINE
  8
0
  6
CONTINUOUS
 62
1
 10
20.949024
 20
188.868974
 11
20.949024
 21
182.878349
  0
LINE
  8
0
  6
CONTINUOUS
 62
1
 10
21.354024
 20
188.868974
 11
21.354024
 21
182.878349
  0
LINE
  8
0
  6
CONTINUOUS
 62
1
 10
21.759024
 20
182.878349
 11
21.759024
 21
188.868974
  0
LINE
  8
0
  6
CONTINUOUS
 62
1
 10
22.569024
 20
189.881474
 11
22.569024
 21
193.323974
  0
LINE
  8
0
  6
CONTINUOUS
 62
1
 10
22.164024
 20
192.952724
 11
22.164024
 21
189.881474
  0
LINE
  8
0
  6
CONTINUOUS
 62
1
 10
21.759024
 20
189.881474
 11
21.759024
 21
192.581474
  0
LINE
  8
0
  6
CONTINUOUS
 62
1
 10
21.354024
 20
192.210224
 11
21.354024
 21
189.881474
  0
LINE
  8
0
  6
CONTINUOUS
 62
1
 10
20.949024
 20
189.881474
 11
20.949024
 21
191.838974
  0
LINE
  8
0
  6
CONTINUOUS
 62
1
 10
20.544024
 20
191.467724
 11
20.544024
 21
189.881474
  0
LINE
  8
0
  6
CONTINUOUS
 62
1
 10
20.139024
 20
191.096474
 11
20.139024
 21
189.881474
  0
LINE
  8
0
  6
CONTINUOUS
 62
1
 10
19.734024
 20
190.725224
 11
19.734024
 21
189.881474
  0
LINE
  8
0
  6
CONTINUOUS
 62
1
 10
19.329024
 20
189.881474
 11
19.329024
 21
190.353974
  0
LINE
  8
0
  6
CONTINUOUS
 62
1
 10
18.924024
 20
189.982724
 11
18.924024
 21
189.881474
  0
LINE
  8
0
  6
CONTINUOUS
 62
1
 10
22.569024
 20
171.420224
 11
22.569024
 21
174.862724
  0
LINE
  8
0
  6
CONTINUOUS
 62
1
 10
22.164024
 20
174.862724
 11
22.164024
 21
171.791474
  0
LINE
  8
0
  6
CONTINUOUS
 62
1
 10
21.759024
 20
172.162724
 11
21.759024
 21
174.862724
  0
LINE
  8
0
  6
CONTINUOUS
 62
1
 10
21.354024
 20
174.862724
 11
21.354024
 21
172.533974
  0
LINE
  8
0
  6
CONTINUOUS
 62
1
 10
20.949024
 20
172.905224
 11
20.949024
 21
174.862724
  0
LINE
  8
0
  6
CONTINUOUS
 62
1
 10
20.544024
 20
174.862724
 11
20.544024
 21
173.276474
  0
LINE
  8
0
  6
CONTINUOUS
 62
1
 10
20.139024
 20
173.647724
 11
20.139024
 21
174.862724
  0
LINE
  8
0
  6
CONTINUOUS
 62
1
 10
19.734024
 20
174.862724
 11
19.734024
 21
174.018974
  0
LINE
  8
0
  6
CONTINUOUS
 62
1
 10
19.329024
 20
174.390224
 11
19.329024
 21
174.862724
  0
LINE
  8
0
  6
CONTINUOUS
 62
1
 10
18.924024
 20
174.862724
 11
18.924024
 21
174.761474
  0
LINE
  8
0
  6
CONTINUOUS
 62
1
 10
16.494024
 20
182.878349
 11
16.494024
 21
187.755224
  0
LINE
  8
0
  6
CONTINUOUS
 62
1
 10
16.089024
 20
187.383974
 11
16.089024
 21
182.878349
  0
LINE
  8
0
  6
CONTINUOUS
 62
1
 10
15.684024
 20
182.878349
 11
15.684024
 21
187.012724
  0
LINE
  8
0
  6
CONTINUOUS
 62
1
 10
15.279024
 20
186.641474
 11
15.279024
 21
182.878349
  0
LINE
  8
0
  6
CONTINUOUS
 62
1
 10
14.874024
 20
182.878349
 11
14.874024
 21
186.270224
  0
LINE
  8
0
  6
CONTINUOUS
 62
1
 10
14.469024
 20
185.898974
 11
14.469024
 21
182.878349
  0
LINE
  8
0
  6
CONTINUOUS
 62
1
 10
14.469024
 20
181.865849
 11
14.469024
 21
178.845224
  0
LINE
  8
0
  6
CONTINUOUS
 62
1
 10
14.874024
 20
178.473974
 11
14.874024
 21
181.865849
  0
LINE
  8
0
  6
CONTINUOUS
 62
1
 10
15.279024
 20
181.865849
 11
15.279024
 21
178.102724
  0
LINE
  8
0
  6
CONTINUOUS
 62
1
 10
15.684024
 20
177.731474
 11
15.684024
 21
181.865849
  0
LINE
  8
0
  6
CONTINUOUS
 62
1
 10
16.089024
 20
181.865849
 11
16.089024
 21
177.360224
  0
LINE
  8
0
  6
CONTINUOUS
 62
1
 10
16.494024
 20
176.988974
 11
16.494024
 21
181.865849
  0
LINE
  8
0
  6
CONTINUOUS
 62
1
 10
33.571524
 20
198.957126
 11
33.571524
 21
165.787045
  0
LINE
  8
0
  6
CONTINUOUS
 62
1
 10
24.796524
 20
165.787045
 11
24.796524
 21
198.957126
  0
ARC
  8
0
  6
CONTINUOUS
 62
1
 10
27.461923
 20
168.074104
 40
1.075798
 50
101.065051
 51
132.065051
  0
ARC
  8
0
  6
CONTINUOUS
 62
1
 10
27.572266
 20
168.135782
 40
1.110793
 50
138.434949
 51
168.434949
  0
ARC
  8
0
  6
CONTINUOUS
 62
1
 10
28.788962
 20
167.972760
 40
2.336988
 50
170.500000
 51
189.499999
  0
ARC
  8
0
  6
CONTINUOUS
 62
1
 10
28.208722
 20
167.511743
 40
1.726341
 50
177.500000
 51
272.499999
  0
LINE
  8
0
  6
CONTINUOUS
 62
1
 10
28.284024
 20
165.787045
 11
29.826881
 21
165.787045
  0
ARC
  8
0
  6
CONTINUOUS
 62
1
 10
29.701546
 20
168.734479
 40
2.950098
 50
272.434949
 51
304.434949
  0
ARC
  8
0
  6
CONTINUOUS
 62
1
 10
30.617539
 20
167.320288
 40
1.266522
 50
306.434949
 51
0.434948
  0
LINE
  8
0
  6
CONTINUOUS
 62
1
 10
31.884024
 20
167.329902
 11
31.884024
 21
167.844188
  0
ARC
  8
0
  6
CONTINUOUS
 62
1
 10
30.643121
 20
167.905751
 40
1.242430
 50
357.159808
 51
80.159810
  0
LINE
  8
0
  6
CONTINUOUS
 62
1
 10
31.884024
 20
170.415617
 11
26.484024
 21
170.415617
  0
LINE
  8
0
  6
CONTINUOUS
 62
1
 10
26.484024
 20
170.415617
 11
26.484024
 21
172.729902
  0
ARC
  8
0
  6
CONTINUOUS
 62
1
 10
27.512596
 20
172.729902
 40
1.028571
 50
90.000000
 51
180.000000
  0
ARC
  8
0
  6
CONTINUOUS
 62
1
 10
27.512596
 20
172.472760
 40
1.285714
 50
0.000001
 51
90.000000
  0
LINE
  8
0
  6
CONTINUOUS
 62
1
 10
28.798310
 20
172.472760
 11
28.798310
 21
170.158474
  0
LINE
  8
0
  6
CONTINUOUS
 62
1
 10
28.798310
 20
171.958474
 11
31.884024
 21
173.758474
  0
LINE
  8
0
  6
CONTINUOUS
 62
1
 10
31.884024
 20
175.044188
 11
26.484024
 21
175.044188
  0
LINE
  8
0
  6
CONTINUOUS
 62
1
 10
26.484024
 20
178.129902
 11
31.884024
 21
178.129902
  0
LINE
  8
0
  6
CONTINUOUS
 62
1
 10
26.484024
 20
176.329902
 11
26.484024
 21
179.929902
  0
LINE
  8
0
  6
CONTINUOUS
 62
1
 10
26.484024
 20
183.015617
 11
31.884024
 21
183.015617
  0
LINE
  8
0
  6
CONTINUOUS
 62
1
 10
26.484024
 20
181.215617
 11
26.484024
 21
184.815617
  0
LINE
  8
0
  6
CONTINUOUS
 62
1
 10
31.884024
 20
186.101331
 11
26.484024
 21
188.158474
  0
LINE
  8
0
  6
CONTINUOUS
 62
1
 10
26.484024
 20
188.158474
 11
31.884024
 21
190.215617
  0
LINE
  8
0
  6
CONTINUOUS
 62
1
 10
30.084024
 20
186.872760
 11
30.084024
 21
189.701331
  0
LINE
  8
0
  6
CONTINUOUS
 62
1
 10
31.884024
 20
191.501331
 11
26.484024
 21
191.501331
  0
LINE
  8
0
  6
CONTINUOUS
 62
1
 10
31.884024
 20
191.501331
 11
31.884024
 21
194.587045
  0
LINE
  8
0
  6
CONTINUOUS
 62
1
 10
31.884024
 20
195.872760
 11
26.484024
 21
195.872760
  0
LINE
  8
0
  6
CONTINUOUS
 62
1
 10
31.884024
 20
195.872760
 11
31.884024
 21
198.958474
  0
LINE
  8
0
  6
CONTINUOUS
 62
1
 10
260.875000
 20
194.750000
 11
259.000000
 21
194.750000
  0
ARC
  8
0
  6
CONTINUOUS
 62
1
 10
254.625723
 20
194.428881
 40
4.386048
 50
4.198591
 51
42.198592
  0
ARC
  8
0
  6
CONTINUOUS
 62
1
 10
254.692799
 20
193.436889
 40
5.063114
 50
51.059965
 51
90.059967
  0
ARC
  8
0
  6
CONTINUOUS
 62
1
 10
254.579736
 20
194.224870
 40
4.276488
 50
88.556045
 51
132.556044
  0
ARC
  8
0
  6
CONTINUOUS
 62
1
 10
253.273673
 20
195.942506
 40
2.137285
 50
137.914383
 51
213.914386
  0
ARC
  8
0
  6
CONTINUOUS
 62
1
 10
254.168697
 20
197.072828
 40
3.538004
 50
221.036243
 51
257.036244
  0
LINE
  8
0
  6
CONTINUOUS
 62
1
 10
253.375000
 20
193.625000
 11
256.750000
 21
192.687500
  0
ARC
  8
0
  6
CONTINUOUS
 62
1
 10
255.816959
 20
187.982879
 40
4.796251
 50
30.782407
 51
78.782407
  0
ARC
  8
0
  6
CONTINUOUS
 62
1
 10
256.367410
 20
188.900759
 40
3.886787
 50
325.289408
 51
23.289407
  0
ARC
  8
0
  6
CONTINUOUS
 62
1
 10
255.630344
 20
189.864312
 40
5.055095
 50
272.065052
 51
321.065051
  0
ARC
  8
0
  6
CONTINUOUS
 62
1
 10
254.979959
 20
191.370312
 40
6.610448
 50
238.235225
 51
277.235226
  0
ARC
  8
0
  6
CONTINUOUS
 62
1
 10
253.984249
 20
189.332171
 40
4.359294
 50
180.258542
 51
235.258541
  0
LINE
  8
0
  6
CONTINUOUS
 62
1
 10
249.625000
 20
189.312500
 11
251.500000
 21
189.312500
  0
ARC
  8
0
  6
CONTINUOUS
 62
1
 10
254.743573
 20
189.696772
 40
3.266256
 50
186.756437
 51
233.756439
  0
ARC
  8
0
  6
CONTINUOUS
 62
1
 10
255.189611
 20
192.048557
 40
5.523714
 50
244.510447
 51
290.510447
  0
ARC
  8
0
  6
CONTINUOUS
 62
1
 10
256.167150
 20
188.760175
 40
2.114560
 50
296.934949
 51
9.934947
  0
ARC
  8
0
  6
CONTINUOUS
 62
1
 10
256.345101
 20
188.720101
 40
1.947455
 50
12.000000
 51
78.000002
  0
LINE
  8
0
  6
CONTINUOUS
 62
1
 10
256.750000
 20
190.625000
 11
251.687500
 21
192.125000
  0
ARC
  8
0
  6
CONTINUOUS
 62
1
 10
253.113522
 20
195.823385
 40
3.963785
 50
192.914382
 51
248.914383
  0
ARC
  8
0
  6
CONTINUOUS
 62
1
 10
253.532236
 20
195.697588
 40
4.349170
 50
133.065052
 51
190.065051
  0
ARC
  8
0
  6
CONTINUOUS
 62
1
 10
254.380220
 20
194.014843
 40
6.180300
 50
87.150123
 51
128.150124
  0
ARC
  8
0
  6
CONTINUOUS
 62
1
 10
255.018733
 20
192.924917
 40
7.270132
 50
63.611341
 51
92.611342
  0
ARC
  8
0
  6
CONTINUOUS
 62
1
 10
255.661845
 20
194.909383
 40
5.215591
 50
358.248827
 51
60.248826
  0
LINE
  8
0
  6
CONTINUOUS
 62
1
 10
240.062500
 20
200.000000
 11
242.125000
 21
200.000000
  0
LINE
  8
0
  6
CONTINUOUS
 62
1
 10
242.125000
 20
200.000000
 11
242.125000
 21
193.250000
  0
LINE
  8
0
  6
CONTINUOUS
 62
1
 10
242.125000
 20
193.250000
 11
242.125000
 21
186.687500
  0
LINE
  8
0
  6
CONTINUOUS
 62
1
 10
242.125000
 20
186.687500
 11
247.187500
 21
186.687500
  0
LINE
  8
0
  6
CONTINUOUS
 62
1
 10
247.187500
 20
186.687500
 11
247.187500
 21
185.000000
  0
LINE
  8
0
  6
CONTINUOUS
 62
1
 10
247.187500
 20
185.000000
 11
241.000000
 21
185.000000
  0
LINE
  8
0
  6
CONTINUOUS
 62
1
 10
241.000000
 20
185.000000
 11
235.187500
 21
185.000000
  0
LINE
  8
0
  6
CONTINUOUS
 62
1
 10
235.187500
 20
185.000000
 11
235.187500
 21
186.687500
  0
LINE
  8
0
  6
CONTINUOUS
 62
1
 10
235.187500
 20
186.687500
 11
240.062500
 21
186.687500
  0
LINE
  8
0
  6
CONTINUOUS
 62
1
 10
240.062500
 20
186.687500
 11
240.062500
 21
193.625000
  0
LINE
  8
0
  6
CONTINUOUS
 62
1
 10
240.062500
 20
193.625000
 11
240.062500
 21
200.000000
  0
LINE
  8
0
  6
CONTINUOUS
 62
1
 10
232.562500
 20
191.937500
 11
232.562500
 21
185.000000
  0
LINE
  8
0
  6
CONTINUOUS
 62
1
 10
232.562500
 20
185.000000
 11
221.875000
 21
185.000000
  0
LINE
  8
0
  6
CONTINUOUS
 62
1
 10
221.875000
 20
185.000000
 11
221.875000
 21
186.687500
  0
LINE
  8
0
  6
CONTINUOUS
 62
1
 10
221.875000
 20
186.687500
 11
230.500000
 21
186.687500
  0
LINE
  8
0
  6
CONTINUOUS
 62
1
 10
230.500000
 20
186.687500
 11
230.500000
 21
191.375000
  0
LINE
  8
0
  6
CONTINUOUS
 62
1
 10
230.500000
 20
191.375000
 11
222.437500
 21
191.375000
  0
LINE
  8
0
  6
CONTINUOUS
 62
1
 10
222.437500
 20
191.375000
 11
222.437500
 21
193.062500
  0
LINE
  8
0
  6
CONTINUOUS
 62
1
 10
222.437500
 20
193.062500
 11
230.500000
 21
193.062500
  0
LINE
  8
0
  6
CONTINUOUS
 62
1
 10
230.500000
 20
193.062500
 11
230.500000
 21
198.312500
  0
LINE
  8
0
  6
CONTINUOUS
 62
1
 10
230.500000
 20
198.312500
 11
221.312500
 21
198.312500
  0
LINE
  8
0
  6
CONTINUOUS
 62
1
 10
221.312500
 20
198.312500
 11
221.312500
 21
200.000000
  0
LINE
  8
0
  6
CONTINUOUS
 62
1
 10
221.312500
 20
200.000000
 11
232.562500
 21
200.000000
  0
LINE
  8
0
  6
CONTINUOUS
 62
1
 10
232.562500
 20
200.000000
 11
232.562500
 21
191.937500
  0
LINE
  8
0
  6
CONTINUOUS
 62
1
 10
218.125000
 20
191.937500
 11
218.125000
 21
185.000000
  0
LINE
  8
0
  6
CONTINUOUS
 62
1
 10
218.125000
 20
185.000000
 11
207.437500
 21
185.000000
  0
LINE
  8
0
  6
CONTINUOUS
 62
1
 10
207.437500
 20
185.000000
 11
207.437500
 21
186.687500
  0
LINE
  8
0
  6
CONTINUOUS
 62
1
 10
207.437500
 20
186.687500
 11
216.062500
 21
186.687500
  0
LINE
  8
0
  6
CONTINUOUS
 62
1
 10
216.062500
 20
186.687500
 11
216.062500
 21
191.375000
  0
LINE
  8
0
  6
CONTINUOUS
 62
1
 10
216.062500
 20
191.375000
 11
208.000000
 21
191.375000
  0
LINE
  8
0
  6
CONTINUOUS
 62
1
 10
208.000000
 20
191.375000
 11
208.000000
 21
193.062500
  0
LINE
  8
0
  6
CONTINUOUS
 62
1
 10
208.000000
 20
193.062500
 11
216.062500
 21
193.062500
  0
LINE
  8
0
  6
CONTINUOUS
 62
1
 10
216.062500
 20
193.062500
 11
216.062500
 21
198.312500
  0
LINE
  8
0
  6
CONTINUOUS
 62
1
 10
216.062500
 20
198.312500
 11
206.875000
 21
198.312500
  0
LINE
  8
0
  6
CONTINUOUS
 62
1
 10
206.875000
 20
198.312500
 11
206.875000
 21
200.000000
  0
LINE
  8
0
  6
CONTINUOUS
 62
1
 10
206.875000
 20
200.000000
 11
218.125000
 21
200.000000
  0
LINE
  8
0
  6
CONTINUOUS
 62
1
 10
218.125000
 20
200.000000
 11
218.125000
 21
191.937500
  0
LINE
  8
0
  6
CONTINUOUS
 62
1
 10
203.687500
 20
192.125000
 11
203.687500
 21
185.000000
  0
LINE
  8
0
  6
CONTINUOUS
 62
1
 10
203.687500
 20
185.000000
 11
201.625000
 21
185.000000
  0
LINE
  8
0
  6
CONTINUOUS
 62
1
 10
201.625000
 20
185.000000
 11
201.625000
 21
191.562500
  0
LINE
  8
0
  6
CONTINUOUS
 62
1
 10
201.625000
 20
191.562500
 11
201.625000
 21
198.312500
  0
LINE
  8
0
  6
CONTINUOUS
 62
1
 10
201.625000
 20
198.312500
 11
194.500000
 21
198.312500
  0
LINE
  8
0
  6
CONTINUOUS
 62
1
 10
194.500000
 20
198.312500
 11
194.500000
 21
200.000000
  0
LINE
  8
0
  6
CONTINUOUS
 62
1
 10
194.500000
 20
200.000000
 11
203.687500
 21
200.000000
  0
LINE
  8
0
  6
CONTINUOUS
 62
1
 10
203.687500
 20
200.000000
 11
203.687500
 21
192.125000
  0
TEXT
  8
0
  6
CONTINUOUS
 62
1
 10
20.000000
 20
20.843750
 40
6.000000
  1
Berkeley Range
 50
90.000000
 41
1.000000
 51
0.000000
  7
STANDARD
  0
TEXT
  8
0
  6
CONTINUOUS
 62
1
 10
277.476378
 20
19.947503
 40
2.000000
  1
This drawing is the property of Crittall Windows Ltd and is a
 50
90.000000
 41
1.000000
 51
0.000000
  7
STANDARD
  0
TEXT
  8
0
  6
CONTINUOUS
 62
1
 10
281.476378
 20
19.947503
 40
2.000000
  1
confidential document and must not be copied or its contents
 50
90.000000
 41
1.000000
 51
0.000000
  7
STANDARD
  0
TEXT
  8
0
  6
CONTINUOUS
 62
1
 10
285.476378
 20
19.947503
 40
2.000000
  1
divulged without prior consent.
 50
90.000000
 41
1.000000
 51
0.000000
  7
STANDARD
  0
LINE
  8
0
  6
DASHED
 62
1
 10
193.065632
 20
117.716089
 11
193.065632
 21
123.116089
  0
LINE
  8
0
  6
DASHED
 62
1
 10
190.265632
 20
117.916089
 11
190.265632
 21
122.916089
  0
LINE
  8
0
  6
DASHED
 62
1
 10
187.465632
 20
122.291089
 11
187.465632
 21
118.541089
  0
LINE
  8
0
  6
DASHED
 62
1
 10
195.865632
 20
122.866089
 11
195.065632
 21
122.866089
  0
LINE
  8
0
  6
DASHED
 62
1
 10
195.865632
 20
117.966089
 11
195.065632
 21
117.966089
  0
LINE
  8
0
  6
DASHED
 62
1
 10
195.865632
 20
122.866089
 11
197.065632
 21
121.666089
  0
LINE
  8
0
  6
DASHED
 62
1
 10
195.865632
 20
117.966089
 11
197.065632
 21
119.166089
  0
LINE
  8
0
  6
DASHED
 62
1
 10
193.065632
 20
122.166089
 11
195.065632
 21
122.166089
  0
LINE
  8
0
  6
DASHED
 62
1
 10
193.065632
 20
118.666089
 11
195.065632
 21
118.666089
  0
LINE
  8
0
  6
DASHED
 62
1
 10
191.365632
 20
123.116089
 11
193.065632
 21
123.116089
  0
LINE
  8
0
  6
DASHED
 62
1
 10
191.365632
 20
117.716089
 11
193.065632
 21
117.716089
  0
LINE
  8
0
  6
DASHED
 62
1
 10
195.465632
 20
119.816089
 11
195.465632
 21
121.016089
  0
LINE
  8
0
  6
DASHED
 62
1
 10
195.465632
 20
121.016089
 11
197.065632
 21
121.016089
  0
LINE
  8
0
  6
DASHED
 62
1
 10
195.465632
 20
119.816089
 11
197.065632
 21
119.816089
  0
LINE
  8
0
  6
DASHED
 62
1
 10
197.065632
 20
119.816089
 11
197.065632
 21
119.166089
  0
LINE
  8
0
  6
DASHED
 62
1
 10
195.865632
 20
117.966089
 11
195.865632
 21
119.816089
  0
LINE
  8
0
  6
DASHED
 62
1
 10
195.865632
 20
121.016089
 11
195.865632
 21
122.866089
  0
LINE
  8
0
  6
DASHED
 62
1
 10
185.829798
 20
122.916089
 11
191.365632
 21
122.916089
  0
LINE
  8
0
  6
DASHED
 62
1
 10
182.665632
 20
117.916089
 11
191.365632
 21
117.916089
  0
LINE
  8
0
  6
DASHED
 62
1
 10
190.265632
 20
122.291089
 11
185.865632
 21
122.291089
  0
LINE
  8
0
  6
DASHED
 62
1
 10
190.265632
 20
118.541089
 11
182.822787
 21
118.541089
  0
LINE
  8
0
  6
DASHED
 62
1
 10
190.265632
 20
118.541089
 11
191.365632
 21
118.541089
  0
LINE
  8
0
  6
DASHED
 62
1
 10
190.265632
 20
122.291089
 11
191.365632
 21
122.291089
  0
LINE
  8
0
  6
DASHED
 62
1
 10
188.090632
 20
117.916089
 11
188.090632
 21
122.916089
  0
LINE
  8
0
  6
DASHED
 62
1
 10
187.465632
 20
122.291089
 11
188.090632
 21
122.916089
  0
LINE
  8
0
  6
DASHED
 62
1
 10
187.465632
 20
118.541089
 11
188.090632
 21
117.916089
  0
LINE
  8
0
  6
DASHED
 62
1
 10
195.065632
 20
117.966089
 11
195.065632
 21
122.866089
  0
LINE
  8
0
  6
CENTER
 62
1
 10
186.439896
 20
120.416089
 11
198.794730
 21
120.416089
  0
LINE
  8
0
  6
CONTINUOUS
 62
1
 10
194.066165
 20
114.261021
 11
191.699780
 21
114.261021
  0
LINE
  8
0
  6
CONTINUOUS
 62
1
 10
196.194732
 20
114.261021
 11
191.365632
 21
114.261021
  0
LINE
  8
0
  6
CONTINUOUS
 62
1
 10
191.365632
 20
114.261021
 11
191.365632
 21
95.261021
  0
LINE
  8
0
  6
CONTINUOUS
 62
1
 10
196.194732
 20
95.261021
 11
196.194732
 21
114.261021
  0
LINE
  8
0
  6
CONTINUOUS
 62
1
 10
191.365632
 20
95.261021
 11
196.194732
 21
95.261021
  0
LINE
  8
0
  6
CONTINUOUS
 62
1
 10
196.194732
 20
95.261021
 11
191.365632
 21
114.261021
  0
LINE
  8
0
  6
CONTINUOUS
 62
1
 10
196.194732
 20
114.261021
 11
191.365632
 21
95.261021
  0
LINE
  8
0
  6
CONTINUOUS
 62
1
 10
234.311126
 20
114.261021
 11
196.394732
 21
114.261021
  0
LINE
  8
0
  6
CONTINUOUS
 62
1
 10
191.915632
 20
123.903521
 11
200.161784
 21
123.903521
  0
LINE
  8
0
  6
CONTINUOUS
 62
1
 10
201.059933
 20
123.343212
 11
203.927785
 21
117.485097
  0
LINE
  8
0
  6
CONTINUOUS
 62
1
 10
202.889847
 20
117.203521
 11
194.000184
 21
117.203521
  0
LINE
  8
0
  6
CONTINUOUS
 62
1
 10
193.465632
 20
122.903521
 11
200.005822
 21
122.903521
  0
LINE
  8
0
  6
CONTINUOUS
 62
1
 10
202.061941
 20
118.203521
 11
196.286343
 21
118.203521
  0
LINE
  8
0
  6
CONTINUOUS
 62
1
 10
191.915632
 20
123.203521
 11
193.265632
 21
123.203521
  0
LINE
  8
0
  6
CONTINUOUS
 62
1
 10
193.365632
 20
123.103521
 11
193.365632
 21
123.003521
  0
LINE
  8
0
  6
CONTINUOUS
 62
1
 10
194.665632
 20
118.453521
 11
195.065632
 21
118.453521
  0
LINE
  8
0
  6
CONTINUOUS
 62
1
 10
195.065632
 20
117.903521
 11
195.944922
 21
117.903521
  0
LINE
  8
0
  6
CONTINUOUS
 62
1
 10
195.980277
 20
117.918165
 11
196.250988
 21
118.188876
  0
LINE
  8
0
  6
CONTINUOUS
 62
1
 10
195.065632
 20
117.903521
 11
195.065632
 21
118.453521
  0
LINE
  8
0
  6
CONTINUOUS
 62
1
 10
194.665632
 20
118.453521
 11
193.807347
 21
117.733334
  0
ARC
  8
0
  6
CONTINUOUS
 62
1
 10
194.000184
 20
117.503521
 40
0.300000
 50
130.000000
 51
270.000000
  0
ARC
  8
0
  6
CONTINUOUS
 62
1
 10
200.005822
 20
122.653521
 40
0.250000
 50
26.084163
 51
90.000000
  0
ARC
  8
0
  6
CONTINUOUS
 62
1
 10
202.061941
 20
118.453521
 40
0.250000
 50
270.000000
 51
26.084163
  0
ARC
  8
0
  6
CONTINUOUS
 62
1
 10
191.915632
 20
123.553521
 40
0.350000
 50
90.000000
 51
180.000000
  0
ARC
  8
0
  6
CONTINUOUS
 62
1
 10
191.915632
 20
123.553521
 40
0.350000
 50
180.000000
 51
270.000000
  0
ARC
  8
0
  6
CONTINUOUS
 62
1
 10
193.265632
 20
123.103521
 40
0.100000
 50
0.000000
 51
90.000000
  0
ARC
  8
0
  6
CONTINUOUS
 62
1
 10
193.465632
 20
123.003521
 40
0.100000
 50
180.000000
 51
270.000000
  0
ARC
  8
0
  6
CONTINUOUS
 62
1
 10
196.286343
 20
118.153521
 40
0.050000
 50
90.000000
 51
135.000000
  0
ARC
  8
0
  6
CONTINUOUS
 62
1
 10
195.944922
 20
117.953521
 40
0.050000
 50
270.000000
 51
315.000000
  0
ARC
  8
0
  6
CONTINUOUS
 62
1
 10
200.161784
 20
122.903521
 40
1.000000
 50
26.084163
 51
90.000000
  0
ARC
  8
0
  6
CONTINUOUS
 62
1
 10
203.478187
 20
117.266322
 40
0.500000
 50
206.084000
 51
26.084000
  0
ARC
  8
0
  6
CONTINUOUS
 62
1
 10
202.889847
 20
117.103521
 40
0.100000
 50
26.084163
 51
90.000000
  0
LINE
  8
0
  6
CONTINUOUS
 62
1
 10
202.286478
 20
118.563443
 11
200.230359
 21
122.763443
  0
LINE
  8
0
  6
CONTINUOUS
 62
1
 10
202.979662
 20
117.147490
 11
203.029112
 21
117.046478
  0
LINE
  8
0
  6
DASHED
 62
1
 10
197.065632
 20
121.666089
 11
197.065632
 21
121.016089
  0
ARC
  8
0
  6
CONTINUOUS
 62
1
 10
195.776214
 20
114.102797
 40
1.500000
 50
111.582723
 51
173.945020
  0
ARC
  8
0
  6
CONTINUOUS
 62
1
 10
200.577754
 20
115.213394
 40
2.000000
 50
64.732944
 51
120.656818
  0
ARC
  8
0
  6
CONTINUOUS
 62
1
 10
200.149822
 20
116.958102
 40
2.000000
 50
265.846562
 51
323.324628
  0
ARC
  8
0
  6
CONTINUOUS
 62
1
 10
199.890320
 20
115.956761
 40
1.000000
 50
195.000000
 51
276.583241
  0
ARC
  8
0
  6
CONTINUOUS
 62
1
 10
199.890320
 20
115.956761
 40
1.000000
 50
119.981778
 51
195.000000
  0
LINE
  8
0
  6
CONTINUOUS
 62
1
 10
199.390595
 20
116.822945
 11
199.557964
 21
116.933868
  0
ARC
  8
0
  6
CONTINUOUS
 62
1
 10
200.856158
 20
116.204089
 40
1.000000
 50
333.861185
 51
54.881299
  0
ARC
  8
0
  6
CONTINUOUS
 62
1
 10
201.398334
 20
105.443910
 40
11.798055
 50
93.988266
 51
121.553665
  0
LINE
  8
0
  6
CONTINUOUS
 62
1
 10
203.396343
 20
116.773066
 11
200.905126
 21
117.186419
  0
LINE
  8
0
  6
CONTINUOUS
 62
1
 10
205.234070
 20
94.377091
 11
203.662849
 21
91.506626
  0
LINE
  8
0
  6
CONTINUOUS
 62
1
 10
203.809795
 20
91.775081
 11
203.809795
 21
94.377091
  0
LINE
  8
0
  6
CONTINUOUS
 62
1
 10
202.809795
 20
94.377091
 11
202.809795
 21
91.904739
  0
LINE
  8
0
  6
CONTINUOUS
 62
1
 10
204.809795
 20
94.377091
 11
204.809795
 21
93.601982
  0
LINE
  8
0
  6
CONTINUOUS
 62
1
 10
201.809795
 20
91.930925
 11
201.809795
 21
94.377091
  0
LINE
  8
0
  6
CONTINUOUS
 62
1
 10
200.809795
 20
94.377091
 11
200.809795
 21
91.957110
  0
LINE
  8
0
  6
CONTINUOUS
 62
1
 10
204.682896
 20
93.370151
 11
200.792489
 21
93.370151
  0
LINE
  8
0
  6
CONTINUOUS
 62
1
 10
200.809795
 20
92.370151
 11
204.135521
 21
92.370151
  0
ARC
  8
0
  6
CONTINUOUS
 62
1
 10
201.144984
 20
112.506578
 40
6.455057
 50
15.780887
 51
55.738501
  0
ARC
  8
0
  6
CONTINUOUS
 62
1
 10
204.427261
 20
117.486167
 40
0.500000
 50
45.294432
 51
180.000000
  0
LINE
  8
0
  6
CONTINUOUS
 62
1
 10
191.365632
 20
125.377091
 11
234.311126
 21
125.377091
  0
LINE
  8
0
  6
CONTINUOUS
 62
1
 10
190.365632
 20
79.377091
 11
234.311126
 21
79.377091
  0
LINE
  8
0
  6
CONTINUOUS
 62
1
 10
193.565632
 20
82.577091
 11
234.311126
 21
82.577091
  0
LINE
  8
0
  6
CONTINUOUS
 62
1
 10
200.161784
 20
123.903521
 11
234.311126
 21
123.903521
  0
LINE
  8
0
  6
CONTINUOUS
 62
1
 10
204.427261
 20
117.986167
 11
234.311126
 21
117.986167
  0
LINE
  8
0
  6
CONTINUOUS
 62
1
 10
203.865632
 20
89.477091
 11
234.311126
 21
89.477091
  0
LINE
  8
0
  6
CONTINUOUS
 62
1
 10
203.865632
 20
91.877091
 11
234.311126
 21
91.877091
  0
LINE
  8
0
  6
CONTINUOUS
 62
1
 10
234.311126
 20
79.377091
 11
234.311126
 21
101.261021
  0
LINE
  8
0
  6
CONTINUOUS
 62
1
 10
234.311126
 20
108.261021
 11
233.109675
 21
106.813996
  0
LINE
  8
0
  6
CONTINUOUS
 62
1
 10
233.109675
 20
106.813996
 11
235.249341
 21
104.897600
  0
LINE
  8
0
  6
CONTINUOUS
 62
1
 10
235.249341
 20
104.897600
 11
233.407368
 21
103.037022
  0
LINE
  8
0
  6
CONTINUOUS
 62
1
 10
233.407368
 20
103.037022
 11
234.311126
 21
101.261021
  0
LINE
  8
0
  6
CONTINUOUS
 62
1
 10
234.311126
 20
108.261021
 11
234.311126
 21
129.566113
  0
LINE
  8
0
  6
CONTINUOUS
 62
1
 10
53.321411
 20
129.566146
 11
75.890033
 21
129.566146
  0
LINE
  8
0
  6
CONTINUOUS
 62
1
 10
77.890033
 20
127.566146
 11
77.890033
 21
126.540303
  0
LINE
  8
0
  6
CONTINUOUS
 62
1
 10
51.290033
 20
83.566146
 11
41.890033
 21
83.566146
  0
LINE
  8
0
  6
CONTINUOUS
 62
1
 10
48.899924
 20
113.566146
 11
40.855134
 21
113.566146
  0
LINE
  8
0
  6
CONTINUOUS
 62
1
 10
44.890033
 20
107.460165
 11
44.890033
 21
89.672128
  0
LINE
  8
0
  6
CONTINUOUS
 62
1
 10
39.890033
 20
85.566146
 11
39.890033
 21
86.600457
  0
LINE
  8
0
  6
CONTINUOUS
 62
1
 10
39.890033
 20
110.531835
 11
39.890033
 21
112.566146
  0
LINE
  8
0
  6
CONTINUOUS
 62
1
 10
55.390033
 20
110.540303
 11
55.390033
 21
123.028649
  0
LINE
  8
0
  6
CONTINUOUS
 62
1
 10
48.890033
 20
94.779929
 11
48.890033
 21
107.447624
  0
LINE
  8
0
  6
CONTINUOUS
 62
1
 10
51.790033
 20
84.249815
 11
51.790033
 21
84.066146
  0
LINE
  8
0
  6
CONTINUOUS
 62
1
 10
54.416210
 20
109.540646
 11
50.837680
 21
109.446939
  0
ARC
  8
0
  6
CONTINUOUS
 62
1
 10
50.890033
 20
107.447624
 40
2.000000
 50
91.500000
 51
180.000000
  0
LINE
  8
0
  6
CONTINUOUS
 62
1
 10
49.390033
 20
86.292450
 11
49.390033
 21
88.908194
  0
LINE
  8
0
  6
CONTINUOUS
 62
1
 10
52.590033
 20
90.940303
 11
52.590033
 21
91.559255
  0
LINE
  8
0
  6
CONTINUOUS
 62
1
 10
76.916210
 20
125.540646
 11
57.337680
 21
125.027964
  0
LINE
  8
0
  6
CONTINUOUS
 62
1
 10
51.322629
 20
127.635945
 11
50.898705
 21
115.496347
  0
LINE
  8
0
  6
CONTINUOUS
 62
1
 10
40.855134
 20
109.532444
 11
42.959832
 21
109.458946
  0
LINE
  8
0
  6
CONTINUOUS
 62
1
 10
40.855134
 20
87.599848
 11
42.959832
 21
87.673346
  0
LINE
  8
0
  6
CONTINUOUS
 62
1
 10
50.877189
 20
85.246010
 11
50.302878
 21
85.296255
  0
LINE
  8
0
  6
CONTINUOUS
 62
1
 10
51.616210
 20
89.940646
 11
50.363857
 21
89.907852
  0
ARC
  8
0
  6
CONTINUOUS
 62
1
 10
75.890033
 20
127.566146
 40
2.000000
 50
0.000000
 51
90.000000
  0
ARC
  8
0
  6
CONTINUOUS
 62
1
 10
53.321411
 20
127.566146
 40
2.000000
 50
90.000000
 51
178.000000
  0
ARC
  8
0
  6
CONTINUOUS
 62
1
 10
48.899924
 20
115.566146
 40
2.000000
 50
270.000000
 51
358.000000
  0
ARC
  8
0
  6
CONTINUOUS
 62
1
 10
42.890033
 20
107.460165
 40
2.000000
 50
0.000000
 51
88.000000
  0
ARC
  8
0
  6
CONTINUOUS
 62
1
 10
42.890033
 20
89.672128
 40
2.000000
 50
272.000000
 51
0.000000
  0
ARC
  8
0
  6
CONTINUOUS
 62
1
 10
41.890033
 20
85.566146
 40
2.000000
 50
180.000000
 51
270.000000
  0
ARC
  8
0
  6
CONTINUOUS
 62
1
 10
57.390033
 20
123.028649
 40
2.000000
 50
91.500000
 51
180.000000
  0
ARC
  8
0
  6
CONTINUOUS
 62
1
 10
76.890033
 20
126.540303
 40
1.000000
 50
271.500000
 51
0.000000
  0
ARC
  8
0
  6
CONTINUOUS
 62
1
 10
40.890033
 20
110.531835
 40
1.000000
 50
180.000000
 51
268.000000
  0
ARC
  8
0
  6
CONTINUOUS
 62
1
 10
40.890033
 20
86.600457
 40
1.000000
 50
92.000000
 51
180.000000
  0
ARC
  8
0
  6
CONTINUOUS
 62
1
 10
54.390033
 20
110.540303
 40
1.000000
 50
271.500000
 51
0.000000
  0
ARC
  8
0
  6
CONTINUOUS
 62
1
 10
51.590033
 20
91.559255
 40
1.000000
 50
0.000000
 51
77.799531
  0
ARC
  8
0
  6
CONTINUOUS
 62
1
 10
51.590033
 20
90.940303
 40
1.000000
 50
271.500000
 51
0.000000
  0
ARC
  8
0
  6
CONTINUOUS
 62
1
 10
50.390033
 20
88.908194
 40
1.000000
 50
91.500000
 51
180.000000
  0
ARC
  8
0
  6
CONTINUOUS
 62
1
 10
50.390033
 20
86.292450
 40
1.000000
 50
180.000000
 51
265.000000
  0
ARC
  8
0
  6
CONTINUOUS
 62
1
 10
50.790033
 20
84.249815
 40
1.000000
 50
0.000000
 51
85.000000
  0
ARC
  8
0
  6
CONTINUOUS
 62
1
 10
51.290033
 20
84.066146
 40
0.500000
 50
270.000000
 51
0.000000
  0
LINE
  8
0
  6
CONTINUOUS
 62
1
 10
44.890033
 20
81.377091
 11
44.890033
 21
82.402934
  0
LINE
  8
0
  6
CONTINUOUS
 62
1
 10
70.490033
 20
125.377091
 11
76.890033
 21
125.377091
  0
LINE
  8
0
  6
CONTINUOUS
 62
1
 10
75.924345
 20
79.377091
 11
46.890033
 21
79.377091
  0
LINE
  8
0
  6
CONTINUOUS
 62
1
 10
72.890033
 20
86.058610
 11
72.890033
 21
114.163307
  0
LINE
  8
0
  6
CONTINUOUS
 62
1
 10
77.890033
 20
97.877091
 11
77.890033
 21
124.377091
  0
LINE
  8
0
  6
CONTINUOUS
 62
1
 10
77.967469
 20
82.577091
 11
79.786036
 21
82.577091
  0
LINE
  8
0
  6
CONTINUOUS
 62
1
 10
90.390033
 20
90.902934
 11
90.390033
 21
90.010836
  0
LINE
  8
0
  6
CONTINUOUS
 62
1
 10
80.342597
 20
82.746283
 11
89.946594
 21
89.180029
  0
LINE
  8
0
  6
CONTINUOUS
 62
1
 10
76.890033
 20
96.877091
 11
76.890033
 21
93.204757
  0
LINE
  8
0
  6
CONTINUOUS
 62
1
 10
76.890033
 20
96.877091
 11
77.890033
 21
97.877091
  0
LINE
  8
0
  6
CONTINUOUS
 62
1
 10
69.990033
 20
124.693422
 11
69.990033
 21
124.877091
  0
LINE
  8
0
  6
CONTINUOUS
 62
1
 10
72.390033
 20
122.650787
 11
72.390033
 21
120.035042
  0
LINE
  8
0
  6
CONTINUOUS
 62
1
 10
69.190033
 20
118.002934
 11
69.190033
 21
117.383982
  0
LINE
  8
0
  6
CONTINUOUS
 62
1
 10
69.978701
 20
116.406568
 11
71.312699
 21
116.118136
  0
LINE
  8
0
  6
CONTINUOUS
 62
1
 10
70.902878
 20
123.697227
 11
71.477189
 21
123.646981
  0
LINE
  8
0
  6
CONTINUOUS
 62
1
 10
70.163857
 20
119.002591
 11
71.416210
 21
119.035385
  0
ARC
  8
0
  6
CONTINUOUS
 62
1
 10
70.890033
 20
114.163307
 40
2.000000
 50
0.000000
 51
77.799531
  0
ARC
  8
0
  6
CONTINUOUS
 62
1
 10
70.190033
 20
117.383982
 40
1.000000
 50
180.000000
 51
257.799531
  0
ARC
  8
0
  6
CONTINUOUS
 62
1
 10
70.190033
 20
118.002934
 40
1.000000
 50
91.500000
 51
180.000000
  0
ARC
  8
0
  6
CONTINUOUS
 62
1
 10
71.390033
 20
120.035042
 40
1.000000
 50
271.500000
 51
0.000000
  0
ARC
  8
0
  6
CONTINUOUS
 62
1
 10
71.390033
 20
122.650787
 40
1.000000
 50
0.000000
 51
85.000000
  0
ARC
  8
0
  6
CONTINUOUS
 62
1
 10
70.990033
 20
124.693422
 40
1.000000
 50
180.000000
 51
265.000000
  0
ARC
  8
0
  6
CONTINUOUS
 62
1
 10
70.490033
 20
124.877091
 40
0.500000
 50
90.000000
 51
180.000000
  0
LINE
  8
0
  6
CONTINUOUS
 62
1
 10
89.416210
 20
91.902591
 11
77.863857
 21
92.205100
  0
LINE
  8
0
  6
CONTINUOUS
 62
1
 10
45.863857
 20
83.402591
 11
70.942387
 21
84.059295
  0
LINE
  8
0
  6
CONTINUOUS
 62
1
 10
76.923736
 20
80.342191
 11
76.968078
 21
81.611990
  0
ARC
  8
0
  6
CONTINUOUS
 62
1
 10
46.890033
 20
81.377091
 40
2.000000
 50
180.000000
 51
270.000000
  0
ARC
  8
0
  6
CONTINUOUS
 62
1
 10
70.890033
 20
86.058610
 40
2.000000
 50
271.500000
 51
0.000000
  0
ARC
  8
0
  6
CONTINUOUS
 62
1
 10
45.890033
 20
82.402934
 40
1.000000
 50
91.500000
 51
180.000000
  0
ARC
  8
0
  6
CONTINUOUS
 62
1
 10
75.924345
 20
80.377091
 40
1.000000
 50
270.000000
 51
358.000000
  0
ARC
  8
0
  6
CONTINUOUS
 62
1
 10
77.967469
 20
81.577091
 40
1.000000
 50
90.000000
 51
178.000000
  0
ARC
  8
0
  6
CONTINUOUS
 62
1
 10
79.786036
 20
83.577091
 40
1.000000
 50
270.000000
 51
303.818246
  0
ARC
  8
0
  6
CONTINUOUS
 62
1
 10
89.390033
 20
90.010836
 40
1.000000
 50
303.818246
 51
0.000000
  0
ARC
  8
0
  6
CONTINUOUS
 62
1
 10
89.390033
 20
90.902934
 40
1.000000
 50
0.000000
 51
88.500000
  0
ARC
  8
0
  6
CONTINUOUS
 62
1
 10
77.890033
 20
93.204757
 40
1.000000
 50
180.000000
 51
268.500000
  0
ARC
  8
0
  6
CONTINUOUS
 62
1
 10
76.890033
 20
124.377091
 40
1.000000
 50
0.000000
 51
90.000000
  0
LINE
  8
0
  6
CONTINUOUS
 62
1
 10
51.800054
 20
92.587881
 11
50.466056
 21
92.876313
  0
ARC
  8
0
  6
CONTINUOUS
 62
1
 10
50.888721
 20
94.831141
 40
2.000000
 50
180.000000
 51
257.799531
  0
ARC
  8
0
  6
CONTINUOUS
 62
1
 10
51.588721
 20
91.610466
 40
1.000000
 50
0.000000
 51
77.799531
  0
LINE
  8
0
  6
CONTINUOUS
 62
1
 10
51.846064
 20
85.480868
 11
50.129003
 21
85.783632
  0
LINE
  8
0
  6
CONTINUOUS
 62
1
 10
52.052652
 20
89.944441
 11
50.129003
 21
89.605250
  0
LINE
  8
0
  6
CONTINUOUS
 62
1
 10
52.052652
 20
85.234666
 11
52.052652
 21
83.564650
  0
ARC
  8
0
  6
CONTINUOUS
 62
1
 10
51.802652
 20
85.234666
 40
0.250000
 50
0.000000
 51
80.000000
  0
LINE
  8
0
  6
CONTINUOUS
 62
1
 10
49.302652
 20
86.768440
 11
49.302652
 21
88.620442
  0
ARC
  8
0
  6
CONTINUOUS
 62
1
 10
50.302652
 20
88.620442
 40
1.000000
 50
100.000000
 51
180.000000
  0
ARC
  8
0
  6
CONTINUOUS
 62
1
 10
50.302652
 20
86.768440
 40
1.000000
 50
180.000000
 51
260.000000
  0
LINE
  8
0
  6
CONTINUOUS
 62
1
 10
52.552652
 20
91.194441
 11
52.552652
 21
90.194441
  0
LINE
  8
0
  6
CONTINUOUS
 62
1
 10
53.552652
 20
83.603929
 11
53.552652
 21
91.194441
  0
ARC
  8
0
  6
CONTINUOUS
 62
1
 10
53.052652
 20
91.194441
 40
0.500000
 50
0.000000
 51
90.000000
  0
ARC
  8
0
  6
CONTINUOUS
 62
1
 10
53.052652
 20
91.194441
 40
0.500000
 50
90.000000
 51
180.000000
  0
LINE
  8
0
  6
CONTINUOUS
 62
1
 10
52.052652
 20
89.944441
 11
52.302652
 21
89.944441
  0
ARC
  8
0
  6
CONTINUOUS
 62
1
 10
52.302652
 20
90.194441
 40
0.250000
 50
270.000000
 51
0.000000
  0
LINE
  8
0
  6
CONTINUOUS
 62
1
 10
69.985357
 20
124.677900
 11
69.985357
 21
124.861569
  0
LINE
  8
0
  6
CONTINUOUS
 62
1
 10
64.540006
 20
124.327548
 11
64.540006
 21
123.362465
  0
LINE
  8
0
  6
CONTINUOUS
 62
1
 10
65.510006
 20
123.362465
 11
65.510006
 21
123.842548
  0
LINE
  8
0
  6
CONTINUOUS
 62
1
 10
69.002006
 20
120.452465
 11
69.002006
 21
124.775815
  0
ARC
  8
0
  6
CONTINUOUS
 62
1
 10
69.487006
 20
124.775815
 40
0.485000
 50
90.000000
 51
180.000000
  0
ARC
  8
0
  6
CONTINUOUS
 62
1
 10
69.487006
 20
124.775815
 40
0.485000
 50
0.000000
 51
90.000000
  0
LINE
  8
0
  6
CONTINUOUS
 62
1
 10
70.556164
 20
118.997465
 11
68.905006
 21
118.997465
  0
ARC
  8
0
  6
CONTINUOUS
 62
1
 10
68.905006
 20
123.362465
 40
4.365000
 50
180.000000
 51
270.000000
  0
LINE
  8
0
  6
CONTINUOUS
 62
1
 10
67.156313
 20
120.452465
 11
69.002006
 21
120.452465
  0
ARC
  8
0
  6
CONTINUOUS
 62
1
 10
68.905006
 20
123.362465
 40
3.395000
 50
180.000000
 51
238.997281
  0
LINE
  8
0
  6
CONTINUOUS
 62
1
 10
65.995006
 20
124.327548
 11
66.636297
 21
124.327548
  0
ARC
  8
0
  6
CONTINUOUS
 62
1
 10
66.620277
 20
123.842548
 40
0.485000
 50
23.578178
 51
90.000000
  0
ARC
  8
0
  6
CONTINUOUS
 62
1
 10
67.258539
 20
124.586668
 40
0.485000
 50
284.338634
 51
50.097218
  0
LINE
  8
0
  6
CONTINUOUS
 62
1
 10
67.064787
 20
124.036548
 11
67.378650
 21
124.116776
  0
ARC
  8
0
  6
CONTINUOUS
 62
1
 10
66.636297
 20
123.842548
 40
1.455000
 50
50.097218
 51
68.960530
  0
ARC
  8
0
  6
CONTINUOUS
 62
1
 10
65.995006
 20
123.842548
 40
0.485000
 50
90.000000
 51
180.000000
  0
ARC
  8
0
  6
CONTINUOUS
 62
1
 10
65.510006
 20
124.327548
 40
0.970000
 50
115.841933
 51
180.000000
  0
LINE
  8
0
  6
CONTINUOUS
 62
1
 10
65.087193
 20
125.200548
 11
67.158658
 21
125.200548
  0
LINE
  8
0
  6
CONTINUOUS
 62
1
 10
82.963151
 20
94.266445
 11
82.963151
 21
100.266445
  0
LINE
  8
0
  6
CONTINUOUS
 62
1
 10
78.113151
 20
94.266445
 11
78.113151
 21
100.266445
  0
LINE
  8
0
  6
CONTINUOUS
 62
1
 10
82.963151
 20
94.266445
 11
78.113151
 21
94.266445
  0
LINE
  8
0
  6
CONTINUOUS
 62
1
 10
82.963151
 20
100.266445
 11
78.113151
 21
100.266445
  0
LINE
  8
0
  6
CONTINUOUS
 62
1
 10
82.963151
 20
94.266445
 11
78.113151
 21
100.266445
  0
LINE
  8
0
  6
CONTINUOUS
 62
1
 10
82.963151
 20
100.266445
 11
78.113151
 21
94.266445
  0
ARC
  8
0
  6
CONTINUOUS
 62
1
 10
40.890033
 20
112.566755
 40
1.000000
 50
92.000000
 51
180.000000
  0
LINE
  8
0
  6
CONTINUOUS
 62
1
 10
61.892392
 20
74.088556
 11
78.113151
 21
94.266445
  0
LINE
  8
0
  6
CONTINUOUS
 62
1
 10
76.637378
 20
92.886671
 11
77.082745
 21
92.528645
  0
LINE
  8
0
  6
CONTINUOUS
 62
1
 10
77.082745
 20
92.528645
 11
78.113151
 21
94.266445
  0
LINE
  8
0
  6
CONTINUOUS
 62
1
 10
78.113151
 20
94.266445
 11
76.637378
 21
92.886671
  0
LINE
  8
0
  6
CONTINUOUS
 62
1
 10
98.538539
 20
72.818640
 11
91.852717
 21
92.649249
  0
LINE
  8
0
  6
CONTINUOUS
 62
1
 10
92.220954
 20
90.662661
 11
92.762469
 21
90.845231
  0
LINE
  8
0
  6
CONTINUOUS
 62
1
 10
92.762469
 20
90.845231
 11
91.852717
 21
92.649249
  0
LINE
  8
0
  6
CONTINUOUS
 62
1
 10
91.852717
 20
92.649249
 11
92.220954
 21
90.662661
  0
LINE
  8
0
  6
CONTINUOUS
 62
1
 10
79.055795
 20
131.845276
 11
79.816564
 21
111.149780
  0
LINE
  8
0
  6
CONTINUOUS
 62
1
 10
80.028616
 20
113.158929
 11
79.457572
 21
113.137937
  0
LINE
  8
0
  6
CONTINUOUS
 62
1
 10
79.457572
 20
113.137937
 11
79.816564
 21
111.149780
  0
LINE
  8
0
  6
CONTINUOUS
 62
1
 10
79.816564
 20
111.149780
 11
80.028616
 21
113.158929
  0
LINE
  8
0
  6
CONTINUOUS
 62
1
 10
92.264632
 20
132.047453
 11
87.941525
 21
109.141086
  0
LINE
  8
0
  6
CONTINUOUS
 62
1
 10
88.593203
 20
111.053432
 11
88.031679
 21
111.159409
  0
LINE
  8
0
  6
CONTINUOUS
 62
1
 10
88.031679
 20
111.159409
 11
87.941525
 21
109.141086
  0
LINE
  8
0
  6
CONTINUOUS
 62
1
 10
87.941525
 20
109.141086
 11
88.593203
 21
111.053432
  0
LINE
  8
0
  6
CONTINUOUS
 62
1
 10
120.835527
 20
100.102374
 11
83.163151
 21
100.102374
  0
LINE
  8
0
  6
CONTINUOUS
 62
1
 10
83.163151
 20
94.102374
 11
120.835527
 21
94.102374
  0
LINE
  8
0
  6
CONTINUOUS
 62
1
 10
83.163151
 20
99.102374
 11
120.835527
 21
99.102374
  0
LINE
  8
0
  6
CONTINUOUS
 62
1
 10
120.835527
 20
98.102374
 11
83.163151
 21
98.102374
  0
LINE
  8
0
  6
CONTINUOUS
 62
1
 10
83.163151
 20
97.102374
 11
120.835527
 21
97.102374
  0
LINE
  8
0
  6
CONTINUOUS
 62
1
 10
120.835527
 20
96.102374
 11
83.163151
 21
96.102374
  0
LINE
  8
0
  6
CONTINUOUS
 62
1
 10
83.163151
 20
95.102374
 11
120.835527
 21
95.102374
  0
LINE
  8
0
  6
CONTINUOUS
 62
1
 10
83.163151
 20
100.102374
 11
83.163151
 21
94.102374
  0
LINE
  8
0
  6
DASHED
 62
1
 10
79.590033
 20
106.702374
 11
79.590033
 21
112.102374
  0
LINE
  8
0
  6
DASHED
 62
1
 10
76.790033
 20
106.902374
 11
76.790033
 21
111.902374
  0
LINE
  8
0
  6
DASHED
 62
1
 10
73.990033
 20
111.277374
 11
73.990033
 21
107.527374
  0
LINE
  8
0
  6
DASHED
 62
1
 10
82.390033
 20
111.852374
 11
81.590033
 21
111.852374
  0
LINE
  8
0
  6
DASHED
 62
1
 10
82.390033
 20
106.952374
 11
81.590033
 21
106.952374
  0
LINE
  8
0
  6
DASHED
 62
1
 10
82.390033
 20
111.852374
 11
83.590033
 21
110.652374
  0
LINE
  8
0
  6
DASHED
 62
1
 10
82.390033
 20
106.952374
 11
83.590033
 21
108.152374
  0
LINE
  8
0
  6
DASHED
 62
1
 10
79.590033
 20
111.152374
 11
81.590033
 21
111.152374
  0
LINE
  8
0
  6
DASHED
 62
1
 10
79.590033
 20
107.652374
 11
81.590033
 21
107.652374
  0
LINE
  8
0
  6
DASHED
 62
1
 10
77.890033
 20
112.102374
 11
79.590033
 21
112.102374
  0
LINE
  8
0
  6
DASHED
 62
1
 10
77.890033
 20
106.702374
 11
79.590033
 21
106.702374
  0
LINE
  8
0
  6
DASHED
 62
1
 10
81.990033
 20
108.802374
 11
81.990033
 21
110.002374
  0
LINE
  8
0
  6
DASHED
 62
1
 10
81.990033
 20
110.002374
 11
83.590033
 21
110.002374
  0
LINE
  8
0
  6
DASHED
 62
1
 10
81.990033
 20
108.802374
 11
83.590033
 21
108.802374
  0
LINE
  8
0
  6
DASHED
 62
1
 10
83.590033
 20
108.802374
 11
83.590033
 21
108.152374
  0
LINE
  8
0
  6
DASHED
 62
1
 10
82.390033
 20
106.952374
 11
82.390033
 21
108.802374
  0
LINE
  8
0
  6
DASHED
 62
1
 10
82.390033
 20
110.002374
 11
82.390033
 21
111.852374
  0
LINE
  8
0
  6
DASHED
 62
1
 10
72.890033
 20
111.902374
 11
77.890033
 21
111.902374
  0
LINE
  8
0
  6
DASHED
 62
1
 10
72.890033
 20
106.902374
 11
77.890033
 21
106.902374
  0
LINE
  8
0
  6
DASHED
 62
1
 10
76.790033
 20
111.277374
 11
72.890033
 21
111.277374
  0
LINE
  8
0
  6
DASHED
 62
1
 10
76.790033
 20
107.527374
 11
72.890033
 21
107.527374
  0
LINE
  8
0
  6
DASHED
 62
1
 10
76.790033
 20
107.527374
 11
77.890033
 21
107.527374
  0
LINE
  8
0
  6
DASHED
 62
1
 10
76.790033
 20
111.277374
 11
77.890033
 21
111.277374
  0
LINE
  8
0
  6
DASHED
 62
1
 10
74.615033
 20
106.902374
 11
74.615033
 21
111.902374
  0
LINE
  8
0
  6
DASHED
 62
1
 10
73.990033
 20
111.277374
 11
74.615033
 21
111.902374
  0
LINE
  8
0
  6
DASHED
 62
1
 10
73.990033
 20
107.527374
 11
74.615033
 21
106.902374
  0
LINE
  8
0
  6
DASHED
 62
1
 10
81.590033
 20
106.952374
 11
81.590033
 21
111.852374
  0
LINE
  8
0
  6
CENTER
 62
1
 10
69.190033
 20
109.402374
 11
86.452019
 21
109.402374
  0
LINE
  8
0
  6
CONTINUOUS
 62
1
 10
78.440033
 20
112.889805
 11
85.015900
 21
112.889805
  0
LINE
  8
0
  6
CONTINUOUS
 62
1
 10
88.162459
 20
106.189805
 11
80.524585
 21
106.189805
  0
LINE
  8
0
  6
CONTINUOUS
 62
1
 10
79.990033
 20
111.889805
 11
84.871562
 21
111.889805
  0
LINE
  8
0
  6
CONTINUOUS
 62
1
 10
87.296433
 20
107.189805
 11
82.810744
 21
107.189805
  0
LINE
  8
0
  6
CONTINUOUS
 62
1
 10
78.440033
 20
112.189805
 11
79.790033
 21
112.189805
  0
LINE
  8
0
  6
CONTINUOUS
 62
1
 10
79.890033
 20
112.089805
 11
79.890033
 21
111.989805
  0
LINE
  8
0
  6
CONTINUOUS
 62
1
 10
81.190033
 20
107.439805
 11
81.590033
 21
107.439805
  0
LINE
  8
0
  6
CONTINUOUS
 62
1
 10
81.590033
 20
106.889805
 11
82.469323
 21
106.889805
  0
LINE
  8
0
  6
CONTINUOUS
 62
1
 10
82.504678
 20
106.904450
 11
82.775389
 21
107.175161
  0
LINE
  8
0
  6
CONTINUOUS
 62
1
 10
81.590033
 20
106.889805
 11
81.590033
 21
107.439805
  0
LINE
  8
0
  6
CONTINUOUS
 62
1
 10
81.190033
 20
107.439805
 11
80.331748
 21
106.719619
  0
ARC
  8
0
  6
CONTINUOUS
 62
1
 10
80.524585
 20
106.489805
 40
0.300000
 50
130.000000
 51
270.000000
  0
ARC
  8
0
  6
CONTINUOUS
 62
1
 10
78.440033
 20
112.539805
 40
0.350000
 50
90.000000
 51
180.000000
  0
ARC
  8
0
  6
CONTINUOUS
 62
1
 10
78.440033
 20
112.539805
 40
0.350000
 50
180.000000
 51
270.000000
  0
ARC
  8
0
  6
CONTINUOUS
 62
1
 10
79.790033
 20
112.089805
 40
0.100000
 50
0.000000
 51
90.000000
  0
ARC
  8
0
  6
CONTINUOUS
 62
1
 10
79.990033
 20
111.989805
 40
0.100000
 50
180.000000
 51
270.000000
  0
ARC
  8
0
  6
CONTINUOUS
 62
1
 10
82.810744
 20
107.139805
 40
0.050000
 50
90.000000
 51
135.000000
  0
ARC
  8
0
  6
CONTINUOUS
 62
1
 10
82.469323
 20
106.939805
 40
0.050000
 50
270.000000
 51
315.000000
  0
LINE
  8
0
  6
DASHED
 62
1
 10
83.590033
 20
110.652374
 11
83.590033
 21
110.002374
  0
ARC
  8
0
  6
CONTINUOUS
 62
1
 10
90.002589
 20
104.252607
 40
0.500000
 50
210.000000
 51
30.000000
  0
LINE
  8
0
  6
CONTINUOUS
 62
1
 10
90.435601
 20
104.502607
 11
85.881925
 21
112.389805
  0
LINE
  8
0
  6
CONTINUOUS
 62
1
 10
85.088069
 20
111.764805
 11
87.512940
 21
107.564805
  0
ARC
  8
0
  6
CONTINUOUS
 62
1
 10
85.015900
 20
111.889805
 40
1.000000
 50
30.000000
 51
90.000000
  0
ARC
  8
0
  6
CONTINUOUS
 62
1
 10
84.871562
 20
111.639805
 40
0.250000
 50
30.000000
 51
90.000000
  0
ARC
  8
0
  6
CONTINUOUS
 62
1
 10
87.296433
 20
107.439805
 40
0.250000
 50
270.000000
 51
30.000000
  0
LINE
  8
0
  6
CONTINUOUS
 62
1
 10
88.378965
 20
106.064805
 11
89.569576
 21
104.002607
  0
ARC
  8
0
  6
CONTINUOUS
 62
1
 10
88.162459
 20
105.939805
 40
0.250000
 50
30.000000
 51
90.000000
  0
ARC
  8
0
  6
CONTINUOUS
 62
1
 10
82.298682
 20
101.092991
 40
1.500000
 50
111.582723
 51
213.437733
  0
ARC
  8
0
  6
CONTINUOUS
 62
1
 10
87.100222
 20
102.203588
 40
2.000000
 50
64.732944
 51
120.656818
  0
ARC
  8
0
  6
CONTINUOUS
 62
1
 10
86.672290
 20
103.948296
 40
2.000000
 50
265.846562
 51
323.324628
  0
ARC
  8
0
  6
CONTINUOUS
 62
1
 10
86.412788
 20
102.946955
 40
1.000000
 50
195.000000
 51
276.583241
  0
ARC
  8
0
  6
CONTINUOUS
 62
1
 10
86.412788
 20
102.946955
 40
1.000000
 50
119.981778
 51
195.000000
  0
LINE
  8
0
  6
CONTINUOUS
 62
1
 10
85.913063
 20
103.813140
 11
86.080432
 21
103.924062
  0
ARC
  8
0
  6
CONTINUOUS
 62
1
 10
87.378625
 20
103.194283
 40
1.000000
 50
333.861185
 51
54.881299
  0
ARC
  8
0
  6
CONTINUOUS
 62
1
 10
87.920802
 20
92.434104
 40
11.798055
 50
93.988266
 51
121.553665
  0
LINE
  8
0
  6
CONTINUOUS
 62
1
 10
89.862734
 20
103.772565
 11
87.427594
 21
104.176613
  0
ARC
  8
0
  6
CONTINUOUS
 62
1
 10
87.667452
 20
99.496772
 40
6.455057
 50
5.383306
 51
55.738501
  0
ARC
  8
0
  6
CONTINUOUS
 62
1
 10
90.949729
 20
104.476361
 40
0.500000
 50
45.294432
 51
180.000000
  0
LINE
  8
0
  6
CONTINUOUS
 62
1
 10
92.332616
 20
94.093487
 11
90.240186
 21
91.429470
  0
LINE
  8
0
  6
CONTINUOUS
 62
1
 10
90.424500
 20
91.664133
 11
90.424500
 21
94.093487
  0
LINE
  8
0
  6
CONTINUOUS
 62
1
 10
89.424500
 20
94.093487
 11
89.424500
 21
91.902374
  0
LINE
  8
0
  6
CONTINUOUS
 62
1
 10
91.424500
 20
94.093487
 11
91.424500
 21
92.937302
  0
LINE
  8
0
  6
CONTINUOUS
 62
1
 10
88.424500
 20
91.928560
 11
88.424500
 21
94.093487
  0
LINE
  8
0
  6
CONTINUOUS
 62
1
 10
87.424500
 20
94.093487
 11
87.424500
 21
91.954746
  0
LINE
  8
0
  6
CONTINUOUS
 62
1
 10
91.757498
 20
93.361264
 11
87.424500
 21
93.361264
  0
LINE
  8
0
  6
CONTINUOUS
 62
1
 10
87.424500
 20
92.361264
 11
90.972056
 21
92.361264
  0
TEXT
  8
0
  6
CONTINUOUS
 62
1
 10
78.101752
 20
133.247968
 40
2.000000
  1
GLAZING STUD
 50
90.000000
 41
1.000000
 51
0.000000
  7
STANDARD
  0
TEXT
  8
0
  6
CONTINUOUS
 62
1
 10
82.101752
 20
133.247968
 40
2.000000
  1
BY CRITTALL
 50
90.000000
 41
1.000000
 51
0.000000
  7
STANDARD
  0
TEXT
  8
0
  6
CONTINUOUS
 62
1
 10
91.406666
 20
133.247968
 40
2.000000
  1
GLAZING BEAD
 50
90.000000
 41
1.000000
 51
0.000000
  7
STANDARD
  0
TEXT
  8
0
  6
CONTINUOUS
 62
1
 10
95.406666
 20
133.247968
 40
2.000000
  1
BY CRITTALL
 50
90.000000
 41
1.000000
 51
0.000000
  7
STANDARD
  0
TEXT
  8
0
  6
CONTINUOUS
 62
1
 10
58.059296
 20
49.711426
 40
2.000000
  1
4.0mm SETTING
 50
90.000000
 41
1.000000
 51
0.000000
  7
STANDARD
  0
TEXT
  8
0
  6
CONTINUOUS
 62
1
 10
62.059296
 20
49.711426
 40
2.000000
  1
BLOCK BY
 50
90.000000
 41
1.000000
 51
0.000000
  7
STANDARD
  0
TEXT
  8
0
  6
CONTINUOUS
 62
1
 10
66.059296
 20
49.711426
 40
2.000000
  1
GLAZIER
 50
90.000000
 41
1.000000
 51
0.000000
  7
STANDARD
  0
TEXT
  8
0
  6
CONTINUOUS
 62
1
 10
75.480327
 20
49.711426
 40
2.000000
  1
V530 FOAM TAPE
 50
90.000000
 41
1.000000
 51
0.000000
  7
STANDARD
  0
TEXT
  8
0
  6
CONTINUOUS
 62
1
 10
79.480327
 20
49.711426
 40
2.000000
  1
BY CRITTALL
 50
90.000000
 41
1.000000
 51
0.000000
  7
STANDARD
  0
TEXT
  8
0
  6
CONTINUOUS
 62
1
 10
95.847561
 20
49.711426
 40
2.000000
  1
SILICONE CAP
 50
90.000000
 41
1.000000
 51
0.000000
  7
STANDARD
  0
TEXT
  8
0
  6
CONTINUOUS
 62
1
 10
99.847561
 20
49.711426
 40
2.000000
  1
BY GLAZIER
 50
90.000000
 41
1.000000
 51
0.000000
  7
STANDARD
  0
LINE
  8
0
  6
CONTINUOUS
 62
1
 10
120.835527
 20
79.377091
 11
120.835527
 21
100.102374
  0
LINE
  8
0
  6
CONTINUOUS
 62
1
 10
120.835527
 20
107.102374
 11
119.634076
 21
105.655350
  0
LINE
  8
0
  6
CONTINUOUS
 62
1
 10
119.634076
 20
105.655350
 11
121.773742
 21
103.738954
  0
LINE
  8
0
  6
CONTINUOUS
 62
1
 10
121.773742
 20
103.738954
 11
119.931769
 21
101.878375
  0
LINE
  8
0
  6
CONTINUOUS
 62
1
 10
119.931769
 20
101.878375
 11
120.835527
 21
100.102374
  0
LINE
  8
0
  6
CONTINUOUS
 62
1
 10
120.835527
 20
107.102374
 11
120.835527
 21
129.566146
  0
LINE
  8
0
  6
CONTINUOUS
 62
1
 10
77.890033
 20
129.566146
 11
120.835527
 21
129.566146
  0
LINE
  8
0
  6
CONTINUOUS
 62
1
 10
77.890033
 20
125.377091
 11
120.835527
 21
125.377091
  0
LINE
  8
0
  6
CONTINUOUS
 62
1
 10
85.593250
 20
112.889805
 11
120.835527
 21
112.889805
  0
LINE
  8
0
  6
CONTINUOUS
 62
1
 10
90.949729
 20
104.976361
 11
120.392171
 21
104.976361
  0
LINE
  8
0
  6
CONTINUOUS
 62
1
 10
90.390033
 20
91.429470
 11
120.835527
 21
91.429470
  0
LINE
  8
0
  6
CONTINUOUS
 62
1
 10
90.390033
 20
89.477091
 11
120.835527
 21
89.477091
  0
LINE
  8
0
  6
CONTINUOUS
 62
1
 10
80.090033
 20
82.577091
 11
120.835527
 21
82.577091
  0
LINE
  8
0
  6
CONTINUOUS
 62
1
 10
76.890033
 20
79.377091
 11
120.835527
 21
79.377091
  0
LINE
  8
0
  6
CONTINUOUS
 62
1
 10
83.163151
 20
94.102374
 11
78.827670
 21
94.102374
  0
TEXT
  8
0
  6
CONTINUOUS
 62
1
 10
195.795597
 20
133.247968
 40
2.000000
  1
GLAZING STUD
 50
90.000000
 41
1.000000
 51
0.000000
  7
STANDARD
  0
TEXT
  8
0
  6
CONTINUOUS
 62
1
 10
199.795597
 20
133.247968
 40
2.000000
  1
BY CRITTALL
 50
90.000000
 41
1.000000
 51
0.000000
  7
STANDARD
  0
TEXT
  8
0
  6
CONTINUOUS
 62
1
 10
210.721047
 20
133.247968
 40
2.000000
  1
GLAZING BEAD
 50
90.000000
 41
1.000000
 51
0.000000
  7
STANDARD
  0
TEXT
  8
0
  6
CONTINUOUS
 62
1
 10
214.721047
 20
133.247968
 40
2.000000
  1
BY CRITTALL
 50
90.000000
 41
1.000000
 51
0.000000
  7
STANDARD
  0
LINE
  8
0
  6
CONTINUOUS
 62
1
 10
234.311126
 20
94.377091
 11
196.394732
 21
94.377091
  0
LINE
  8
0
  6
CONTINUOUS
 62
1
 10
196.394732
 20
114.261021
 11
196.394732
 21
94.377091
  0
LINE
  8
0
  6
CONTINUOUS
 62
1
 10
205.394732
 20
98.377091
 11
205.394732
 21
110.261021
  0
LINE
  8
0
  6
CONTINUOUS
 62
1
 10
196.394732
 20
94.377091
 11
192.309795
 21
94.377091
  0
LINE
  8
0
  6
CONTINUOUS
 62
1
 10
196.394732
 20
110.261021
 11
205.394732
 21
98.377091
  0
LINE
  8
0
  6
CONTINUOUS
 62
1
 10
205.394732
 20
110.261021
 11
196.394732
 21
98.377091
  0
TEXT
  8
0
  6
CONTINUOUS
 62
1
 10
105.438868
 20
133.247968
 40
2.000000
  1
VISIONSTRIP
 50
90.000000
 41
1.000000
 51
0.000000
  7
STANDARD
  0
TEXT
  8
0
  6
CONTINUOUS
 62
1
 10
109.438868
 20
133.247968
 40
2.000000
  1
BY CRITTALL
 50
90.000000
 41
1.000000
 51
0.000000
  7
STANDARD
  0
TEXT
  8
0
  6
CONTINUOUS
 62
1
 10
223.260712
 20
133.247968
 40
2.000000
  1
VISIONSTRIP
 50
90.000000
 41
1.000000
 51
0.000000
  7
STANDARD
  0
TEXT
  8
0
  6
CONTINUOUS
 62
1
 10
227.260712
 20
133.247968
 40
2.000000
  1
BY CRITTALL
 50
90.000000
 41
1.000000
 51
0.000000
  7
STANDARD
  0
LINE
  8
0
  6
CONTINUOUS
 62
1
 10
107.003958
 20
132.047453
 11
93.069903
 21
103.029658
  0
LINE
  8
0
  6
CONTINUOUS
 62
1
 10
94.193223
 20
104.708925
 11
93.678096
 21
104.956284
  0
LINE
  8
0
  6
CONTINUOUS
 62
1
 10
93.678096
 20
104.956284
 11
93.069903
 21
103.029658
  0
LINE
  8
0
  6
CONTINUOUS
 62
1
 10
93.069903
 20
103.029658
 11
94.193223
 21
104.708925
  0
LINE
  8
0
  6
CONTINUOUS
 62
1
 10
196.770167
 20
132.047453
 11
194.394346
 21
123.903521
  0
LINE
  8
0
  6
CONTINUOUS
 62
1
 10
195.228807
 20
125.743624
 11
194.680200
 21
125.903669
  0
LINE
  8
0
  6
CONTINUOUS
 62
1
 10
194.680200
 20
125.903669
 11
194.394346
 21
123.903521
  0
LINE
  8
0
  6
CONTINUOUS
 62
1
 10
194.394346
 20
123.903521
 11
195.228807
 21
125.743624
  0
LINE
  8
0
  6
CONTINUOUS
 62
1
 10
211.737604
 20
132.047453
 11
202.031532
 21
121.358542
  0
LINE
  8
0
  6
CONTINUOUS
 62
1
 10
203.587692
 20
122.647229
 11
203.164614
 21
123.031406
  0
LINE
  8
0
  6
CONTINUOUS
 62
1
 10
203.164614
 20
123.031406
 11
202.031532
 21
121.358542
  0
LINE
  8
0
  6
CONTINUOUS
 62
1
 10
202.031532
 20
121.358542
 11
203.587692
 21
122.647229
  0
LINE
  8
0
  6
CONTINUOUS
 62
1
 10
224.210468
 20
132.047453
 11
206.360085
 21
116.310587
  0
LINE
  8
0
  6
CONTINUOUS
 62
1
 10
208.049307
 20
117.418901
 11
207.671410
 21
117.847550
  0
LINE
  8
0
  6
CONTINUOUS
 62
1
 10
207.671410
 20
117.847550
 11
206.360085
 21
116.310587
  0
LINE
  8
0
  6
CONTINUOUS
 62
1
 10
206.360085
 20
116.310587
 11
208.049307
 21
117.418901
  0
LINE
  8
0
  6
CONTINUOUS
 62
1
 10
173.111847
 20
73.914396
 11
191.365632
 21
96.039187
  0
LINE
  8
0
  6
CONTINUOUS
 62
1
 10
189.872392
 20
94.678251
 11
190.313183
 21
94.314581
  0
LINE
  8
0
  6
CONTINUOUS
 62
1
 10
190.313183
 20
94.314581
 11
191.365632
 21
96.039187
  0
LINE
  8
0
  6
CONTINUOUS
 62
1
 10
191.365632
 20
96.039187
 11
189.872392
 21
94.678251
  0
LINE
  8
0
  6
CONTINUOUS
 62
1
 10
190.768920
 20
71.334796
 11
198.886019
 21
92.007486
  0
LINE
  8
0
  6
CONTINUOUS
 62
1
 10
197.889055
 20
90.250191
 11
198.420976
 21
90.041332
  0
LINE
  8
0
  6
CONTINUOUS
 62
1
 10
198.420976
 20
90.041332
 11
198.886019
 21
92.007486
  0
LINE
  8
0
  6
CONTINUOUS
 62
1
 10
198.886019
 20
92.007486
 11
197.889055
 21
90.250191
  0
LINE
  8
0
  6
CONTINUOUS
 62
1
 10
216.452266
 20
73.914396
 11
204.309906
 21
92.688735
  0
LINE
  8
0
  6
CONTINUOUS
 62
1
 10
205.156236
 20
90.853973
 11
205.636116
 21
91.164336
  0
LINE
  8
0
  6
CONTINUOUS
 62
1
 10
205.636116
 20
91.164336
 11
204.309906
 21
92.688735
  0
LINE
  8
0
  6
CONTINUOUS
 62
1
 10
204.309906
 20
92.688735
 11
205.156236
 21
90.853973
  0
TEXT
  8
0
  6
CONTINUOUS
 62
1
 10
129.247018
 20
82.039767
 40
3.000000
  1
6.0mm SINGLE GLASS
 50
90.000000
 41
1.000000
 51
0.000000
  7
STANDARD
  0
LINE
  8
0
  6
CONTINUOUS
 62
1
 10
130.747018
 20
129.084410
 11
130.747018
 21
81.370124
  0
TEXT
  8
0
  6
CONTINUOUS
 62
1
 10
243.786528
 20
80.105952
 40
3.000000
  1
20.0mm DOUBLE GLASS
 50
90.000000
 41
1.000000
 51
0.000000
  7
STANDARD
  0
LINE
  8
0
  6
CONTINUOUS
 62
1
 10
245.286528
 20
132.150595
 11
245.286528
 21
79.436309
  0
TEXT
  8
0
  6
CONTINUOUS
 62
1
 10
30.208882
 20
26.247061
 40
3.000000
  1
GLAZING DETAILS
 50
90.000000
 41
1.000000
 51
0.000000
  7
STANDARD
  0
LINE
  8
0
  6
CONTINUOUS
 62
1
 10
31.708882
 20
62.720276
 11
31.708882
 21
25.577418
  0
LINE
  8
0
  6
CONTINUOUS
 62
1
 10
282.901785
 20
186.739739
 11
279.433035
 21
186.739739
  0
LINE
  8
0
  6
CONTINUOUS
 62
1
 10
279.433035
 20
186.739739
 11
279.433035
 21
189.458489
  0
ARC
  8
0
  6
CONTINUOUS
 62
1
 10
283.966141
 20
189.569699
 40
4.534471
 50
163.405357
 51
181.405357
  0
ARC
  8
0
  6
CONTINUOUS
 62
1
 10
282.160345
 20
189.977086
 40
2.690458
 50
112.735705
 51
160.735705
  0
ARC
  8
0
  6
CONTINUOUS
 62
1
 10
283.181974
 20
187.228644
 40
5.621460
 50
74.512786
 51
111.512788
  0
ARC
  8
0
  6
CONTINUOUS
 62
1
 10
283.943812
 20
189.654529
 40
3.081441
 50
35.119655
 51
76.119655
  0
ARC
  8
0
  6
CONTINUOUS
 62
1
 10
283.318144
 20
189.644610
 40
3.616071
 50
358.536243
 51
29.536243
  0
LINE
  8
0
  6
CONTINUOUS
 62
1
 10
286.933035
 20
189.552239
 11
286.933035
 21
186.739739
  0
LINE
  8
0
  6
CONTINUOUS
 62
1
 10
286.933035
 20
186.739739
 11
282.901785
 21
186.739739
  0
LINE
  8
0
  6
CONTINUOUS
 62
1
 10
280.276785
 20
187.770989
 11
286.089285
 21
187.770989
  0
LINE
  8
0
  6
CONTINUOUS
 62
1
 10
286.089285
 20
187.770989
 11
286.089285
 21
189.552239
  0
ARC
  8
0
  6
CONTINUOUS
 62
1
 10
282.307178
 20
189.321272
 40
3.789152
 50
3.494617
 51
22.494616
  0
ARC
  8
0
  6
CONTINUOUS
 62
1
 10
284.296729
 20
189.915933
 40
1.736423
 50
29.500000
 51
60.500000
  0
ARC
  8
0
  6
CONTINUOUS
 62
1
 10
283.067172
 20
186.802511
 40
5.072841
 50
65.736358
 51
104.736360
  0
ARC
  8
0
  6
CONTINUOUS
 62
1
 10
282.491119
 20
189.518917
 40
2.303150
 50
108.068592
 51
147.068593
  0
ARC
  8
0
  6
CONTINUOUS
 62
1
 10
283.049484
 20
189.550723
 40
2.774234
 50
153.905243
 51
181.905244
  0
LINE
  8
0
  6
CONTINUOUS
 62
1
 10
280.276785
 20
189.458489
 11
280.276785
 21
187.770989
  0
LINE
  8
0
  6
CONTINUOUS
 62
1
 10
282.151785
 20
194.802239
 11
281.308035
 21
194.802239
  0
ARC
  8
0
  6
CONTINUOUS
 62
1
 10
276.889093
 20
192.668542
 40
4.907108
 50
25.773689
 51
58.773690
  0
LINE
  8
0
  6
CONTINUOUS
 62
1
 10
279.433035
 20
196.864739
 11
279.433035
 21
197.520989
  0
LINE
  8
0
  6
CONTINUOUS
 62
1
 10
279.433035
 20
197.520989
 11
283.183035
 21
197.520989
  0
LINE
  8
0
  6
CONTINUOUS
 62
1
 10
283.183035
 20
197.520989
 11
286.933035
 21
197.520989
  0
LINE
  8
0
  6
CONTINUOUS
 62
1
 10
286.933035
 20
197.520989
 11
286.933035
 21
196.489739
  0
LINE
  8
0
  6
CONTINUOUS
 62
1
 10
286.933035
 20
196.489739
 11
281.120535
 21
196.489739
  0
ARC
  8
0
  6
CONTINUOUS
 62
1
 10
278.252063
 20
193.577930
 40
4.087390
 50
17.429565
 51
45.429566
  0
LINE
  8
0
  6
CONTINUOUS
 62
1
 10
78.827670
 20
94.102374
 11
78.827670
 21
92.265640
  0
LINE
  8
0
  6
CONTINUOUS
 62
1
 10
192.309795
 20
92.179691
 11
192.309795
 21
94.377091
  0
LINE
  8
0
  6
CONTINUOUS
 62
1
 10
78.542197
 20
73.475181
 11
83.640033
 21
92.053845
  0
LINE
  8
0
  6
CONTINUOUS
 62
1
 10
82.835227
 20
90.200617
 11
83.386323
 21
90.049401
  0
LINE
  8
0
  6
CONTINUOUS
 62
1
 10
83.386323
 20
90.049401
 11
83.640033
 21
92.053845
  0
LINE
  8
0
  6
CONTINUOUS
 62
1
 10
83.640033
 20
92.053845
 11
82.835227
 21
90.200617
  0
CIRCLE
  8
0
  6
CONTINUOUS
 62
1
 10
79.647486
 20
93.489024
 40
0.250000
  0
CIRCLE
  8
0
  6
CONTINUOUS
 62
1
 10
81.023702
 20
92.730576
 40
0.250000
  0
CIRCLE
  8
0
  6
CONTINUOUS
 62
1
 10
82.681277
 20
93.489024
 40
0.250000
  0
CIRCLE
  8
0
  6
CONTINUOUS
 62
1
 10
84.387784
 20
92.698974
 40
0.250000
  0
CIRCLE
  8
0
  6
CONTINUOUS
 62
1
 10
86.220699
 20
93.457422
 40
0.250000
  0
TEXT
  8
0
  6
CONTINUOUS
 62
1
 10
170.524932
 20
49.711426
 40
2.000000
  1
4.0mm SETTING
 50
90.000000
 41
1.000000
 51
0.000000
  7
STANDARD
  0
TEXT
  8
0
  6
CONTINUOUS
 62
1
 10
174.524932
 20
49.711426
 40
2.000000
  1
BLOCK BY
 50
90.000000
 41
1.000000
 51
0.000000
  7
STANDARD
  0
TEXT
  8
0
  6
CONTINUOUS
 62
1
 10
178.524932
 20
49.711426
 40
2.000000
  1
GLAZIER
 50
90.000000
 41
1.000000
 51
0.000000
  7
STANDARD
  0
TEXT
  8
0
  6
CONTINUOUS
 62
1
 10
187.877786
 20
49.711426
 40
2.000000
  1
V530 FOAM TAPE
 50
90.000000
 41
1.000000
 51
0.000000
  7
STANDARD
  0
TEXT
  8
0
  6
CONTINUOUS
 62
1
 10
191.877786
 20
49.711426
 40
2.000000
  1
BY CRITTALL
 50
90.000000
 41
1.000000
 51
0.000000
  7
STANDARD
  0
TEXT
  8
0
  6
CONTINUOUS
 62
1
 10
215.319509
 20
49.711426
 40
2.000000
  1
SILICONE CAP
 50
90.000000
 41
1.000000
 51
0.000000
  7
STANDARD
  0
TEXT
  8
0
  6
CONTINUOUS
 62
1
 10
219.319509
 20
49.711426
 40
2.000000
  1
BY GLAZIER
 50
90.000000
 41
1.000000
 51
0.000000
  7
STANDARD
  0
LINE
  8
0
  6
CONTINUOUS
 62
1
 10
196.394732
 20
113.261021
 11
234.311126
 21
113.261021
  0
LINE
  8
0
  6
CONTINUOUS
 62
1
 10
234.311126
 20
112.261021
 11
196.394732
 21
112.261021
  0
LINE
  8
0
  6
CONTINUOUS
 62
1
 10
196.394732
 20
111.261021
 11
234.311126
 21
111.261021
  0
LINE
  8
0
  6
CONTINUOUS
 62
1
 10
234.311126
 20
110.261021
 11
196.394732
 21
110.261021
  0
LINE
  8
0
  6
CONTINUOUS
 62
1
 10
196.394732
 20
95.377091
 11
234.311126
 21
95.377091
  0
LINE
  8
0
  6
CONTINUOUS
 62
1
 10
234.311126
 20
96.377091
 11
196.394732
 21
96.377091
  0
LINE
  8
0
  6
CONTINUOUS
 62
1
 10
196.394732
 20
97.377091
 11
234.311126
 21
97.377091
  0
LINE
  8
0
  6
CONTINUOUS
 62
1
 10
234.311126
 20
98.377091
 11
196.394732
 21
98.377091
  0
CIRCLE
  8
0
  6
CONTINUOUS
 62
1
 10
193.129611
 20
93.763740
 40
0.250000
  0
CIRCLE
  8
0
  6
CONTINUOUS
 62
1
 10
194.505826
 20
93.005293
 40
0.250000
  0
CIRCLE
  8
0
  6
CONTINUOUS
 62
1
 10
196.163401
 20
93.763740
 40
0.250000
  0
CIRCLE
  8
0
  6
CONTINUOUS
 62
1
 10
197.869908
 20
92.973691
 40
0.250000
  0
CIRCLE
  8
0
  6
CONTINUOUS
 62
1
 10
199.702824
 20
93.732138
 40
0.250000
  0
ENDSEC
  0
EOF
